  0
SECTION
  2
HEADER
  9
$ACADVER
  1
AC1014
  9
$ACADMAINTVER
 70
     9
  9
$DWGCODEPAGE
  3
ANSI_1252
  9
$INSBASE
 10
0.0
 20
0.0
 30
0.0
  9
$EXTMIN
 10
0.0
 20
0.0
 30
0.0
  9
$EXTMAX
 10
17.00000000000068
 20
11.00000000000044
 30
0.0
  9
$LIMMIN
 10
0.0
 20
0.0
  9
$LIMMAX
 10
17.00000000000068
 20
11.00000000000044
  9
$ORTHOMODE
 70
     1
  9
$REGENMODE
 70
     0
  9
$FILLMODE
 70
     1
  9
$QTEXTMODE
 70
     0
  9
$MIRRTEXT
 70
     1
  9
$DRAGMODE
 70
     2
  9
$LTSCALE
 40
0.2
  9
$OSMODE
 70
    37
  9
$ATTMODE
 70
     1
  9
$TEXTSIZE
 40
0.12
  9
$TRACEWID
 40
0.05
  9
$TEXTSTYLE
  7
ROMANS
  9
$CLAYER
  8
TXT
  9
$CELTYPE
  6
BYLAYER
  9
$CECOLOR
 62
   256
  9
$CELTSCALE
 40
1.0
  9
$DELOBJ
 70
     1
  9
$DISPSILH
 70
     0
  9
$DIMSCALE
 40
1.0
  9
$DIMASZ
 40
0.12
  9
$DIMEXO
 40
0.1
  9
$DIMDLI
 40
0.38
  9
$DIMRND
 40
0.0
  9
$DIMDLE
 40
0.0
  9
$DIMEXE
 40
0.1
  9
$DIMTP
 40
0.0
  9
$DIMTM
 40
0.0
  9
$DIMTXT
 40
0.12
  9
$DIMCEN
 40
0.09
  9
$DIMTSZ
 40
0.0
  9
$DIMTOL
 70
     0
  9
$DIMLIM
 70
     0
  9
$DIMTIH
 70
     1
  9
$DIMTOH
 70
     1
  9
$DIMSE1
 70
     0
  9
$DIMSE2
 70
     0
  9
$DIMTAD
 70
     0
  9
$DIMZIN
 70
     0
  9
$DIMBLK
  1

  9
$DIMASO
 70
     0
  9
$DIMSHO
 70
     0
  9
$DIMPOST
  1

  9
$DIMAPOST
  1

  9
$DIMALT
 70
     0
  9
$DIMALTD
 70
     2
  9
$DIMALTF
 40
25.4
  9
$DIMLFAC
 40
1.0
  9
$DIMTOFL
 70
     0
  9
$DIMTVP
 40
0.0
  9
$DIMTIX
 70
     0
  9
$DIMSOXD
 70
     0
  9
$DIMSAH
 70
     0
  9
$DIMBLK1
  1

  9
$DIMBLK2
  1

  9
$DIMSTYLE
  2
STANDARD
  9
$DIMCLRD
 70
     0
  9
$DIMCLRE
 70
     0
  9
$DIMCLRT
 70
     0
  9
$DIMTFAC
 40
1.0
  9
$DIMGAP
 40
0.09
  9
$DIMJUST
 70
     0
  9
$DIMSD1
 70
     0
  9
$DIMSD2
 70
     0
  9
$DIMTOLJ
 70
     1
  9
$DIMTZIN
 70
     0
  9
$DIMALTZ
 70
     0
  9
$DIMALTTZ
 70
     0
  9
$DIMFIT
 70
     5
  9
$DIMUPT
 70
     0
  9
$DIMUNIT
 70
     2
  9
$DIMDEC
 70
     3
  9
$DIMTDEC
 70
     3
  9
$DIMALTU
 70
     2
  9
$DIMALTTD
 70
     2
  9
$DIMTXSTY
  7
ROMANS
  9
$DIMAUNIT
 70
     0
  9
$LUNITS
 70
     2
  9
$LUPREC
 70
     3
  9
$SKETCHINC
 40
0.1
  9
$FILLETRAD
 40
0.0
  9
$AUNITS
 70
     0
  9
$AUPREC
 70
     1
  9
$MENU
  1
ACAD
  9
$ELEVATION
 40
0.0
  9
$PELEVATION
 40
0.0
  9
$THICKNESS
 40
0.0
  9
$LIMCHECK
 70
     0
  9
$BLIPMODE
 70
     0
  9
$CHAMFERA
 40
0.0
  9
$CHAMFERB
 40
0.0
  9
$CHAMFERC
 40
0.0
  9
$CHAMFERD
 40
0.0
  9
$SKPOLY
 70
     0
  9
$TDCREATE
 40
2450322.581782291
  9
$TDUPDATE
 40
2452152.604167708
  9
$TDINDWG
 40
0.0112642361
  9
$TDUSRTIMER
 40
0.0112642361
  9
$USRTIMER
 70
     1
  9
$ANGBASE
 50
0.0
  9
$ANGDIR
 70
     0
  9
$PDMODE
 70
     2
  9
$PDSIZE
 40
0.085
  9
$PLINEWID
 40
0.0
  9
$COORDS
 70
     0
  9
$SPLFRAME
 70
     0
  9
$SPLINETYPE
 70
     6
  9
$SPLINESEGS
 70
     8
  9
$ATTDIA
 70
     0
  9
$ATTREQ
 70
     1
  9
$HANDLING
 70
 10241
  9
$HANDSEED
  5
2FEE
  9
$SURFTAB1
 70
     6
  9
$SURFTAB2
 70
     6
  9
$SURFTYPE
 70
     6
  9
$SURFU
 70
     6
  9
$SURFV
 70
     6
  9
$UCSNAME
  2

  9
$UCSORG
 10
0.0
 20
0.0
 30
0.0
  9
$UCSXDIR
 10
1.0
 20
0.0
 30
0.0
  9
$UCSYDIR
 10
0.0
 20
1.0
 30
0.0
  9
$PUCSNAME
  2

  9
$PUCSORG
 10
0.0
 20
0.0
 30
0.0
  9
$PUCSXDIR
 10
1.0
 20
0.0
 30
0.0
  9
$PUCSYDIR
 10
0.0
 20
1.0
 30
0.0
  9
$USERI1
 70
     0
  9
$USERI2
 70
     0
  9
$USERI3
 70
     0
  9
$USERI4
 70
     0
  9
$USERI5
 70
     0
  9
$USERR1
 40
0.0
  9
$USERR2
 40
0.0
  9
$USERR3
 40
0.0
  9
$USERR4
 40
0.0
  9
$USERR5
 40
0.0
  9
$WORLDVIEW
 70
     1
  9
$SHADEDGE
 70
     3
  9
$SHADEDIF
 70
    70
  9
$TILEMODE
 70
     1
  9
$MAXACTVP
 70
    16
  9
$PINSBASE
 10
0.0
 20
0.0
 30
0.0
  9
$PLIMCHECK
 70
     0
  9
$PEXTMIN
 10
1.000000000000000E+20
 20
1.000000000000000E+20
 30
1.000000000000000E+20
  9
$PEXTMAX
 10
-1.000000000000000E+20
 20
-1.000000000000000E+20
 30
-1.000000000000000E+20
  9
$PLIMMIN
 10
0.0
 20
0.0
  9
$PLIMMAX
 10
12.0
 20
9.0
  9
$UNITMODE
 70
     0
  9
$VISRETAIN
 70
     0
  9
$PLINEGEN
 70
     0
  9
$PSLTSCALE
 70
     0
  9
$TREEDEPTH
 70
  3020
  9
$PICKSTYLE
 70
     1
  9
$CMLSTYLE
  2
STANDARD
  9
$CMLJUST
 70
     0
  9
$CMLSCALE
 40
1.0
  9
$PROXYGRAPHICS
 70
     1
  9
$MEASUREMENT
 70
     0
  0
ENDSEC
  0
SECTION
  2
CLASSES
  0
CLASS
  1
DICTIONARYVAR
  2
AcDbDictionaryVar
  3
AutoCAD 2000
 90
        0
280
     0
281
     0
  0
CLASS
  1
HATCH
  2
AcDbHatch
  3
AutoCAD 2000
 90
        0
280
     0
281
     1
  0
CLASS
  1
LWPOLYLINE
  2
AcDbPolyline
  3
AutoCAD 2000
 90
        0
280
     0
281
     1
  0
CLASS
  1
ACDBDICTIONARYWDFLT
  2
AcDbDictionaryWithDefault
  3
AutoCAD 2000
 90
        0
280
     0
281
     0
  0
CLASS
  1
ACDBPLACEHOLDER
  2
AcDbPlaceHolder
  3
AutoCAD 2000
 90
        0
280
     0
281
     0
  0
CLASS
  1
LAYOUT
  2
AcDbLayout
  3
AutoCAD 2000
 90
        0
280
     0
281
     0
  0
CLASS
  1
LONG_TRANSACTION
  2
AcDbLongTransaction
  3
AutoCAD 2000
 90
        0
280
     0
281
     0
  0
CLASS
  1
LWPOLYLINE
  2
AcDbPolyline
  3
AutoCAD 2000
 90
        0
280
     0
281
     1
  0
CLASS
  1
HATCH
  2
AcDbHatch
  3
AutoCAD 2000
 90
        0
280
     0
281
     1
  0
CLASS
  1
XRECORD
  2
AcDbXrecord
  3
AutoCAD 2000
 90
        0
280
     0
281
     0
  0
ENDSEC
  0
SECTION
  2
TABLES
  0
TABLE
  2
VPORT
  5
210B
330
0
100
AcDbSymbolTable
 70
     2
  0
VPORT
  5
2FC8
330
210B
100
AcDbSymbolTableRecord
100
AcDbViewportTableRecord
  2
*ACTIVE
 70
     0
 10
0.0
 20
0.0
 11
1.0
 21
1.0
 12
10.815257208189
 22
5.500000051224525
 13
0.0
 23
0.0
 14
0.1
 24
0.1
 15
0.1
 25
0.1
 16
0.0
 26
0.0
 36
1.0
 17
0.0
 27
0.0
 37
0.0
 40
11.14030714470507
 41
2.204705882352941
 42
50.0
 43
0.0
 44
0.0
 50
0.0
 51
0.0
 71
     0
 72
  2000
 73
     1
 74
     0
 75
     0
 76
     0
 77
     0
 78
     0
  0
ENDTAB
  0
TABLE
  2
LTYPE
  5
2108
330
0
100
AcDbSymbolTable
 70
     2
  0
LTYPE
  5
2114
330
2108
100
AcDbSymbolTableRecord
100
AcDbLinetypeTableRecord
  2
BYBLOCK
 70
     0
  3

 72
    65
 73
     0
 40
0.0
  0
LTYPE
  5
2115
330
2108
100
AcDbSymbolTableRecord
100
AcDbLinetypeTableRecord
  2
BYLAYER
 70
     0
  3

 72
    65
 73
     0
 40
0.0
  0
LTYPE
  5
2116
330
2108
100
AcDbSymbolTableRecord
100
AcDbLinetypeTableRecord
  2
CONTINUOUS
 70
     0
  3
Solid line
 72
    65
 73
     0
 40
0.0
  0
LTYPE
  5
213F
330
2108
100
AcDbSymbolTableRecord
100
AcDbLinetypeTableRecord
  2
CENTER
 70
     0
  3
____ _ ____ _ ____ _ ____ _ ____ _ ____ _ ____
 72
    65
 73
     4
 40
2.0
 49
1.25
 74
     0
 49
-0.25
 74
     0
 49
0.25
 74
     0
 49
-0.25
 74
     0
  0
ENDTAB
  0
TABLE
  2
LAYER
  5
2105
330
0
100
AcDbSymbolTable
 70
     9
  0
LAYER
  5
2111
330
2105
100
AcDbSymbolTableRecord
100
AcDbLayerTableRecord
  2
0
 70
     0
 62
     7
  6
CONTINUOUS
  0
LAYER
  5
2143
330
2105
100
AcDbSymbolTableRecord
100
AcDbLayerTableRecord
  2
BORDER
 70
     0
 62
     7
  6
CONTINUOUS
  0
LAYER
  5
2144
330
2105
100
AcDbSymbolTableRecord
100
AcDbLayerTableRecord
  2
TXT
 70
     0
 62
     7
  6
CONTINUOUS
  0
LAYER
  5
2145
330
2105
100
AcDbSymbolTableRecord
100
AcDbLayerTableRecord
  2
TB-TXT
 70
     0
 62
     7
  6
CONTINUOUS
  0
LAYER
  5
2146
330
2105
100
AcDbSymbolTableRecord
100
AcDbLayerTableRecord
  2
PART
 70
     0
 62
     7
  6
CONTINUOUS
  0
LAYER
  5
2147
330
2105
100
AcDbSymbolTableRecord
100
AcDbLayerTableRecord
  2
DIM
 70
     0
 62
     7
  6
CONTINUOUS
  0
LAYER
  5
2155
330
2105
100
AcDbSymbolTableRecord
100
AcDbLayerTableRecord
  2
SILK
 70
     0
 62
     7
  6
CONTINUOUS
  0
LAYER
  5
2158
330
2105
100
AcDbSymbolTableRecord
100
AcDbLayerTableRecord
  2
WHT
 70
     0
 62
     7
  6
CONTINUOUS
  0
LAYER
  5
2F49
330
2105
100
AcDbSymbolTableRecord
100
AcDbLayerTableRecord
  2
NEWLOGO
 70
     0
 62
     7
  6
CONTINUOUS
  0
ENDTAB
  0
TABLE
  2
STYLE
  5
2106
330
0
100
AcDbSymbolTable
 70
     5
  0
STYLE
  5
2112
330
2106
100
AcDbSymbolTableRecord
100
AcDbTextStyleTableRecord
  2
STANDARD
 70
     0
 40
0.0
 41
1.0
 50
0.0
 71
     0
 42
0.2
  3
txt
  4

  0
STYLE
  5
213D
330
2106
100
AcDbSymbolTableRecord
100
AcDbTextStyleTableRecord
  2
ROMANS
 70
     0
 40
0.12
 41
1.0
 50
0.0
 71
     0
 42
0.12
  3
ROMANS
  4

  0
STYLE
  5
213E
330
2106
100
AcDbSymbolTableRecord
100
AcDbTextStyleTableRecord
  2
ROMANT
 70
     0
 40
0.187
 41
1.0
 50
0.0
 71
     0
 42
0.187
  3
ROMANT
  4

  0
STYLE
  5
2159
330
2106
100
AcDbSymbolTableRecord
100
AcDbTextStyleTableRecord
  2
ARIAL
 70
     0
 40
0.0
 41
1.0
 50
0.0
 71
     0
 42
0.062
  3
ARIAL.TTF
  4

1001
ACAD
1000
Arial
1071
       34
  0
STYLE
  5
215A
330
2106
100
AcDbSymbolTableRecord
100
AcDbTextStyleTableRecord
  2
BOLD
 70
     0
 40
0.0
 41
1.0
 50
0.0
 71
     0
 42
0.12
  3
ARIALBD.TTF
  4

1001
ACAD
1000
Arial
1071
 33554466
  0
ENDTAB
  0
TABLE
  2
VIEW
  5
2109
330
0
100
AcDbSymbolTable
 70
     0
  0
ENDTAB
  0
TABLE
  2
UCS
  5
210A
330
0
100
AcDbSymbolTable
 70
     0
  0
ENDTAB
  0
TABLE
  2
APPID
  5
210C
330
0
100
AcDbSymbolTable
 70
     1
  0
APPID
  5
2113
330
210C
100
AcDbSymbolTableRecord
100
AcDbRegAppTableRecord
  2
ACAD
 70
     0
  0
ENDTAB
  0
TABLE
  2
DIMSTYLE
  5
210D
330
0
100
AcDbSymbolTable
 70
     1
  0
DIMSTYLE
105
2142
330
210D
100
AcDbSymbolTableRecord
100
AcDbDimStyleTableRecord
  2
STANDARD
 70
     0
  3

  4

  5

  6

  7

 40
1.0
 41
0.18
 42
0.0625
 43
0.38
 44
0.18
 45
0.0
 46
0.0
 47
0.0
 48
0.0
140
0.18
141
0.09
142
0.0
143
25.4
144
1.0
145
0.0
146
1.0
147
0.09
 71
     0
 72
     0
 73
     1
 74
     1
 75
     0
 76
     0
 77
     0
 78
     0
170
     0
171
     2
172
     0
173
     0
174
     0
175
     0
176
     0
177
     0
178
     0
270
     2
271
     3
272
     3
273
     2
274
     2
340
213D
275
     0
280
     0
281
     0
282
     0
283
     1
284
     0
285
     0
286
     0
287
     5
288
     0
  0
ENDTAB
  0
TABLE
  2
BLOCK_RECORD
  5
2104
330
0
100
AcDbSymbolTable
 70
     3
  0
BLOCK_RECORD
  5
211A
102
{ACAD_XDICTIONARY
360
2FEC
102
}
330
2104
100
AcDbSymbolTableRecord
100
AcDbBlockTableRecord
  2
*MODEL_SPACE
  0
BLOCK_RECORD
  5
2117
102
{ACAD_XDICTIONARY
360
2FEA
102
}
330
2104
100
AcDbSymbolTableRecord
100
AcDbBlockTableRecord
  2
*PAPER_SPACE
  0
BLOCK_RECORD
  5
211F
330
2104
100
AcDbSymbolTableRecord
100
AcDbBlockTableRecord
  2
TB-TXT-B
  0
BLOCK_RECORD
  5
2121
330
2104
100
AcDbSymbolTableRecord
100
AcDbBlockTableRecord
  2
RELEASE
  0
BLOCK_RECORD
  5
2122
330
2104
100
AcDbSymbolTableRecord
100
AcDbBlockTableRecord
  2
SIGNOFF
  0
ENDTAB
  0
ENDSEC
  0
SECTION
  2
BLOCKS
  0
BLOCK
  5
214D
330
211A
100
AcDbEntity
  8
0
100
AcDbBlockBegin
  2
*MODEL_SPACE
 70
     0
 10
0.0
 20
0.0
 30
0.0
  3
*MODEL_SPACE
  1

  0
ENDBLK
  5
214E
330
211A
100
AcDbEntity
  8
0
100
AcDbBlockEnd
  0
BLOCK
  5
214B
330
2117
100
AcDbEntity
 67
     1
  8
0
100
AcDbBlockBegin
  2
*PAPER_SPACE
 70
     0
 10
0.0
 20
0.0
 30
0.0
  3
*PAPER_SPACE
  1

  0
ENDBLK
  5
214C
330
2117
100
AcDbEntity
 67
     1
  8
0
100
AcDbBlockEnd
  0
BLOCK
  5
4D
330
211F
100
AcDbEntity
  8
0
100
AcDbBlockBegin
  2
TB-TXT-B
 70
     2
 10
0.0
 20
0.0
 30
0.0
  3
TB-TXT-B
  1

  0
ATTDEF
  5
4E
330
211F
100
AcDbEntity
  8
TB-TXT
100
AcDbText
 10
-4.627314107136998
 20
1.609509020876261
 30
0.0
 40
0.12
  1

  7
ROMANS
100
AcDbAttributeDefinition
  3
DRAWN BY
  2
DRAWN
 70
     0
  0
ATTDEF
  5
50
330
211F
100
AcDbEntity
  8
TB-TXT
100
AcDbText
 10
-4.056336832093668
 20
1.611156216884233
 30
0.0
 40
0.12
  1

 41
1.344330150280895
  7
ROMANS
 72
     5
 11
-3.533968545127377
 21
1.611156216884233
 31
0.0
100
AcDbAttributeDefinition
  3
DATE
  2
DATE
 70
     0
  0
ATTDEF
  5
51
330
211F
100
AcDbEntity
  8
TB-TXT
100
AcDbText
 10
-3.289904548388346
 20
1.087347886349108
 30
0.0
 40
0.12
  1

  7
ROMANS
100
AcDbAttributeDefinition
  3
TITLE (LINE 1)
  2
LINE1
 70
     0
  0
ATTDEF
  5
52
330
211F
100
AcDbEntity
  8
TB-TXT
100
AcDbText
 10
-3.289904548388346
 20
0.8930621720633947
 30
0.0
 40
0.12
  1

  7
ROMANS
100
AcDbAttributeDefinition
  3
TITLE (LINE 2)
  2
LINE2
 70
     0
  0
ATTDEF
  5
53
330
211F
100
AcDbEntity
  8
TB-TXT
100
AcDbText
 10
-3.289904548388346
 20
0.6987764577776799
 30
0.0
 40
0.12
  1

  7
ROMANS
100
AcDbAttributeDefinition
  3
TITLE (LINE 3)
  2
LINE3
 70
     0
  0
ATTDEF
  5
54
330
211F
100
AcDbEntity
  8
TB-TXT
100
AcDbText
 10
-2.978650769387687
 20
0.0671844920783911
 30
0.0
 40
0.12
  1
FULL
  7
ROMANS
100
AcDbAttributeDefinition
  3
SCALE
  2
SCALE
 70
     0
  0
ATTDEF
  5
55
330
211F
100
AcDbEntity
  8
TB-TXT
100
AcDbText
 10
-0.8749448011142266
 20
0.0671844920783911
 30
0.0
 40
0.12
  1
1 OF 1
  7
ROMANS
100
AcDbAttributeDefinition
  3
SHEET N0.
  2
SHT#
 70
     0
  0
ATTDEF
  5
56
330
211F
100
AcDbEntity
  8
TB-TXT
100
AcDbText
 10
-2.345171371310282
 20
0.0671844920783911
 30
0.0
 40
0.12
  1

  7
ROMANS
100
AcDbAttributeDefinition
  3
FILE NO.
  2
FILE#
 70
     0
  0
ATTDEF
  5
57
330
211F
100
AcDbEntity
  8
TB-TXT
100
AcDbText
 10
-2.345171371310282
 20
0.374661080233182
 30
0.0
 40
0.12
  1

  7
ROMANS
100
AcDbAttributeDefinition
  3
DWG NO.
  2
DWG#
 70
     0
  0
ATTDEF
  5
58
330
211F
100
AcDbEntity
  8
TB-TXT
100
AcDbText
 10
-0.1871836679235308
 20
0.3938783669928561
 30
0.0
 40
0.12
  1

  7
ROMANS
 72
     4
 11
-0.1871836679235308
 21
0.3938783669928561
 31
0.0
100
AcDbAttributeDefinition
  3
REV
  2
REV
 70
     0
  0
ENDBLK
  5
59
330
211F
100
AcDbEntity
  8
0
100
AcDbBlockEnd
  0
BLOCK
  5
106
330
2121
100
AcDbEntity
  8
0
100
AcDbBlockBegin
  2
RELEASE
 70
     2
 10
0.0
 20
0.0
 30
0.0
  3
RELEASE
  1

  0
LINE
  5
107
330
2121
100
AcDbEntity
  8
BORDER
100
AcDbLine
 10
-5.097668647199277
 20
-0.25
 30
0.0
 11
0.0
 21
-0.25
 31
0.0
  0
LWPOLYLINE
  5
108
330
2121
100
AcDbEntity
  8
BORDER
100
AcDbPolyline
 90
        2
 70
     0
 43
0.02
 10
-1.019568647199278
 20
0.0
 10
-1.019568647199278
 20
-0.25
  0
LWPOLYLINE
  5
10C
330
2121
100
AcDbEntity
  8
BORDER
100
AcDbPolyline
 90
        2
 70
     0
 43
0.02
 10
-1.894568647199278
 20
0.0
 10
-1.894568647199278
 20
-0.25
  0
LWPOLYLINE
  5
110
330
2121
100
AcDbEntity
  8
BORDER
100
AcDbPolyline
 90
        2
 70
     0
 43
0.02
 10
-4.660168647199277
 20
0.0
 10
-4.660168647199277
 20
-0.25
  0
LWPOLYLINE
  5
114
330
2121
100
AcDbEntity
  8
BORDER
100
AcDbPolyline
 90
        2
 70
     0
 43
0.02
 10
-5.097668647199277
 20
0.0
 10
-5.097668647199277
 20
-0.25
  0
ATTDEF
  5
118
330
2121
100
AcDbEntity
  8
TB-TXT
100
AcDbText
 10
-4.884286151023005
 20
-0.125
 30
0.0
 40
0.1
  1

  7
ROMANS
 72
     4
 11
-4.884286151023005
 21
-0.125
 31
0.0
100
AcDbAttributeDefinition
  3
REV
  2
REV
 70
     0
  0
ATTDEF
  5
119
330
2121
100
AcDbEntity
  8
TXT
100
AcDbText
 10
-4.570563763832424
 20
-0.175
 30
0.0
 40
0.1
  1
RELEASED TO PRODUCTION
  7
ROMANS
 11
-4.570563763832424
 21
-0.125
 31
0.0
100
AcDbAttributeDefinition
  3
DESC
  2
DESC
 70
     0
 74
     2
  0
ATTDEF
  5
11A
330
2121
100
AcDbEntity
  8
TB-TXT
100
AcDbText
 10
-1.457068647199278
 20
-0.125
 30
0.0
 40
0.1
  1

  7
ROMANS
 72
     4
 11
-1.457068647199278
 21
-0.125
 31
0.0
100
AcDbAttributeDefinition
  3
DATE
  2
DATE
 70
     0
  0
ATTDEF
  5
11B
330
2121
100
AcDbEntity
  8
TB-TXT
100
AcDbText
 10
-0.5097843235996394
 20
-0.125
 30
0.0
 40
0.1
  1

  7
ROMANS
 72
     4
 11
-0.5097843235996394
 21
-0.125
 31
0.0
100
AcDbAttributeDefinition
  3
APPR
  2
APPR
 70
     0
  0
ENDBLK
  5
11C
330
2121
100
AcDbEntity
  8
0
100
AcDbBlockEnd
  0
BLOCK
  5
11D
330
2122
100
AcDbEntity
  8
0
100
AcDbBlockBegin
  2
SIGNOFF
 70
     2
 10
0.0
 20
0.0
 30
0.0
  3
SIGNOFF
  1

  0
ATTDEF
  5
2F27
330
2122
100
AcDbEntity
  8
TXT
100
AcDbText
 10
0.8364254779937638
 20
-0.7166563492564551
 30
0.0
 40
0.12
  1

  7
ROMANS
100
AcDbAttributeDefinition
  3
APPD ENG
  2
ENG
 70
     0
  0
ATTDEF
  5
2F28
330
2122
100
AcDbEntity
  8
TXT
100
AcDbText
 10
1.432363188466148
 20
-0.4559833527551634
 30
0.0
 40
0.12
  1

 41
0.6739375218856888
  7
ROMANS
 72
     5
 11
1.956108919760168
 21
-0.4559833527551634
 31
0.0
100
AcDbAttributeDefinition
  3
CHK DATE
  2
CHKDATE
 70
     0
  0
ATTDEF
  5
2F29
330
2122
100
AcDbEntity
  8
TXT
100
AcDbText
 10
1.432363188466148
 20
-0.7166563492564551
 30
0.0
 40
0.12
  1

 41
0.683996290869057
  7
ROMANS
 72
     5
 11
1.956108919760168
 21
-0.7166563492564551
 31
0.0
100
AcDbAttributeDefinition
  3
ENG DATE
  2
ENGDATE
 70
     0
  0
ATTDEF
  5
2F2A
330
2122
100
AcDbEntity
  8
TXT
100
AcDbText
 10
1.432363188466151
 20
-0.9773293457577462
 30
0.0
 40
0.12
  1

 41
0.7970043737082926
  7
ROMANS
 72
     5
 11
1.956108919760172
 21
-0.9773293457577462
 31
0.0
100
AcDbAttributeDefinition
  3
QC DATE
  2
QCDATE
 70
     0
  0
ATTDEF
  5
2F2B
330
2122
100
AcDbEntity
  8
TXT
100
AcDbText
 10
1.432363188466151
 20
-1.238002342259037
 30
0.0
 40
0.12
  1

 41
0.6789296516774344
  7
ROMANS
 72
     5
 11
1.956108919760172
 21
-1.238002342259037
 31
0.0
100
AcDbAttributeDefinition
  3
MFG DATE
  2
MFGDATE
 70
     0
  0
ATTDEF
  5
2F2C
330
2122
100
AcDbEntity
  8
TXT
100
AcDbText
 10
0.8364254779937638
 20
-1.238002342259037
 30
0.0
 40
0.12
  1
MBB
  7
ROMANS
100
AcDbAttributeDefinition
  3
APPD MFG
  2
MFG
 70
     0
  0
ATTDEF
  5
2F2D
330
2122
100
AcDbEntity
  8
TXT
100
AcDbText
 10
0.8364254779937638
 20
-0.4559833527551634
 30
0.0
 40
0.12
  1

  7
ROMANS
100
AcDbAttributeDefinition
  3
CHECKED
  2
CHK
 70
     0
  0
ATTDEF
  5
2F2E
330
2122
100
AcDbEntity
  8
TXT
100
AcDbText
 10
0.8364254779937638
 20
-0.9773293457577462
 30
0.0
 40
0.12
  1

  7
ROMANS
100
AcDbAttributeDefinition
  3
APPD QC
  2
QC
 70
     0
  0
ENDBLK
  5
126
330
2122
100
AcDbEntity
  8
0
100
AcDbBlockEnd
  0
ENDSEC
  0
SECTION
  2
ENTITIES
  0
TEXT
  5
10C0
330
211A
100
AcDbEntity
  8
TB-TXT
 62
     7
100
AcDbText
 10
8.745927877841801
 20
2.030598865450674
 30
0.0
 40
0.1
  1
NOTICE: This drawing is the property
 41
0.75
  7
ROMANS
100
AcDbText
  0
TEXT
  5
10C1
330
211A
100
AcDbEntity
  8
TB-TXT
 62
     7
100
AcDbText
 10
8.745927877841801
 20
1.866785385016378
 30
0.0
 40
0.1
  1
of AMX CORPORATION. All information
 41
0.75
  7
ROMANS
100
AcDbText
  0
TEXT
  5
10C2
330
211A
100
AcDbEntity
  8
TB-TXT
 62
     7
100
AcDbText
 10
8.745927877841801
 20
1.702971904582081
 30
0.0
 40
0.1
  1
contained herein that is not generally
 41
0.75
  7
ROMANS
100
AcDbText
  0
TEXT
  5
10C3
330
211A
100
AcDbEntity
  8
TB-TXT
 62
     7
100
AcDbText
 10
8.745927877841801
 20
1.539158424147785
 30
0.0
 40
0.1
  1
known shall be confidential except to
 41
0.75
  7
ROMANS
100
AcDbText
  0
TEXT
  5
10C4
330
211A
100
AcDbEntity
  8
TB-TXT
 62
     7
100
AcDbText
 10
8.745927877841801
 20
1.375344943713489
 30
0.0
 40
0.1
  1
the extent the information has been
 41
0.75
  7
ROMANS
100
AcDbText
  0
TEXT
  5
10C5
330
211A
100
AcDbEntity
  8
TB-TXT
 62
     7
100
AcDbText
 10
8.745927877841801
 20
1.211531463279193
 30
0.0
 40
0.1
  1
previously established. This drawing
 41
0.75
  7
ROMANS
100
AcDbText
  0
TEXT
  5
10C6
330
211A
100
AcDbEntity
  8
TB-TXT
 62
     7
100
AcDbText
 10
8.745927877841801
 20
1.047717982844897
 30
0.0
 40
0.1
  1
may not be reproduced, copied or
 41
0.75
  7
ROMANS
100
AcDbText
  0
TEXT
  5
10C7
330
211A
100
AcDbEntity
  8
TB-TXT
 62
     7
100
AcDbText
 10
8.745927877841801
 20
0.8839045024106017
 30
0.0
 40
0.1
  1
used as the basis for manufacture
 41
0.75
  7
ROMANS
100
AcDbText
  0
TEXT
  5
10C8
330
211A
100
AcDbEntity
  8
TB-TXT
 62
     7
100
AcDbText
 10
8.745927877841801
 20
0.7200910219763054
 30
0.0
 40
0.1
  1
or sale without written permission.
 41
0.75
  7
ROMANS
100
AcDbText
  0
TEXT
  5
10C9
330
211A
100
AcDbEntity
  8
TB-TXT
 62
     7
100
AcDbText
 10
11.17081378089557
 20
0.8125
 30
0.0
 40
0.075
  1
THIRD ANGLE
  7
ROMANS
100
AcDbText
  0
TEXT
  5
10CA
330
211A
100
AcDbEntity
  8
TB-TXT
 62
     7
100
AcDbText
 10
11.17081378089557
 20
0.6410714285714285
 30
0.0
 40
0.075
  1
PROJECTION
  7
ROMANS
100
AcDbText
  0
LWPOLYLINE
  5
10CB
330
211A
100
AcDbEntity
  8
BORDER
 62
     7
100
AcDbPolyline
 90
        2
 70
     0
 43
0.015
 10
11.03011378089557
 20
0.5
 10
11.03011378089557
 20
2.303364982506457
  0
LWPOLYLINE
  5
10CF
330
211A
100
AcDbEntity
  8
BORDER
 62
     7
100
AcDbPolyline
 90
        2
 70
     0
 43
0.015
 10
11.03011378089557
 20
1.0
 10
13.03011378089557
 20
1.0
  0
LWPOLYLINE
  5
10D3
330
211A
100
AcDbEntity
  8
BORDER
 62
     7
100
AcDbPolyline
 90
        2
 70
     0
 43
0.015
 10
11.03011378089557
 20
1.260672996501291
 10
13.03011378089557
 20
1.260672996501291
  0
LWPOLYLINE
  5
10D7
330
211A
100
AcDbEntity
  8
BORDER
 62
     7
100
AcDbPolyline
 90
        2
 70
     0
 43
0.015
 10
11.03011378089557
 20
1.521345993002582
 10
13.03011378089557
 20
1.521345993002582
  0
LWPOLYLINE
  5
10DB
330
211A
100
AcDbEntity
  8
BORDER
 62
     7
100
AcDbPolyline
 90
        2
 70
     0
 43
0.015
 10
11.03011378089557
 20
1.782018989503874
 10
13.03011378089557
 20
1.782018989503874
  0
LWPOLYLINE
  5
10DF
330
211A
100
AcDbEntity
  8
BORDER
 62
     7
100
AcDbPolyline
 90
        2
 70
     0
 43
0.015
 10
11.79581378089557
 20
1.0
 10
11.79581378089557
 20
2.303364982506457
  0
LWPOLYLINE
  5
10E3
330
211A
100
AcDbEntity
  8
BORDER
 62
     7
100
AcDbPolyline
 90
        2
 70
     0
 43
0.015
 10
11.03011378089557
 20
2.042691986005165
 10
13.03011378089557
 20
2.042691986005165
  0
LWPOLYLINE
  5
10E7
330
211A
100
AcDbEntity
  8
BORDER
 62
     7
100
AcDbPolyline
 90
        2
 70
     0
 43
0.015
 10
12.42081378089557
 20
1.0
 10
12.42081378089557
 20
2.303364982506457
  0
LWPOLYLINE
  5
10EB
330
211A
100
AcDbEntity
  8
BORDER
 62
     7
100
AcDbPolyline
 90
        2
 70
     0
 43
0.015
 10
13.03011378089557
 20
0.5
 10
13.03011378089557
 20
2.303364982506457
  0
LINE
  5
10EF
330
211A
100
AcDbEntity
  8
TB-TXT
 62
     7
100
AcDbLine
 10
12.22137686457987
 20
0.7116602948421074
 30
0.0
 11
12.22137686457987
 21
0.5864161328105358
 31
0.0
  0
LINE
  5
10F0
330
211A
100
AcDbEntity
  8
TB-TXT
 62
     7
100
AcDbLine
 10
12.20188221718708
 20
0.756154942234347
 30
0.0
 11
12.24087151197266
 21
0.756154942234347
 31
0.0
  0
LINE
  5
10F1
330
211A
100
AcDbEntity
  8
TB-TXT
 62
     7
100
AcDbLine
 10
12.22137686457987
 20
0.7756495896265699
 30
0.0
 11
12.22137686457987
 21
0.7366602948428534
 31
0.0
  0
LINE
  5
10F2
330
211A
100
AcDbEntity
  8
TB-TXT
 62
     7
100
AcDbLine
 10
12.26587151197268
 20
0.756154942234347
 30
0.0
 11
12.3803835061128
 21
0.756154942234347
 31
0.0
  0
LINE
  5
10F3
330
211A
100
AcDbEntity
  8
TB-TXT
 62
     7
100
AcDbLine
 10
12.0539780858601
 20
0.756154942234347
 30
0.0
 11
12.17688221718707
 21
0.756154942234347
 31
0.0
  0
LINE
  5
10F4
330
211A
100
AcDbEntity
  8
TB-TXT
 62
     7
100
AcDbLine
 10
12.22137686457987
 20
0.9298068862971383
 30
0.0
 11
12.22137686457987
 21
0.8006495896269061
 31
0.0
  0
LINE
  5
10F5
330
211A
100
AcDbEntity
  8
TB-TXT
  6
CENTER
 62
     7
100
AcDbLine
 10
12.4018398050558
 20
0.756154942234347
 30
0.0
 11
12.89268118890189
 21
0.756154942234347
 31
0.0
  0
LINE
  5
10F6
330
211A
100
AcDbEntity
  8
TB-TXT
 62
     7
100
AcDbLine
 10
12.55901849764276
 20
0.6961549422343474
 30
0.0
 11
12.82901849764277
 21
0.6282542406693175
 31
0.0
  0
LINE
  5
10F7
330
211A
100
AcDbEntity
  8
TB-TXT
 62
     7
100
AcDbLine
 10
12.55901849764276
 20
0.8161549422343469
 30
0.0
 11
12.82901849764277
 21
0.8874049422343471
 31
0.0
  0
LINE
  5
10F8
330
211A
100
AcDbEntity
  8
TB-TXT
 62
     7
100
AcDbLine
 10
12.82901849764277
 20
0.8874049422343475
 30
0.0
 11
12.82901849764277
 21
0.6282542406693175
 31
0.0
  0
LINE
  5
10F9
330
211A
100
AcDbEntity
  8
TB-TXT
 62
     7
100
AcDbLine
 10
12.55901849764276
 20
0.8161549422343474
 30
0.0
 11
12.55901849764277
 21
0.6961549422343465
 31
0.0
  0
CIRCLE
  5
10FA
330
211A
100
AcDbEntity
  8
TB-TXT
 62
     7
100
AcDbCircle
 10
12.22137686457987
 20
0.7561549422343471
 30
0.0
 40
0.06
  0
CIRCLE
  5
10FB
330
211A
100
AcDbEntity
  8
TB-TXT
 62
     7
100
AcDbCircle
 10
12.22137686457987
 20
0.7561549422343471
 30
0.0
 40
0.13125
  0
LWPOLYLINE
  5
10FC
330
211A
100
AcDbEntity
  8
BORDER
 62
     7
100
AcDbPolyline
 90
        2
 70
     0
 43
0.015
 10
13.03011378089557
 20
0.75
 10
13.03011378089557
 20
1.125
  0
LWPOLYLINE
  5
1100
330
211A
100
AcDbEntity
  8
BORDER
 62
     7
100
AcDbPolyline
 90
        2
 70
     0
 43
0.015
 10
16.12500000000068
 20
0.75
 10
16.12500000000068
 20
1.125
  0
LWPOLYLINE
  5
1104
330
211A
100
AcDbEntity
  8
BORDER
 62
     7
100
AcDbPolyline
 90
        2
 70
     0
 43
0.015
 10
15.11748430343415
 20
0.5
 10
15.11748430343415
 20
0.75
  0
TEXT
  5
1108
330
211A
100
AcDbEntity
  8
TB-TXT
 62
     7
100
AcDbText
 10
13.11892857142925
 20
0.7911614038582096
 30
0.0
 40
0.171
  1
B
  7
ROMANS
 72
     1
 11
13.20850000000068
 21
0.7911614038582096
 31
0.0
100
AcDbText
  0
TEXT
  5
1109
330
211A
100
AcDbEntity
  8
TB-TXT
 62
     7
100
AcDbText
 10
13.07545496638569
 20
1.0
 30
0.0
 40
0.075
  1
SIZE
  7
ROMANS
 72
     1
 11
13.19688353781427
 21
1.0
 31
0.0
100
AcDbText
  0
TEXT
  5
110A
330
211A
100
AcDbEntity
  8
TB-TXT
 62
     7
100
AcDbText
 10
13.08626047088299
 20
0.5937367855002432
 30
0.0
 40
0.075
  1
SCALE
  7
ROMANS
100
AcDbText
  0
TEXT
  5
110B
330
211A
100
AcDbEntity
  8
TB-TXT
 62
     7
100
AcDbText
 10
15.16434820941646
 20
0.59375
 30
0.0
 40
0.075
  1
SHEET
  7
ROMANS
100
AcDbText
  0
TEXT
  5
110C
330
211A
100
AcDbEntity
  8
TB-TXT
 62
     7
100
AcDbText
 10
13.42690000000068
 20
1.0
 30
0.0
 40
0.075
  1
DWG. NO.
  7
ROMANS
100
AcDbText
  0
TEXT
  5
110D
330
211A
100
AcDbEntity
  8
TB-TXT
 62
     7
100
AcDbText
 10
16.20315000000068
 20
1.0
 30
0.0
 40
0.075
  1
REV.
  7
ROMANS
100
AcDbText
  0
TEXT
  5
1111
330
211A
100
AcDbEntity
  8
TB-TXT
 62
     7
100
AcDbText
 10
11.10831378089557
 20
2.105191986005165
 30
0.0
 40
0.075
  1
DRAWN
  7
ROMANS
100
AcDbText
  0
TEXT
  5
1112
330
211A
100
AcDbEntity
  8
TB-TXT
 62
     7
100
AcDbText
 10
11.10831378089557
 20
1.837897972386661
 30
0.0
 40
0.075
  1
CHECKED
  7
ROMANS
100
AcDbText
  0
TEXT
  5
1113
330
211A
100
AcDbEntity
  8
TB-TXT
 62
     7
100
AcDbText
 10
11.10831378089557
 20
1.573481306719814
 30
0.0
 40
0.075
  1
APPD ENG
  7
ROMANS
100
AcDbText
  0
TEXT
  5
1114
330
211A
100
AcDbEntity
  8
TB-TXT
 62
     7
100
AcDbText
 10
11.10831378089557
 20
1.32073598003986
 30
0.0
 40
0.075
  1
APPD QC
  7
ROMANS
100
AcDbText
  0
TEXT
  5
1115
330
211A
100
AcDbEntity
  8
TB-TXT
 62
     7
100
AcDbText
 10
11.10831378089557
 20
1.058107477312074
 30
0.0
 40
0.075
  1
APPD MFG
  7
ROMANS
100
AcDbText
  0
LWPOLYLINE
  5
1116
330
211A
100
AcDbEntity
  8
BORDER
 62
     7
100
AcDbPolyline
 90
        2
 70
     0
 43
0.015
 10
13.03011378089557
 20
1.125
 10
16.50000000000068
 20
1.125
  0
LWPOLYLINE
  5
111A
330
211A
100
AcDbEntity
  8
BORDER
 62
     7
100
AcDbPolyline
 90
        2
 70
     0
 43
0.015
 10
13.03011378089557
 20
0.75
 10
16.50000000000068
 20
0.75
  0
LWPOLYLINE
  5
111E
330
211A
100
AcDbEntity
  8
BORDER
 62
     7
100
AcDbPolyline
 90
        2
 70
     0
 43
0.015
 10
13.03011378089557
 20
1.782018989503874
 10
16.50000000000068
 20
1.782018989503874
  0
LWPOLYLINE
  5
1122
330
211A
100
AcDbEntity
  8
BORDER
 62
     7
100
AcDbPolyline
 90
        2
 70
     0
 43
0.015
 10
13.38000000000068
 20
0.75
 10
13.38000000000068
 20
1.125
  0
LWPOLYLINE
  5
1126
330
211A
100
AcDbEntity
  8
BORDER
 62
     7
100
AcDbPolyline
 90
        3
 70
     0
 43
0.015
 10
8.653408121735949
 20
0.5
 10
8.653408121735951
 20
2.303364982506457
 10
16.50000000000068
 20
2.303364982506457
  0
LWPOLYLINE
  5
112B
330
211A
100
AcDbEntity
  8
BORDER
 62
     7
100
AcDbPolyline
 90
        4
 70
     1
 43
0.02
 10
16.50000000000068
 20
0.5
 10
16.50000000000068
 20
10.50000000000044
 10
0.5
 20
10.50000000000044
 10
0.5
 20
0.5
  0
LWPOLYLINE
  5
1131
330
211A
100
AcDbEntity
  8
BORDER
100
AcDbPolyline
 90
        3
 70
     0
 43
0.0
 10
0.0
 20
10.50000000000044
 10
0.0
 20
11.00000000000044
 10
0.5
 20
11.00000000000044
  0
LWPOLYLINE
  5
1136
330
211A
100
AcDbEntity
  8
BORDER
100
AcDbPolyline
 90
        3
 70
     0
 43
0.0
 10
0.5
 20
0.0
 10
0.0
 20
0.0
 10
0.0000000000000009
 20
0.5
  0
LWPOLYLINE
  5
113B
330
211A
100
AcDbEntity
  8
BORDER
 62
     7
100
AcDbPolyline
 90
        3
 70
     0
 43
0.0
 10
17.00000000000068
 20
0.5
 10
17.00000000000068
 20
0.0
 10
16.50000000000068
 20
0.0
  0
LWPOLYLINE
  5
1140
330
211A
100
AcDbEntity
  8
BORDER
 62
     7
100
AcDbPolyline
 90
        3
 70
     0
 43
0.0
 10
16.50000000000068
 20
11.00000000000044
 10
17.00000000000068
 20
11.00000000000044
 10
17.00000000000068
 20
10.50000000000044
  0
LWPOLYLINE
  5
1145
330
211A
100
AcDbEntity
  8
BORDER
 62
     7
100
AcDbPolyline
 90
        2
 70
     0
 43
0.015
 10
14.09136563352307
 20
0.5
 10
14.09136563352308
 20
0.75
  0
INSERT
  5
11A5
330
211A
100
AcDbEntity
  8
TB-TXT
 62
     7
100
AcDbBlockReference
 66
     1
  2
TB-TXT-B
 10
16.50000000000068
 20
0.5
 30
0.0
  0
ATTRIB
  5
11A6
330
11A5
100
AcDbEntity
  8
TB-TXT
100
AcDbText
 10
11.87268589286368
 20
2.109509020876261
 30
0.0
 40
0.12
  1
RBF
  7
ROMANS
100
AcDbAttribute
  2
DRAWN
 70
     0
  0
ATTRIB
  5
11A7
330
11A5
100
AcDbEntity
  8
TB-TXT
100
AcDbText
 10
12.44366316790701
 20
2.111156216884233
 30
0.0
 40
0.12
  1
10/3/00
 41
0.6483294341780207
  7
ROMANS
 72
     5
 11
12.9660314548733
 21
2.111156216884233
 31
0.0
100
AcDbAttribute
  2
DATE
 70
     0
  0
ATTRIB
  5
11A8
330
11A5
100
AcDbEntity
  8
TB-TXT
100
AcDbText
 10
13.21009545161233
 20
1.587347886349108
 30
0.0
 40
0.12
  1
PICTORIAL
  7
ROMANS
100
AcDbAttribute
  2
LINE1
 70
     0
  0
ATTRIB
  5
11A9
330
11A5
100
AcDbEntity
  8
TB-TXT
100
AcDbText
 10
13.21009545161233
 20
1.393062172063394
 30
0.0
 40
0.12
  1
AXB-DMX512
  7
ROMANS
100
AcDbAttribute
  2
LINE2
 70
     0
  0
ATTRIB
  5
11AA
330
11A5
100
AcDbEntity
  8
TB-TXT
100
AcDbText
 10
13.21009545161233
 20
1.198776457777679
 30
0.0
 40
0.12
  1
DMX512 INTERFACE
  7
ROMANS
100
AcDbAttribute
  2
LINE3
 70
     0
  0
ATTRIB
  5
11AB
330
11A5
100
AcDbEntity
  8
TB-TXT
100
AcDbText
 10
13.52134923061299
 20
0.5671844920783911
 30
0.0
 40
0.12
  1
FULL
  7
ROMANS
100
AcDbAttribute
  2
SCALE
 70
     0
  0
ATTRIB
  5
11AC
330
11A5
100
AcDbEntity
  8
TB-TXT
100
AcDbText
 10
15.62505519888645
 20
0.5671844920783911
 30
0.0
 40
0.12
  1
1 OF 1
  7
ROMANS
100
AcDbAttribute
  2
SHT#
 70
     0
  0
ATTRIB
  5
11AD
330
11A5
100
AcDbEntity
  8
TB-TXT
100
AcDbText
 10
14.1548286286904
 20
0.5671844920783911
 30
0.0
 40
0.119999997318
  1
95592701
  7
ROMANS
100
AcDbAttribute
  2
FILE#
 70
     0
  0
ATTRIB
  5
11AE
330
11A5
100
AcDbEntity
  8
TB-TXT
100
AcDbText
 10
14.1548286286904
 20
0.8746610802331819
 30
0.0
 40
0.119999997318
  1
95-5927-01
  7
ROMANS
100
AcDbAttribute
  2
DWG#
 70
     0
  0
ATTRIB
  5
11AF
330
11A5
100
AcDbEntity
  8
TB-TXT
100
AcDbText
 10
16.25281633207715
 20
0.8338783669928561
 30
0.0
 40
0.12
  1
C
  7
ROMANS
 72
     4
 11
16.31281633207715
 21
0.8938783669928561
 31
0.0
100
AcDbAttribute
  2
REV
 70
     0
  0
SEQEND
  5
11B0
330
11A5
100
AcDbEntity
  8
TB-TXT
  0
LWPOLYLINE
  5
11B1
330
211A
100
AcDbEntity
  8
BORDER
 62
     7
100
AcDbPolyline
 90
        2
 70
     0
 43
0.02
 10
11.4023313528014
 20
10.50000000000044
 10
11.4023313528014
 20
9.515700000000439
  0
LWPOLYLINE
  5
11B5
330
211A
100
AcDbEntity
  8
BORDER
 62
     7
100
AcDbPolyline
 90
        2
 70
     0
 43
0.015
 10
11.4023313528014
 20
10.21940000000044
 10
16.50000000000068
 20
10.21940000000044
  0
LWPOLYLINE
  5
11B9
330
211A
100
AcDbEntity
  8
BORDER
 62
     7
100
AcDbPolyline
 90
        2
 70
     0
 43
0.015
 10
11.4023313528014
 20
9.953200000000439
 10
16.50000000000068
 20
9.953200000000439
  0
LWPOLYLINE
  5
11BD
330
211A
100
AcDbEntity
  8
BORDER
 62
     7
100
AcDbPolyline
 90
        2
 70
     0
 43
0.015
 10
11.8398313528014
 20
9.515700000000439
 10
11.8398313528014
 20
10.21940000000044
  0
LWPOLYLINE
  5
11C1
330
211A
100
AcDbEntity
  8
BORDER
 62
     7
100
AcDbPolyline
 90
        2
 70
     0
 43
0.015
 10
14.6054313528014
 20
9.515700000000439
 10
14.6054313528014
 20
10.21940000000044
  0
LWPOLYLINE
  5
11C5
330
211A
100
AcDbEntity
  8
BORDER
 62
     7
100
AcDbPolyline
 90
        2
 70
     0
 43
0.015
 10
15.4804313528014
 20
9.515700000000439
 10
15.4804313528014
 20
10.21940000000044
  0
TEXT
  5
11C9
330
211A
100
AcDbEntity
  8
TXT
 62
     7
100
AcDbText
 10
15.68090278137283
 20
10.05286776446872
 30
0.0
 40
0.075
  1
APPROVED
  7
ROMANS
 72
     1
 11
15.9648313528014
 21
10.05286776446872
 31
0.0
100
AcDbText
  0
TEXT
  5
11CA
330
211A
100
AcDbEntity
  8
TXT
 62
     7
100
AcDbText
 10
14.89161706708711
 20
10.05286776446872
 30
0.0
 40
0.075
  1
DATE
  7
ROMANS
 72
     1
 11
15.0273313528014
 21
10.05286776446872
 31
0.0
100
AcDbText
  0
TEXT
  5
11CB
330
211A
100
AcDbEntity
  8
TXT
 62
     7
100
AcDbText
 10
12.79697420994426
 20
10.05286776446872
 30
0.0
 40
0.075
  1
DESCRIPTION
  7
ROMANS
 72
     1
 11
13.1523313528014
 21
10.05286776446872
 31
0.0
100
AcDbText
  0
TEXT
  5
11CC
330
211A
100
AcDbEntity
  8
TXT
 62
     7
100
AcDbText
 10
11.51478927346829
 20
10.05286776446872
 30
0.0
 40
0.075
  1
REV
  7
ROMANS
 72
     1
 11
11.62371784489687
 21
10.05286776446872
 31
0.0
100
AcDbText
  0
TEXT
  5
11CD
330
211A
100
AcDbEntity
  8
TXT
 62
     7
100
AcDbText
 10
13.43380800755747
 20
10.31525701929148
 30
0.0
 40
0.1
  1
REVISIONS
  7
ROMANS
 72
     1
 11
13.8123794361289
 21
10.31525701929148
 31
0.0
100
AcDbText
  0
LWPOLYLINE
  5
11CE
330
211A
100
AcDbEntity
  8
PART
 62
     7
100
AcDbPolyline
 90
       10
 70
     0
 43
0.0
 10
1.372707194902973
 20
8.464160022139143
 10
1.369067028710153
 20
8.464160022139143
 42
0.388878731852992
 10
1.354124108238776
 20
8.450467358280359
 10
1.33563711180656
 20
8.239160022139142
 10
1.583137111806562
 20
8.239160022139142
 10
1.673137111806555
 20
8.239160022139142
 10
6.885637111806554
 20
8.239160022139138
 10
6.867150115374338
 20
8.450467358280359
 42
0.3888787318529918
 10
6.852207194902961
 20
8.464160022139143
 10
6.848567028710158
 20
8.464160022139143
  0
LWPOLYLINE
  5
11DA
330
211A
100
AcDbEntity
  8
PART
 62
     7
100
AcDbPolyline
 90
       10
 70
     1
 43
0.0
 10
1.372707194902973
 20
3.014160022139145
 10
1.369067028710153
 20
3.014160022139145
 42
-0.388878731852992
 10
1.354124108238776
 20
3.027852685997935
 10
1.33563711180656
 20
3.239160022139146
 10
1.583137111806562
 20
3.239160022139146
 10
1.673137111806555
 20
3.239160022139146
 10
6.885637111806554
 20
3.239160022139146
 10
6.867150115374338
 20
3.027852685997928
 42
-0.3888787318529917
 10
6.852207194902961
 20
3.014160022139145
 10
6.848567028710158
 20
3.014160022139145
  0
LINE
  5
11E6
330
211A
100
AcDbEntity
  8
PART
 62
     7
100
AcDbLine
 10
6.848137111806552
 20
3.239160022139153
 30
0.0
 11
6.848137111806556
 21
8.239160022139142
 31
0.0
  0
LINE
  5
11E7
330
211A
100
AcDbEntity
  8
PART
100
AcDbLine
 10
1.373137111806554
 20
3.239160022139153
 30
0.0
 11
1.373137111806554
 21
8.239160022139142
 31
0.0
  0
LINE
  5
11E8
330
211A
100
AcDbEntity
  8
PART
 62
     7
100
AcDbLine
 10
1.369067028710153
 20
8.464160022139143
 30
0.0
 11
6.852207194902961
 21
8.464160022139143
 31
0.0
  0
TEXT
  5
11E9
330
211A
100
AcDbEntity
  8
TXT
100
AcDbText
 10
3.384899016568468
 20
2.616692691821222
 30
0.0
 40
0.187
  1
TOP VIEW
  7
ROMANT
 72
     4
 11
4.110637111806562
 21
2.710192691821222
 31
0.0
100
AcDbText
  0
LINE
  5
11EB
330
211A
100
AcDbEntity
  8
DIM
 62
     7
100
AcDbLine
 10
6.97220719490296
 20
8.464160022139143
 30
0.0
 11
7.791402673503643
 21
8.464160022139143
 31
0.0
  0
LINE
  5
11EC
330
211A
100
AcDbEntity
  8
DIM
 62
     7
100
AcDbLine
 10
6.968567028710157
 20
3.014160022139145
 30
0.0
 11
7.791402673503643
 21
3.014160022139145
 31
0.0
  0
LINE
  5
11ED
330
211A
100
AcDbEntity
  8
DIM
 62
     7
100
AcDbLine
 10
7.691402673503644
 20
8.344160022139146
 30
0.0
 11
7.691402673503644
 21
5.889160022139145
 31
0.0
  0
LINE
  5
11EE
330
211A
100
AcDbEntity
  8
DIM
 62
     7
100
AcDbLine
 10
7.691402673503644
 20
3.134160022139145
 30
0.0
 11
7.691402673503644
 21
5.379099568216886
 31
0.0
  0
SOLID
  5
11EF
330
211A
100
AcDbEntity
  8
DIM
 62
     7
100
AcDbTrace
 10
7.671402673503644
 20
8.344160022139146
 30
0.0
 11
7.711402673503643
 21
8.344160022139146
 31
0.0
 12
7.691402673503644
 22
8.464160022139143
 32
0.0
 13
7.691402673503644
 23
8.464160022139143
 33
0.0
  0
SOLID
  5
11F0
330
211A
100
AcDbEntity
  8
DIM
 62
     7
100
AcDbTrace
 10
7.671402673503644
 20
3.134160022139145
 30
0.0
 11
7.711402673503643
 21
3.134160022139145
 31
0.0
 12
7.691402673503644
 22
3.014160022139145
 32
0.0
 13
7.691402673503644
 23
3.014160022139145
 33
0.0
  0
TEXT
  5
11F1
330
211A
100
AcDbEntity
  8
DIM
 62
     7
100
AcDbText
 10
7.434259816360786
 20
5.679160022139145
 30
0.0
 40
0.12
  1
5.450
  7
ROMANS
 72
     1
 11
7.691402673503644
 21
5.739160022139144
 31
0.0
100
AcDbText
 73
     2
  0
LINE
  5
11F2
330
211A
100
AcDbEntity
  8
DIM
100
AcDbLine
 10
1.455637111806559
 20
8.940638024971317
 30
0.0
 11
3.837779968949414
 21
8.940638024971317
 31
0.0
  0
LINE
  5
11F3
330
211A
100
AcDbEntity
  8
DIM
 62
     7
100
AcDbLine
 10
6.765637111806555
 20
8.940638024971317
 30
0.0
 11
4.3834942546637
 21
8.940638024971317
 31
0.0
  0
SOLID
  5
11F4
330
211A
100
AcDbEntity
  8
DIM
100
AcDbTrace
 10
1.455637111806559
 20
8.960638024971316
 30
0.0
 11
1.455637111806559
 21
8.920638024971317
 31
0.0
 12
1.33563711180656
 22
8.940638024971317
 32
0.0
 13
1.33563711180656
 23
8.940638024971317
 33
0.0
  0
SOLID
  5
11F5
330
211A
100
AcDbEntity
  8
DIM
 62
     7
100
AcDbTrace
 10
6.765637111806555
 20
8.960638024971316
 30
0.0
 11
6.765637111806555
 21
8.920638024971317
 31
0.0
 12
6.885637111806554
 22
8.940638024971317
 32
0.0
 13
6.885637111806554
 23
8.940638024971317
 33
0.0
  0
TEXT
  5
11F6
330
211A
100
AcDbEntity
  8
DIM
100
AcDbText
 10
3.910637111806557
 20
8.880638024971316
 30
0.0
 40
0.12
  1
5.55
  7
ROMANS
 72
     1
 11
4.110637111806557
 21
8.940638024971317
 31
0.0
100
AcDbText
 73
     2
  0
LINE
  5
11F7
330
211A
100
AcDbEntity
  8
DIM
 62
     7
100
AcDbLine
 10
6.885637111806554
 20
8.542389032529936
 30
0.0
 11
6.885637111806554
 21
9.040638024971315
 31
0.0
  0
LINE
  5
11F8
330
211A
100
AcDbEntity
  8
DIM
100
AcDbLine
 10
1.33563711180656
 20
8.55172299329028
 30
0.0
 11
1.33563711180656
 21
9.040638024971315
 31
0.0
  0
TEXT
  5
11F9
330
211A
100
AcDbEntity
  8
DIM
 62
     7
100
AcDbText
 10
7.159974102075072
 20
5.479160022139145
 30
0.0
 40
0.12
  1
[138.4 MM]
  7
ROMANS
 72
     1
 11
7.691402673503644
 21
5.539160022139145
 31
0.0
100
AcDbText
 73
     2
  0
TEXT
  5
11FA
330
211A
100
AcDbEntity
  8
DIM
100
AcDbText
 10
3.579208540377985
 20
8.680638024971317
 30
0.0
 40
0.12
  1
[141.0 MM]
  7
ROMANS
 72
     1
 11
4.110637111806557
 21
8.740638024971318
 31
0.0
100
AcDbText
 73
     2
  0
TEXT
  5
11FB
330
211A
100
AcDbEntity
  8
DIM
 62
     7
100
AcDbText
 10
9.000950724182786
 20
7.15200542997231
 30
0.0
 40
0.12
  1
1.51
  7
ROMANS
 72
     1
 11
9.192379295611358
 21
7.212005429972309
 31
0.0
100
AcDbText
 73
     2
  0
LINE
  5
11FC
330
211A
100
AcDbEntity
  8
DIM
 62
     7
100
AcDbLine
 10
9.875679057560079
 20
6.457005429972307
 30
0.0
 11
9.092379295611358
 21
6.457005429972307
 31
0.0
  0
TEXT
  5
11FD
330
211A
100
AcDbEntity
  8
DIM
 62
     7
100
AcDbText
 10
8.718093581325643
 20
6.95200542997231
 30
0.0
 40
0.12
  1
[38.4 MM]
  7
ROMANS
 72
     1
 11
9.192379295611358
 21
7.01200542997231
 31
0.0
100
AcDbText
 73
     2
  0
LINE
  5
11FE
330
211A
100
AcDbEntity
  8
DIM
 62
     7
100
AcDbLine
 10
9.192379295611358
 20
6.577005429972308
 30
0.0
 11
9.192379295611358
 21
6.866565963435759
 31
0.0
  0
SOLID
  5
11FF
330
211A
100
AcDbEntity
  8
DIM
 62
     7
100
AcDbTrace
 10
9.172379295611358
 20
6.577005429972308
 30
0.0
 11
9.212379295611357
 21
6.577005429972308
 31
0.0
 12
9.192379295611358
 22
6.457005429972307
 32
0.0
 13
9.192379295611358
 23
6.457005429972307
 33
0.0
  0
LINE
  5
1200
330
211A
100
AcDbEntity
  8
DIM
 62
     7
100
AcDbLine
 10
9.923097884819721
 20
7.967005429972312
 30
0.0
 11
9.092379295611358
 21
7.967005429972312
 31
0.0
  0
LINE
  5
1201
330
211A
100
AcDbEntity
  8
DIM
 62
     7
100
AcDbLine
 10
9.192379295611358
 20
7.847005429972314
 30
0.0
 11
9.192379295611358
 21
7.362005429972311
 31
0.0
  0
SOLID
  5
1202
330
211A
100
AcDbEntity
  8
DIM
 62
     7
100
AcDbTrace
 10
9.172379295611358
 20
7.847005429972314
 30
0.0
 11
9.212379295611357
 21
7.847005429972314
 31
0.0
 12
9.192379295611358
 22
7.967005429972312
 32
0.0
 13
9.192379295611358
 23
7.967005429972312
 33
0.0
  0
LWPOLYLINE
  5
1206
330
211A
100
AcDbEntity
  8
PART
 62
     7
100
AcDbPolyline
 90
        8
 70
     1
 43
0.0
 10
9.856097884819721
 20
3.788705753379352
 10
9.856097884819721
 20
4.924705753379358
 42
-0.4142135623730951
 10
10.04309788481972
 20
5.111705753379355
 10
15.21909788481971
 20
5.111705753379355
 42
-0.4142135623730946
 10
15.40609788481972
 20
4.924705753379358
 10
15.40609788481972
 20
3.788705753379352
 42
-0.4142135623730959
 10
15.21909788481972
 20
3.601705753379354
 10
10.04309788481972
 20
3.60170575337935
 42
-0.4142135623730951
  0
LWPOLYLINE
  5
1210
330
211A
100
AcDbEntity
  8
PART
 62
     7
100
AcDbPolyline
 90
        8
 70
     1
 43
0.0
 10
9.926597884819724
 20
3.788705753379352
 10
9.926597884819724
 20
4.924705753379358
 42
-0.4142135623730905
 10
10.03859788481971
 20
5.036705753379353
 10
15.22359788481971
 20
5.036705753379353
 42
-0.4142135623730905
 10
15.33559788481971
 20
4.924705753379358
 10
15.33559788481971
 20
3.788705753379352
 42
-0.4142135623730951
 10
15.22359788481972
 20
3.676705753379357
 10
10.03859788481971
 20
3.676705753379353
 42
-0.4142135623730905
  0
LINE
  5
121A
330
211A
100
AcDbEntity
  8
PART
 62
     7
100
AcDbLine
 10
11.58609788481971
 20
4.238705753379354
 30
0.0
 11
10.68609788481971
 21
4.238705753379354
 31
0.0
  0
LINE
  5
121B
330
211A
100
AcDbEntity
  8
PART
 62
     7
100
AcDbLine
 10
11.58609788481971
 20
4.013705753379353
 30
0.0
 11
10.68609788481971
 21
4.013705753379353
 31
0.0
  0
LINE
  5
121C
330
211A
100
AcDbEntity
  8
PART
 62
     7
100
AcDbLine
 10
10.69409788481971
 20
4.221705753379348
 30
0.0
 11
11.57809788481971
 21
4.221705753379348
 31
0.0
  0
LINE
  5
121D
330
211A
100
AcDbEntity
  8
PART
 62
     7
100
AcDbLine
 10
10.85509788481971
 20
4.137705753379348
 30
0.0
 11
10.91709788481971
 21
4.137705753379348
 31
0.0
  0
LINE
  5
121E
330
211A
100
AcDbEntity
  8
PART
 62
     7
100
AcDbLine
 10
10.91709788481971
 20
4.087705753379347
 30
0.0
 11
10.85509788481971
 21
4.087705753379347
 31
0.0
  0
LINE
  5
121F
330
211A
100
AcDbEntity
  8
PART
 62
     7
100
AcDbLine
 10
10.85509788481971
 20
4.21170575337935
 30
0.0
 11
10.91709788481971
 21
4.21170575337935
 31
0.0
  0
CIRCLE
  5
1220
330
211A
100
AcDbEntity
  8
PART
 62
     7
100
AcDbCircle
 10
10.41109788481972
 20
4.117705753379345
 30
0.0
 40
0.0625
  0
LINE
  5
1221
330
211A
100
AcDbEntity
  8
PART
 62
     7
100
AcDbLine
 10
10.68609788481971
 20
4.238705753379354
 30
0.0
 11
10.68609788481971
 21
4.013705753379353
 31
0.0
  0
LINE
  5
1222
330
211A
100
AcDbEntity
  8
PART
 62
     7
100
AcDbLine
 10
10.75509788481971
 20
4.137705753379348
 30
0.0
 11
10.81709788481971
 21
4.137705753379348
 31
0.0
  0
LINE
  5
1223
330
211A
100
AcDbEntity
  8
PART
 62
     7
100
AcDbLine
 10
10.69409788481971
 20
4.221705753379348
 30
0.0
 11
10.69409788481971
 21
4.013705753379353
 31
0.0
  0
LINE
  5
1224
330
211A
100
AcDbEntity
  8
PART
 62
     7
100
AcDbLine
 10
10.75509788481971
 20
4.21170575337935
 30
0.0
 11
10.81709788481971
 21
4.21170575337935
 31
0.0
  0
LINE
  5
1225
330
211A
100
AcDbEntity
  8
PART
 62
     7
100
AcDbLine
 10
10.81709788481971
 20
4.21170575337935
 30
0.0
 11
10.81709788481971
 21
4.087705753379347
 31
0.0
  0
LINE
  5
1226
330
211A
100
AcDbEntity
  8
PART
 62
     7
100
AcDbLine
 10
10.81709788481971
 20
4.087705753379347
 30
0.0
 11
10.75509788481971
 21
4.087705753379347
 31
0.0
  0
LINE
  5
1227
330
211A
100
AcDbEntity
  8
PART
 62
     7
100
AcDbLine
 10
10.75509788481971
 20
4.087705753379347
 30
0.0
 11
10.75509788481971
 21
4.21170575337935
 31
0.0
  0
LINE
  5
1228
330
211A
100
AcDbEntity
  8
PART
 62
     7
100
AcDbLine
 10
10.85509788481971
 20
4.087705753379347
 30
0.0
 11
10.85509788481971
 21
4.21170575337935
 31
0.0
  0
LINE
  5
1229
330
211A
100
AcDbEntity
  8
PART
 62
     7
100
AcDbLine
 10
10.95509788481971
 20
4.137705753379348
 30
0.0
 11
11.01709788481971
 21
4.137705753379348
 31
0.0
  0
LINE
  5
122A
330
211A
100
AcDbEntity
  8
PART
 62
     7
100
AcDbLine
 10
11.05509788481972
 20
4.137705753379348
 30
0.0
 11
11.11709788481971
 21
4.137705753379348
 31
0.0
  0
LINE
  5
122B
330
211A
100
AcDbEntity
  8
PART
 62
     7
100
AcDbLine
 10
11.15509788481971
 20
4.137705753379348
 30
0.0
 11
11.21709788481972
 21
4.137705753379352
 31
0.0
  0
LINE
  5
122C
330
211A
100
AcDbEntity
  8
PART
 62
     7
100
AcDbLine
 10
10.95509788481971
 20
4.087705753379347
 30
0.0
 11
10.95509788481971
 21
4.21170575337935
 31
0.0
  0
LINE
  5
122D
330
211A
100
AcDbEntity
  8
PART
 62
     7
100
AcDbLine
 10
11.01709788481971
 20
4.087705753379347
 30
0.0
 11
10.95509788481971
 21
4.087705753379347
 31
0.0
  0
LINE
  5
122E
330
211A
100
AcDbEntity
  8
PART
 62
     7
100
AcDbLine
 10
11.01709788481971
 20
4.21170575337935
 30
0.0
 11
11.01709788481971
 21
4.087705753379347
 31
0.0
  0
LINE
  5
122F
330
211A
100
AcDbEntity
  8
PART
 62
     7
100
AcDbLine
 10
10.95509788481971
 20
4.21170575337935
 30
0.0
 11
11.01709788481971
 21
4.21170575337935
 31
0.0
  0
LINE
  5
1230
330
211A
100
AcDbEntity
  8
PART
 62
     7
100
AcDbLine
 10
11.05509788481972
 20
4.087705753379347
 30
0.0
 11
11.05509788481972
 21
4.21170575337935
 31
0.0
  0
LINE
  5
1231
330
211A
100
AcDbEntity
  8
PART
 62
     7
100
AcDbLine
 10
11.11709788481971
 20
4.087705753379347
 30
0.0
 11
11.05509788481972
 21
4.087705753379347
 31
0.0
  0
LINE
  5
1232
330
211A
100
AcDbEntity
  8
PART
 62
     7
100
AcDbLine
 10
11.11709788481971
 20
4.21170575337935
 30
0.0
 11
11.11709788481971
 21
4.087705753379347
 31
0.0
  0
LINE
  5
1233
330
211A
100
AcDbEntity
  8
PART
 62
     7
100
AcDbLine
 10
11.05509788481972
 20
4.21170575337935
 30
0.0
 11
11.11709788481971
 21
4.21170575337935
 31
0.0
  0
LINE
  5
1234
330
211A
100
AcDbEntity
  8
PART
 62
     7
100
AcDbLine
 10
11.15509788481971
 20
4.087705753379347
 30
0.0
 11
11.15509788481971
 21
4.21170575337935
 31
0.0
  0
LINE
  5
1235
330
211A
100
AcDbEntity
  8
PART
 62
     7
100
AcDbLine
 10
11.21709788481972
 20
4.087705753379347
 30
0.0
 11
11.15509788481971
 21
4.087705753379347
 31
0.0
  0
LINE
  5
1236
330
211A
100
AcDbEntity
  8
PART
 62
     7
100
AcDbLine
 10
11.21709788481972
 20
4.21170575337935
 30
0.0
 11
11.21709788481972
 21
4.087705753379347
 31
0.0
  0
LINE
  5
1237
330
211A
100
AcDbEntity
  8
PART
 62
     7
100
AcDbLine
 10
11.15509788481971
 20
4.21170575337935
 30
0.0
 11
11.21709788481972
 21
4.21170575337935
 31
0.0
  0
LINE
  5
1238
330
211A
100
AcDbEntity
  8
PART
 62
     7
100
AcDbLine
 10
10.91709788481971
 20
4.21170575337935
 30
0.0
 11
10.91709788481971
 21
4.087705753379347
 31
0.0
  0
LINE
  5
1239
330
211A
100
AcDbEntity
  8
PART
 62
     7
100
AcDbLine
 10
11.35509788481971
 20
4.137705753379352
 30
0.0
 11
11.41709788481971
 21
4.137705753379348
 31
0.0
  0
LINE
  5
123A
330
211A
100
AcDbEntity
  8
PART
 62
     7
100
AcDbLine
 10
11.45509788481971
 20
4.137705753379348
 30
0.0
 11
11.51709788481971
 21
4.137705753379352
 31
0.0
  0
LINE
  5
123B
330
211A
100
AcDbEntity
  8
PART
 62
     7
100
AcDbLine
 10
11.31709788481972
 20
4.21170575337935
 30
0.0
 11
11.31709788481972
 21
4.087705753379347
 31
0.0
  0
LINE
  5
123C
330
211A
100
AcDbEntity
  8
PART
 62
     7
100
AcDbLine
 10
11.35509788481971
 20
4.087705753379347
 30
0.0
 11
11.35509788481971
 21
4.21170575337935
 31
0.0
  0
LINE
  5
123D
330
211A
100
AcDbEntity
  8
PART
 62
     7
100
AcDbLine
 10
11.41709788481971
 20
4.087705753379347
 30
0.0
 11
11.35509788481971
 21
4.087705753379347
 31
0.0
  0
LINE
  5
123E
330
211A
100
AcDbEntity
  8
PART
 62
     7
100
AcDbLine
 10
11.41709788481971
 20
4.21170575337935
 30
0.0
 11
11.41709788481971
 21
4.087705753379347
 31
0.0
  0
LINE
  5
123F
330
211A
100
AcDbEntity
  8
PART
 62
     7
100
AcDbLine
 10
11.35509788481971
 20
4.21170575337935
 30
0.0
 11
11.41709788481971
 21
4.21170575337935
 31
0.0
  0
LINE
  5
1240
330
211A
100
AcDbEntity
  8
PART
 62
     7
100
AcDbLine
 10
11.45509788481971
 20
4.087705753379347
 30
0.0
 11
11.45509788481971
 21
4.21170575337935
 31
0.0
  0
LINE
  5
1241
330
211A
100
AcDbEntity
  8
PART
 62
     7
100
AcDbLine
 10
11.51709788481971
 20
4.087705753379347
 30
0.0
 11
11.45509788481971
 21
4.087705753379347
 31
0.0
  0
LINE
  5
1242
330
211A
100
AcDbEntity
  8
PART
 62
     7
100
AcDbLine
 10
11.51709788481971
 20
4.21170575337935
 30
0.0
 11
11.51709788481971
 21
4.087705753379347
 31
0.0
  0
LINE
  5
1243
330
211A
100
AcDbEntity
  8
PART
 62
     7
100
AcDbLine
 10
11.45509788481971
 20
4.21170575337935
 30
0.0
 11
11.51709788481971
 21
4.21170575337935
 31
0.0
  0
LINE
  5
1244
330
211A
100
AcDbEntity
  8
PART
 62
     7
100
AcDbLine
 10
11.25509788481971
 20
4.087705753379347
 30
0.0
 11
11.25509788481971
 21
4.21170575337935
 31
0.0
  0
LINE
  5
1245
330
211A
100
AcDbEntity
  8
PART
 62
     7
100
AcDbLine
 10
11.25509788481971
 20
4.137705753379352
 30
0.0
 11
11.31709788481972
 21
4.137705753379352
 31
0.0
  0
LINE
  5
1246
330
211A
100
AcDbEntity
  8
PART
 62
     7
100
AcDbLine
 10
11.31709788481972
 20
4.087705753379347
 30
0.0
 11
11.25509788481971
 21
4.087705753379347
 31
0.0
  0
LINE
  5
1247
330
211A
100
AcDbEntity
  8
PART
 62
     7
100
AcDbLine
 10
11.25509788481971
 20
4.21170575337935
 30
0.0
 11
11.31709788481972
 21
4.21170575337935
 31
0.0
  0
LINE
  5
1248
330
211A
100
AcDbEntity
  8
PART
 62
     7
100
AcDbLine
 10
11.58609788481971
 20
4.238705753379354
 30
0.0
 11
11.58609788481971
 21
4.013705753379353
 31
0.0
  0
LINE
  5
1249
330
211A
100
AcDbEntity
  8
PART
 62
     7
100
AcDbLine
 10
11.57809788481971
 20
4.221705753379348
 30
0.0
 11
11.57809788481971
 21
4.013705753379353
 31
0.0
  0
CIRCLE
  5
1276
330
211A
100
AcDbEntity
  8
PART
 62
     7
100
AcDbCircle
 10
14.33609788481971
 20
4.117705753379345
 30
0.0
 40
0.0625
  0
CIRCLE
  5
1277
330
211A
100
AcDbEntity
  8
PART
 62
     7
100
AcDbCircle
 10
14.71109788481971
 20
4.117705753379345
 30
0.0
 40
0.0625
  0
LINE
  5
127D
330
211A
100
AcDbEntity
  8
PART
 62
     7
100
AcDbLine
 10
13.35279143320682
 20
7.194005429972307
 30
0.0
 11
13.33329143320682
 21
7.194005429972308
 31
0.0
  0
LINE
  5
127E
330
211A
100
AcDbEntity
  8
PART
 62
     7
100
AcDbLine
 10
12.15309788481971
 20
7.363005429972311
 30
0.0
 11
13.33329143320682
 21
7.363005429972311
 31
0.0
  0
LINE
  5
127F
330
211A
100
AcDbEntity
  8
PART
 62
     7
100
AcDbLine
 10
13.35279143320682
 20
6.76900542997231
 30
0.0
 11
12.13359788481971
 21
6.76900542997231
 31
0.0
  0
LINE
  5
1280
330
211A
100
AcDbEntity
  8
PART
 62
     7
100
AcDbLine
 10
12.15309788481971
 20
6.773005429972315
 30
0.0
 11
13.33329143320682
 21
6.773005429972315
 31
0.0
  0
LWPOLYLINE
  5
1281
330
211A
100
AcDbEntity
  8
PART
 62
     7
100
AcDbPolyline
 90
        8
 70
     1
 43
0.0
 10
15.40609788481972
 20
6.64400542997231
 10
15.40609788481972
 20
7.780005429972312
 42
0.4142135623730951
 10
15.21909788481972
 20
7.96700542997231
 10
10.04309788481972
 20
7.96700542997231
 42
0.4142135623730946
 10
9.856097884819721
 20
7.780005429972312
 10
9.856097884819721
 20
6.64400542997231
 42
0.4142135623730959
 10
10.04309788481972
 20
6.457005429972312
 10
15.21909788481972
 20
6.457005429972305
 42
0.4142135623730951
  0
LWPOLYLINE
  5
128B
330
211A
100
AcDbEntity
  8
PART
 62
     7
100
AcDbPolyline
 90
        8
 70
     1
 43
0.0
 10
15.33559788481971
 20
6.64400542997231
 10
15.33559788481971
 20
7.780005429972312
 42
0.4142135623730905
 10
15.22359788481972
 20
7.892005429972307
 10
10.03859788481972
 20
7.892005429972307
 42
0.4142135623730905
 10
9.926597884819724
 20
7.780005429972312
 10
9.926597884819724
 20
6.64400542997231
 42
0.4142135623730951
 10
10.03859788481971
 20
6.532005429972315
 10
15.22359788481972
 20
6.532005429972308
 42
0.4142135623730905
  0
LINE
  5
1295
330
211A
100
AcDbEntity
  8
PART
 62
     7
100
AcDbLine
 10
12.58977530417456
 20
6.863005429972311
 30
0.0
 11
12.58977530417456
 21
7.113005429972311
 31
0.0
  0
LINE
  5
1296
330
211A
100
AcDbEntity
  8
PART
 62
     7
100
AcDbLine
 10
12.39293659449714
 20
6.863005429972311
 30
0.0
 11
12.39293659449714
 21
7.113005429972311
 31
0.0
  0
LINE
  5
1297
330
211A
100
AcDbEntity
  8
PART
 62
     7
100
AcDbLine
 10
12.50293659449714
 20
6.863005429972311
 30
0.0
 11
12.50293659449714
 21
7.113005429972311
 31
0.0
  0
LINE
  5
1298
330
211A
100
AcDbEntity
  8
PART
 62
     7
100
AcDbLine
 10
12.78661401385197
 20
6.863005429972311
 30
0.0
 11
12.78661401385197
 21
7.113005429972311
 31
0.0
  0
LINE
  5
1299
330
211A
100
AcDbEntity
  8
PART
 62
     7
100
AcDbLine
 10
12.89661401385197
 20
6.863005429972311
 30
0.0
 11
12.89661401385197
 21
7.113005429972311
 31
0.0
  0
LINE
  5
129A
330
211A
100
AcDbEntity
  8
PART
 62
     7
100
AcDbLine
 10
12.69977530417456
 20
6.863005429972311
 30
0.0
 11
12.69977530417456
 21
7.113005429972311
 31
0.0
  0
LINE
  5
129B
330
211A
100
AcDbEntity
  8
PART
 62
     7
100
AcDbLine
 10
12.9834527235294
 20
6.863005429972311
 30
0.0
 11
12.9834527235294
 21
7.113005429972311
 31
0.0
  0
LINE
  5
129C
330
211A
100
AcDbEntity
  8
PART
 62
     7
100
AcDbLine
 10
13.0934527235294
 20
6.863005429972311
 30
0.0
 11
13.0934527235294
 21
7.113005429972311
 31
0.0
  0
LINE
  5
129D
330
211A
100
AcDbEntity
  8
PART
 62
     7
100
AcDbLine
 10
13.29029143320682
 20
6.863005429972311
 30
0.0
 11
13.29029143320682
 21
7.113005429972311
 31
0.0
  0
LINE
  5
129E
330
211A
100
AcDbEntity
  8
PART
 62
     7
100
AcDbLine
 10
13.18029143320682
 20
6.863005429972311
 30
0.0
 11
13.18029143320682
 21
7.113005429972311
 31
0.0
  0
LINE
  5
129F
330
211A
100
AcDbEntity
  8
PART
 62
     7
100
AcDbLine
 10
13.35279143320682
 20
7.194005429972307
 30
0.0
 11
13.35279143320682
 21
6.76900542997231
 31
0.0
  0
LINE
  5
12A0
330
211A
100
AcDbEntity
  8
PART
 62
     7
100
AcDbLine
 10
13.33329143320682
 20
7.363005429972311
 30
0.0
 11
13.33329143320682
 21
6.773005429972315
 31
0.0
  0
LINE
  5
12A1
330
211A
100
AcDbEntity
  8
PART
 62
     7
100
AcDbLine
 10
14.28109788481972
 20
6.863005429972311
 30
0.0
 11
14.28109788481972
 21
7.113005429972311
 31
0.0
  0
LINE
  5
12A2
330
211A
100
AcDbEntity
  8
PART
 62
     7
100
AcDbLine
 10
14.17109788481972
 20
6.863005429972311
 30
0.0
 11
14.17109788481972
 21
7.113005429972311
 31
0.0
  0
LINE
  5
12A3
330
211A
100
AcDbEntity
  8
PART
 62
     7
100
AcDbLine
 10
14.47793659449714
 20
6.863005429972311
 30
0.0
 11
14.47793659449714
 21
7.113005429972311
 31
0.0
  0
LINE
  5
12A4
330
211A
100
AcDbEntity
  8
PART
 62
     7
100
AcDbLine
 10
14.36793659449714
 20
6.863005429972311
 30
0.0
 11
14.36793659449714
 21
7.113005429972311
 31
0.0
  0
LINE
  5
12A5
330
211A
100
AcDbEntity
  8
PART
 62
     7
100
AcDbLine
 10
14.56477530417456
 20
6.863005429972311
 30
0.0
 11
14.56477530417456
 21
7.113005429972311
 31
0.0
  0
LINE
  5
12A6
330
211A
100
AcDbEntity
  8
PART
 62
     7
100
AcDbLine
 10
14.67477530417456
 20
6.863005429972311
 30
0.0
 11
14.67477530417456
 21
7.113005429972311
 31
0.0
  0
LINE
  5
12A7
330
211A
100
AcDbEntity
  8
PART
 62
     7
100
AcDbLine
 10
14.87161401385197
 20
6.863005429972311
 30
0.0
 11
14.87161401385197
 21
7.113005429972311
 31
0.0
  0
LINE
  5
12A8
330
211A
100
AcDbEntity
  8
PART
 62
     7
100
AcDbLine
 10
14.76161401385198
 20
6.863005429972311
 30
0.0
 11
14.76161401385198
 21
7.113005429972311
 31
0.0
  0
LINE
  5
12A9
330
211A
100
AcDbEntity
  8
PART
 62
     7
100
AcDbLine
 10
14.91461401385197
 20
7.363005429972311
 30
0.0
 11
14.91461401385197
 21
6.773005429972315
 31
0.0
  0
LINE
  5
12AA
330
211A
100
AcDbEntity
  8
PART
 62
     7
100
AcDbLine
 10
14.12809788481971
 20
7.363005429972311
 30
0.0
 11
14.12809788481971
 21
6.773005429972315
 31
0.0
  0
LINE
  5
12AB
330
211A
100
AcDbEntity
  8
PART
 62
     7
100
AcDbLine
 10
14.93411401385198
 20
7.194005429972307
 30
0.0
 11
14.93411401385198
 21
6.76900542997231
 31
0.0
  0
LINE
  5
12AC
330
211A
100
AcDbEntity
  8
PART
 62
     7
100
AcDbLine
 10
14.10859788481972
 20
7.194005429972307
 30
0.0
 11
14.10859788481972
 21
6.76900542997231
 31
0.0
  0
LINE
  5
12AD
330
211A
100
AcDbEntity
  8
PART
 62
     7
100
AcDbLine
 10
14.12809788481971
 20
7.363005429972311
 30
0.0
 11
14.91461401385197
 21
7.363005429972311
 31
0.0
  0
LINE
  5
12AE
330
211A
100
AcDbEntity
  8
PART
 62
     7
100
AcDbLine
 10
14.93411401385198
 20
7.194005429972307
 30
0.0
 11
14.91461401385197
 21
7.194005429972307
 31
0.0
  0
LINE
  5
12B5
330
211A
100
AcDbEntity
  8
PART
 62
     7
100
AcDbLine
 10
14.76161401385198
 20
7.113005429972311
 30
0.0
 11
14.87161401385197
 21
7.113005429972311
 31
0.0
  0
LINE
  5
12B6
330
211A
100
AcDbEntity
  8
PART
 62
     7
100
AcDbLine
 10
14.36793659449714
 20
7.113005429972311
 30
0.0
 11
14.47793659449714
 21
7.113005429972311
 31
0.0
  0
LINE
  5
12B7
330
211A
100
AcDbEntity
  8
PART
 62
     7
100
AcDbLine
 10
14.56477530417456
 20
7.113005429972311
 30
0.0
 11
14.67477530417456
 21
7.113005429972311
 31
0.0
  0
LINE
  5
12BC
330
211A
100
AcDbEntity
  8
PART
 62
     7
100
AcDbLine
 10
14.17109788481972
 20
7.113005429972311
 30
0.0
 11
14.28109788481972
 21
7.113005429972311
 31
0.0
  0
LINE
  5
12BD
330
211A
100
AcDbEntity
  8
PART
 62
     7
100
AcDbLine
 10
12.9834527235294
 20
7.113005429972311
 30
0.0
 11
13.0934527235294
 21
7.113005429972311
 31
0.0
  0
LINE
  5
12C1
330
211A
100
AcDbEntity
  8
PART
 62
     7
100
AcDbLine
 10
13.18029143320682
 20
7.113005429972311
 30
0.0
 11
13.29029143320682
 21
7.113005429972311
 31
0.0
  0
LINE
  5
12CC
330
211A
100
AcDbEntity
  8
PART
 62
     7
100
AcDbLine
 10
12.58977530417456
 20
7.113005429972311
 30
0.0
 11
12.69977530417456
 21
7.113005429972311
 31
0.0
  0
LINE
  5
12CD
330
211A
100
AcDbEntity
  8
PART
 62
     7
100
AcDbLine
 10
12.78661401385197
 20
7.113005429972311
 30
0.0
 11
12.89661401385197
 21
7.113005429972311
 31
0.0
  0
LINE
  5
12CE
330
211A
100
AcDbEntity
  8
PART
 62
     7
100
AcDbLine
 10
12.39293659449714
 20
7.113005429972311
 30
0.0
 11
12.50293659449714
 21
7.113005429972311
 31
0.0
  0
LINE
  5
12CF
330
211A
100
AcDbEntity
  8
PART
 62
     7
100
AcDbLine
 10
14.12809788481971
 20
6.773005429972315
 30
0.0
 11
14.91461401385197
 21
6.773005429972315
 31
0.0
  0
LINE
  5
12D0
330
211A
100
AcDbEntity
  8
PART
 62
     7
100
AcDbLine
 10
14.93411401385198
 20
6.76900542997231
 30
0.0
 11
14.10859788481972
 21
6.76900542997231
 31
0.0
  0
LINE
  5
12D2
330
211A
100
AcDbEntity
  8
PART
 62
     7
100
AcDbLine
 10
14.76161401385198
 20
7.023005429972315
 30
0.0
 11
14.87161401385197
 21
7.023005429972315
 31
0.0
  0
LINE
  5
12D3
330
211A
100
AcDbEntity
  8
PART
 62
     7
100
AcDbLine
 10
14.76161401385198
 20
6.898005429972315
 30
0.0
 11
14.87161401385197
 21
6.898005429972315
 31
0.0
  0
LINE
  5
12D4
330
211A
100
AcDbEntity
  8
PART
 62
     7
100
AcDbLine
 10
14.76161401385198
 20
6.863005429972311
 30
0.0
 11
14.87161401385197
 21
6.863005429972311
 31
0.0
  0
LINE
  5
12D5
330
211A
100
AcDbEntity
  8
PART
 62
     7
100
AcDbLine
 10
14.36793659449714
 20
7.023005429972315
 30
0.0
 11
14.47793659449714
 21
7.023005429972315
 31
0.0
  0
LINE
  5
12D6
330
211A
100
AcDbEntity
  8
PART
 62
     7
100
AcDbLine
 10
14.36793659449714
 20
6.898005429972315
 30
0.0
 11
14.47793659449714
 21
6.898005429972315
 31
0.0
  0
LINE
  5
12D7
330
211A
100
AcDbEntity
  8
PART
 62
     7
100
AcDbLine
 10
14.36793659449714
 20
6.863005429972311
 30
0.0
 11
14.47793659449714
 21
6.863005429972311
 31
0.0
  0
LINE
  5
12D8
330
211A
100
AcDbEntity
  8
PART
 62
     7
100
AcDbLine
 10
14.56477530417456
 20
7.023005429972315
 30
0.0
 11
14.67477530417456
 21
7.023005429972315
 31
0.0
  0
LINE
  5
12D9
330
211A
100
AcDbEntity
  8
PART
 62
     7
100
AcDbLine
 10
14.56477530417456
 20
6.898005429972315
 30
0.0
 11
14.67477530417456
 21
6.898005429972315
 31
0.0
  0
LINE
  5
12DA
330
211A
100
AcDbEntity
  8
PART
 62
     7
100
AcDbLine
 10
14.56477530417456
 20
6.863005429972311
 30
0.0
 11
14.67477530417456
 21
6.863005429972311
 31
0.0
  0
LINE
  5
12DB
330
211A
100
AcDbEntity
  8
PART
 62
     7
100
AcDbLine
 10
14.17109788481972
 20
7.023005429972315
 30
0.0
 11
14.28109788481972
 21
7.023005429972315
 31
0.0
  0
LINE
  5
12DC
330
211A
100
AcDbEntity
  8
PART
 62
     7
100
AcDbLine
 10
14.17109788481972
 20
6.898005429972315
 30
0.0
 11
14.28109788481972
 21
6.898005429972315
 31
0.0
  0
LINE
  5
12DD
330
211A
100
AcDbEntity
  8
PART
 62
     7
100
AcDbLine
 10
14.17109788481972
 20
6.863005429972311
 30
0.0
 11
14.28109788481972
 21
6.863005429972311
 31
0.0
  0
LINE
  5
12DE
330
211A
100
AcDbEntity
  8
PART
 62
     7
100
AcDbLine
 10
12.9834527235294
 20
7.023005429972315
 30
0.0
 11
13.0934527235294
 21
7.023005429972315
 31
0.0
  0
LINE
  5
12DF
330
211A
100
AcDbEntity
  8
PART
 62
     7
100
AcDbLine
 10
12.9834527235294
 20
6.898005429972315
 30
0.0
 11
13.0934527235294
 21
6.898005429972315
 31
0.0
  0
LINE
  5
12E0
330
211A
100
AcDbEntity
  8
PART
 62
     7
100
AcDbLine
 10
12.9834527235294
 20
6.863005429972311
 30
0.0
 11
13.0934527235294
 21
6.863005429972311
 31
0.0
  0
LINE
  5
12E6
330
211A
100
AcDbEntity
  8
PART
 62
     7
100
AcDbLine
 10
13.18029143320682
 20
7.023005429972315
 30
0.0
 11
13.29029143320682
 21
7.023005429972315
 31
0.0
  0
LINE
  5
12E7
330
211A
100
AcDbEntity
  8
PART
 62
     7
100
AcDbLine
 10
13.18029143320682
 20
6.898005429972315
 30
0.0
 11
13.29029143320682
 21
6.898005429972315
 31
0.0
  0
LINE
  5
12E8
330
211A
100
AcDbEntity
  8
PART
 62
     7
100
AcDbLine
 10
13.18029143320682
 20
6.863005429972311
 30
0.0
 11
13.29029143320682
 21
6.863005429972311
 31
0.0
  0
LINE
  5
12EA
330
211A
100
AcDbEntity
  8
PART
 62
     7
100
AcDbLine
 10
12.58977530417456
 20
6.863005429972311
 30
0.0
 11
12.69977530417456
 21
6.863005429972311
 31
0.0
  0
LINE
  5
12EB
330
211A
100
AcDbEntity
  8
PART
 62
     7
100
AcDbLine
 10
12.58977530417456
 20
6.898005429972315
 30
0.0
 11
12.69977530417456
 21
6.898005429972315
 31
0.0
  0
LINE
  5
12EC
330
211A
100
AcDbEntity
  8
PART
 62
     7
100
AcDbLine
 10
12.58977530417456
 20
7.023005429972315
 30
0.0
 11
12.69977530417456
 21
7.023005429972315
 31
0.0
  0
LINE
  5
12ED
330
211A
100
AcDbEntity
  8
PART
 62
     7
100
AcDbLine
 10
12.78661401385197
 20
6.863005429972311
 30
0.0
 11
12.89661401385197
 21
6.863005429972311
 31
0.0
  0
LINE
  5
12EE
330
211A
100
AcDbEntity
  8
PART
 62
     7
100
AcDbLine
 10
12.78661401385197
 20
6.898005429972315
 30
0.0
 11
12.89661401385197
 21
6.898005429972315
 31
0.0
  0
LINE
  5
12EF
330
211A
100
AcDbEntity
  8
PART
 62
     7
100
AcDbLine
 10
12.78661401385197
 20
7.023005429972315
 30
0.0
 11
12.89661401385197
 21
7.023005429972315
 31
0.0
  0
LINE
  5
12F0
330
211A
100
AcDbEntity
  8
PART
 62
     7
100
AcDbLine
 10
12.39293659449714
 20
6.863005429972311
 30
0.0
 11
12.50293659449714
 21
6.863005429972311
 31
0.0
  0
LINE
  5
12F1
330
211A
100
AcDbEntity
  8
PART
 62
     7
100
AcDbLine
 10
12.39293659449714
 20
6.898005429972315
 30
0.0
 11
12.50293659449714
 21
6.898005429972315
 31
0.0
  0
LINE
  5
12F2
330
211A
100
AcDbEntity
  8
PART
 62
     7
100
AcDbLine
 10
12.39293659449714
 20
7.023005429972315
 30
0.0
 11
12.50293659449714
 21
7.023005429972315
 31
0.0
  0
LINE
  5
12F3
330
211A
100
AcDbEntity
  8
PART
 62
     7
100
AcDbLine
 10
10.67109788481972
 20
6.863005429972311
 30
0.0
 11
10.67109788481972
 21
7.113005429972311
 31
0.0
  0
LINE
  5
12F4
330
211A
100
AcDbEntity
  8
PART
 62
     7
100
AcDbLine
 10
10.86793659449714
 20
6.863005429972311
 30
0.0
 11
10.86793659449714
 21
7.113005429972311
 31
0.0
  0
LINE
  5
12F5
330
211A
100
AcDbEntity
  8
PART
 62
     7
100
AcDbLine
 10
10.97793659449714
 20
6.863005429972311
 30
0.0
 11
10.97793659449714
 21
7.113005429972311
 31
0.0
  0
LINE
  5
12F6
330
211A
100
AcDbEntity
  8
PART
 62
     7
100
AcDbLine
 10
10.78109788481971
 20
6.863005429972311
 30
0.0
 11
10.78109788481971
 21
7.113005429972311
 31
0.0
  0
LINE
  5
12F7
330
211A
100
AcDbEntity
  8
PART
 62
     7
100
AcDbLine
 10
11.26161401385197
 20
6.863005429972311
 30
0.0
 11
11.26161401385197
 21
7.113005429972311
 31
0.0
  0
LINE
  5
12F8
330
211A
100
AcDbEntity
  8
PART
 62
     7
100
AcDbLine
 10
11.06477530417456
 20
6.863005429972311
 30
0.0
 11
11.06477530417456
 21
7.113005429972311
 31
0.0
  0
LINE
  5
12F9
330
211A
100
AcDbEntity
  8
PART
 62
     7
100
AcDbLine
 10
11.17477530417456
 20
6.863005429972311
 30
0.0
 11
11.17477530417456
 21
7.113005429972311
 31
0.0
  0
LINE
  5
12FA
330
211A
100
AcDbEntity
  8
PART
 62
     7
100
AcDbLine
 10
10.60859788481971
 20
7.194005429972307
 30
0.0
 11
10.60859788481971
 21
6.76900542997231
 31
0.0
  0
LINE
  5
12FB
330
211A
100
AcDbEntity
  8
PART
 62
     7
100
AcDbLine
 10
10.62809788481971
 20
7.363005429972311
 30
0.0
 11
10.62809788481971
 21
6.773005429972315
 31
0.0
  0
LINE
  5
12FC
330
211A
100
AcDbEntity
  8
PART
 62
     7
100
AcDbLine
 10
11.37161401385197
 20
6.863005429972311
 30
0.0
 11
11.37161401385197
 21
7.113005429972311
 31
0.0
  0
LINE
  5
12FD
330
211A
100
AcDbEntity
  8
PART
 62
     7
100
AcDbLine
 10
11.65529143320682
 20
6.863005429972311
 30
0.0
 11
11.65529143320682
 21
7.113005429972311
 31
0.0
  0
LINE
  5
12FE
330
211A
100
AcDbEntity
  8
PART
 62
     7
100
AcDbLine
 10
11.4584527235294
 20
6.863005429972311
 30
0.0
 11
11.4584527235294
 21
7.113005429972311
 31
0.0
  0
LINE
  5
12FF
330
211A
100
AcDbEntity
  8
PART
 62
     7
100
AcDbLine
 10
11.5684527235294
 20
6.863005429972311
 30
0.0
 11
11.5684527235294
 21
7.113005429972311
 31
0.0
  0
LINE
  5
1300
330
211A
100
AcDbEntity
  8
PART
 62
     7
100
AcDbLine
 10
11.76529143320682
 20
6.863005429972311
 30
0.0
 11
11.76529143320682
 21
7.113005429972311
 31
0.0
  0
LINE
  5
1301
330
211A
100
AcDbEntity
  8
PART
 62
     7
100
AcDbLine
 10
12.19609788481971
 20
6.863005429972311
 30
0.0
 11
12.19609788481971
 21
7.113005429972311
 31
0.0
  0
LINE
  5
1302
330
211A
100
AcDbEntity
  8
PART
 62
     7
100
AcDbLine
 10
12.30609788481971
 20
6.863005429972311
 30
0.0
 11
12.30609788481971
 21
7.113005429972311
 31
0.0
  0
LINE
  5
1303
330
211A
100
AcDbEntity
  8
PART
 62
     7
100
AcDbLine
 10
11.82779143320681
 20
7.194005429972307
 30
0.0
 11
11.82779143320681
 21
6.76900542997231
 31
0.0
  0
LINE
  5
1304
330
211A
100
AcDbEntity
  8
PART
 62
     7
100
AcDbLine
 10
11.80829143320681
 20
7.363005429972311
 30
0.0
 11
11.80829143320681
 21
6.773005429972315
 31
0.0
  0
LINE
  5
1305
330
211A
100
AcDbEntity
  8
PART
 62
     7
100
AcDbLine
 10
12.13359788481971
 20
7.194005429972307
 30
0.0
 11
12.13359788481971
 21
6.76900542997231
 31
0.0
  0
LINE
  5
1306
330
211A
100
AcDbEntity
  8
PART
 62
     7
100
AcDbLine
 10
12.15309788481971
 20
7.363005429972311
 30
0.0
 11
12.15309788481971
 21
6.773005429972315
 31
0.0
  0
LINE
  5
1307
330
211A
100
AcDbEntity
  8
PART
 62
     7
100
AcDbLine
 10
11.82779143320681
 20
7.194005429972307
 30
0.0
 11
11.80829143320681
 21
7.194005429972306
 31
0.0
  0
LINE
  5
1308
330
211A
100
AcDbEntity
  8
PART
 62
     7
100
AcDbLine
 10
10.62809788481971
 20
7.363005429972311
 30
0.0
 11
11.80829143320681
 21
7.363005429972311
 31
0.0
  0
LINE
  5
1309
330
211A
100
AcDbEntity
  8
PART
 62
     7
100
AcDbLine
 10
11.65529143320682
 20
7.113005429972311
 30
0.0
 11
11.76529143320682
 21
7.113005429972311
 31
0.0
  0
LINE
  5
130C
330
211A
100
AcDbEntity
  8
PART
 62
     7
100
AcDbLine
 10
12.19609788481971
 20
7.113005429972311
 30
0.0
 11
12.30609788481971
 21
7.113005429972311
 31
0.0
  0
LINE
  5
1316
330
211A
100
AcDbEntity
  8
PART
 62
     7
100
AcDbLine
 10
11.26161401385197
 20
7.113005429972311
 30
0.0
 11
11.37161401385197
 21
7.113005429972311
 31
0.0
  0
LINE
  5
1317
330
211A
100
AcDbEntity
  8
PART
 62
     7
100
AcDbLine
 10
11.4584527235294
 20
7.113005429972311
 30
0.0
 11
11.5684527235294
 21
7.113005429972311
 31
0.0
  0
LINE
  5
1318
330
211A
100
AcDbEntity
  8
PART
 62
     7
100
AcDbLine
 10
11.06477530417456
 20
7.113005429972311
 30
0.0
 11
11.17477530417456
 21
7.113005429972311
 31
0.0
  0
LINE
  5
131D
330
211A
100
AcDbEntity
  8
PART
 62
     7
100
AcDbLine
 10
10.67109788481972
 20
7.113005429972311
 30
0.0
 11
10.78109788481971
 21
7.113005429972311
 31
0.0
  0
LINE
  5
131E
330
211A
100
AcDbEntity
  8
PART
 62
     7
100
AcDbLine
 10
10.86793659449714
 20
7.113005429972311
 30
0.0
 11
10.97793659449714
 21
7.113005429972311
 31
0.0
  0
LINE
  5
1324
330
211A
100
AcDbEntity
  8
PART
 62
     7
100
AcDbLine
 10
11.82779143320681
 20
6.76900542997231
 30
0.0
 11
10.60859788481971
 21
6.76900542997231
 31
0.0
  0
LINE
  5
1325
330
211A
100
AcDbEntity
  8
PART
 62
     7
100
AcDbLine
 10
10.62809788481971
 20
6.773005429972315
 30
0.0
 11
11.80829143320681
 21
6.773005429972315
 31
0.0
  0
LINE
  5
1326
330
211A
100
AcDbEntity
  8
PART
 62
     7
100
AcDbLine
 10
11.65529143320682
 20
6.863005429972311
 30
0.0
 11
11.76529143320682
 21
6.863005429972311
 31
0.0
  0
LINE
  5
1327
330
211A
100
AcDbEntity
  8
PART
 62
     7
100
AcDbLine
 10
11.65529143320682
 20
6.898005429972315
 30
0.0
 11
11.76529143320682
 21
6.898005429972315
 31
0.0
  0
LINE
  5
1328
330
211A
100
AcDbEntity
  8
PART
 62
     7
100
AcDbLine
 10
11.65529143320682
 20
7.023005429972315
 30
0.0
 11
11.76529143320682
 21
7.023005429972315
 31
0.0
  0
LINE
  5
132E
330
211A
100
AcDbEntity
  8
PART
 62
     7
100
AcDbLine
 10
12.19609788481971
 20
6.863005429972311
 30
0.0
 11
12.30609788481971
 21
6.863005429972311
 31
0.0
  0
LINE
  5
132F
330
211A
100
AcDbEntity
  8
PART
 62
     7
100
AcDbLine
 10
12.19609788481971
 20
6.898005429972315
 30
0.0
 11
12.30609788481971
 21
6.898005429972315
 31
0.0
  0
LINE
  5
1330
330
211A
100
AcDbEntity
  8
PART
 62
     7
100
AcDbLine
 10
12.19609788481971
 20
7.023005429972315
 30
0.0
 11
12.30609788481971
 21
7.023005429972315
 31
0.0
  0
LINE
  5
1332
330
211A
100
AcDbEntity
  8
PART
 62
     7
100
AcDbLine
 10
11.26161401385197
 20
6.863005429972311
 30
0.0
 11
11.37161401385197
 21
6.863005429972311
 31
0.0
  0
LINE
  5
1333
330
211A
100
AcDbEntity
  8
PART
 62
     7
100
AcDbLine
 10
11.26161401385197
 20
6.898005429972315
 30
0.0
 11
11.37161401385197
 21
6.898005429972315
 31
0.0
  0
LINE
  5
1334
330
211A
100
AcDbEntity
  8
PART
 62
     7
100
AcDbLine
 10
11.26161401385197
 20
7.023005429972315
 30
0.0
 11
11.37161401385197
 21
7.023005429972315
 31
0.0
  0
LINE
  5
1335
330
211A
100
AcDbEntity
  8
PART
 62
     7
100
AcDbLine
 10
11.4584527235294
 20
6.863005429972311
 30
0.0
 11
11.5684527235294
 21
6.863005429972311
 31
0.0
  0
LINE
  5
1336
330
211A
100
AcDbEntity
  8
PART
 62
     7
100
AcDbLine
 10
11.4584527235294
 20
6.898005429972315
 30
0.0
 11
11.5684527235294
 21
6.898005429972315
 31
0.0
  0
LINE
  5
1337
330
211A
100
AcDbEntity
  8
PART
 62
     7
100
AcDbLine
 10
11.4584527235294
 20
7.023005429972315
 30
0.0
 11
11.5684527235294
 21
7.023005429972315
 31
0.0
  0
LINE
  5
1338
330
211A
100
AcDbEntity
  8
PART
 62
     7
100
AcDbLine
 10
11.06477530417456
 20
6.863005429972311
 30
0.0
 11
11.17477530417456
 21
6.863005429972311
 31
0.0
  0
LINE
  5
1339
330
211A
100
AcDbEntity
  8
PART
 62
     7
100
AcDbLine
 10
11.06477530417456
 20
6.898005429972315
 30
0.0
 11
11.17477530417456
 21
6.898005429972315
 31
0.0
  0
LINE
  5
133A
330
211A
100
AcDbEntity
  8
PART
 62
     7
100
AcDbLine
 10
11.06477530417456
 20
7.023005429972315
 30
0.0
 11
11.17477530417456
 21
7.023005429972315
 31
0.0
  0
LINE
  5
133B
330
211A
100
AcDbEntity
  8
PART
 62
     7
100
AcDbLine
 10
10.67109788481972
 20
6.863005429972311
 30
0.0
 11
10.78109788481971
 21
6.863005429972311
 31
0.0
  0
LINE
  5
133C
330
211A
100
AcDbEntity
  8
PART
 62
     7
100
AcDbLine
 10
10.67109788481972
 20
6.898005429972315
 30
0.0
 11
10.78109788481971
 21
6.898005429972315
 31
0.0
  0
LINE
  5
133D
330
211A
100
AcDbEntity
  8
PART
 62
     7
100
AcDbLine
 10
10.67109788481972
 20
7.023005429972315
 30
0.0
 11
10.78109788481971
 21
7.023005429972315
 31
0.0
  0
LINE
  5
133E
330
211A
100
AcDbEntity
  8
PART
 62
     7
100
AcDbLine
 10
10.86793659449714
 20
6.863005429972311
 30
0.0
 11
10.97793659449714
 21
6.863005429972311
 31
0.0
  0
LINE
  5
133F
330
211A
100
AcDbEntity
  8
PART
 62
     7
100
AcDbLine
 10
10.86793659449714
 20
6.898005429972315
 30
0.0
 11
10.97793659449714
 21
6.898005429972315
 31
0.0
  0
LINE
  5
1340
330
211A
100
AcDbEntity
  8
PART
 62
     7
100
AcDbLine
 10
10.86793659449714
 20
7.023005429972315
 30
0.0
 11
10.97793659449714
 21
7.023005429972315
 31
0.0
  0
LWPOLYLINE
  5
1341
330
211A
100
AcDbEntity
  8
PART
 62
     7
100
AcDbPolyline
 90
       16
 70
     1
 43
0.0
 10
15.13461937936315
 20
4.04106292650928
 10
15.16895505794964
 20
4.041062926509281
 42
-0.4142135623730951
 10
15.18395505794964
 20
4.026062926509281
 10
15.18395505794964
 20
3.991727247922788
 10
15.23324071168979
 20
3.991727247922788
 10
15.23324071168979
 20
4.026062926509279
 42
-0.4142135623730951
 10
15.24824071168979
 20
4.04106292650928
 10
15.28257639027629
 20
4.041062926509278
 10
15.28257639027629
 20
4.090348580249436
 10
15.24824071168979
 20
4.090348580249436
 42
-0.4142135623730951
 10
15.23324071168979
 20
4.105348580249437
 10
15.23324071168979
 20
4.139684258835924
 10
15.18395505794964
 20
4.139684258835924
 10
15.18395505794964
 20
4.105348580249437
 42
-0.4142135623731054
 10
15.16895505794964
 20
4.090348580249436
 10
15.13461937936315
 20
4.090348580249438
  0
CIRCLE
  5
1353
330
211A
100
AcDbEntity
  8
PART
 62
     7
100
AcDbCircle
 10
15.20859788481972
 20
4.065705753379356
 30
0.0
 40
0.1080000000000023
  0
CIRCLE
  5
1354
330
211A
100
AcDbEntity
  8
PART
 62
     7
100
AcDbCircle
 10
10.05359788481972
 20
4.065705753379353
 30
0.0
 40
0.1080000000000023
  0
LWPOLYLINE
  5
1355
330
211A
100
AcDbEntity
  8
PART
 62
     7
100
AcDbPolyline
 90
       16
 70
     1
 43
0.0
 10
9.979619379363153
 20
4.041062926509276
 10
10.01395505794964
 20
4.041062926509278
 42
-0.4142135623730951
 10
10.02895505794964
 20
4.026062926509277
 10
10.02895505794964
 20
3.991727247922785
 10
10.07824071168979
 20
3.991727247922785
 10
10.07824071168979
 20
4.026062926509275
 42
-0.4142135623730951
 10
10.09324071168979
 20
4.041062926509276
 10
10.12757639027629
 20
4.041062926509274
 10
10.12757639027629
 20
4.090348580249433
 10
10.09324071168979
 20
4.090348580249433
 42
-0.4142135623730951
 10
10.07824071168979
 20
4.105348580249433
 10
10.07824071168979
 20
4.13968425883592
 10
10.02895505794964
 20
4.13968425883592
 10
10.02895505794964
 20
4.105348580249433
 42
-0.4142135623731054
 10
10.01395505794964
 20
4.090348580249433
 10
9.979619379363153
 20
4.090348580249434
  0
TEXT
  5
1367
330
211A
100
AcDbEntity
  8
TXT
 62
     7
100
AcDbText
 10
11.70945502767686
 20
3.20423842306143
 30
0.0
 40
0.187
  1
FRONT VIEW
  7
ROMANT
 72
     4
 11
12.63109788481972
 21
3.297738423061431
 31
0.0
100
AcDbText
  0
LINE
  5
1368
330
211A
100
AcDbEntity
  8
PART
 62
     7
100
AcDbLine
 10
10.62809788481971
 20
7.194005429972306
 30
0.0
 11
10.60859788481971
 21
7.194005429972307
 31
0.0
  0
LINE
  5
1369
330
211A
100
AcDbEntity
  8
PART
 62
     7
100
AcDbLine
 10
12.15309788481971
 20
7.194005429972308
 30
0.0
 11
12.13359788481971
 21
7.194005429972307
 31
0.0
  0
LINE
  5
136A
330
211A
100
AcDbEntity
  8
PART
 62
     7
100
AcDbLine
 10
14.12809788481971
 20
7.194005429972307
 30
0.0
 11
14.10859788481972
 21
7.194005429972307
 31
0.0
  0
LWPOLYLINE
  5
136B
330
211A
100
AcDbEntity
  8
PART
 62
     7
100
AcDbPolyline
 90
       16
 70
     1
 43
0.0
 10
15.13461937936315
 20
6.896362603102231
 10
15.16895505794964
 20
6.896362603102232
 42
-0.4142135623730951
 10
15.18395505794964
 20
6.881362603102232
 10
15.18395505794964
 20
6.84702692451574
 10
15.23324071168979
 20
6.84702692451574
 10
15.23324071168979
 20
6.88136260310223
 42
-0.4142135623730951
 10
15.24824071168979
 20
6.896362603102231
 10
15.28257639027629
 20
6.896362603102229
 10
15.28257639027629
 20
6.945648256842387
 10
15.24824071168979
 20
6.945648256842387
 42
-0.4142135623730951
 10
15.23324071168979
 20
6.960648256842388
 10
15.23324071168979
 20
6.994983935428875
 10
15.18395505794964
 20
6.994983935428875
 10
15.18395505794964
 20
6.960648256842388
 42
-0.4142135623731054
 10
15.16895505794964
 20
6.945648256842387
 10
15.13461937936315
 20
6.945648256842389
  0
CIRCLE
  5
137D
330
211A
100
AcDbEntity
  8
PART
 62
     7
100
AcDbCircle
 10
15.20859788481972
 20
6.921005429972307
 30
0.0
 40
0.1080000000000023
  0
CIRCLE
  5
137E
330
211A
100
AcDbEntity
  8
PART
 62
     7
100
AcDbCircle
 10
10.05359788481972
 20
6.921005429972311
 30
0.0
 40
0.1080000000000023
  0
LWPOLYLINE
  5
137F
330
211A
100
AcDbEntity
  8
PART
 62
     7
100
AcDbPolyline
 90
       16
 70
     1
 43
0.0
 10
9.979619379363153
 20
6.896362603102234
 10
10.01395505794964
 20
6.896362603102236
 42
-0.4142135623730951
 10
10.02895505794964
 20
6.881362603102235
 10
10.02895505794964
 20
6.847026924515743
 10
10.07824071168979
 20
6.847026924515743
 10
10.07824071168979
 20
6.881362603102234
 42
-0.4142135623730951
 10
10.09324071168979
 20
6.896362603102234
 10
10.12757639027628
 20
6.896362603102232
 10
10.12757639027628
 20
6.945648256842391
 10
10.09324071168979
 20
6.945648256842391
 42
-0.4142135623730951
 10
10.07824071168979
 20
6.960648256842391
 10
10.07824071168979
 20
6.994983935428878
 10
10.02895505794964
 20
6.994983935428878
 10
10.02895505794964
 20
6.960648256842391
 42
-0.4142135623731054
 10
10.01395505794964
 20
6.945648256842391
 10
9.979619379363153
 20
6.945648256842392
  0
TEXT
  5
1391
330
211A
100
AcDbEntity
  8
TXT
 62
     7
100
AcDbText
 10
11.81185978958162
 20
6.059538099654387
 30
0.0
 40
0.187
  1
REAR VIEW
  7
ROMANT
 72
     4
 11
12.63109788481972
 21
6.153038099654387
 31
0.0
100
AcDbText
  0
INSERT
  5
1392
330
211A
100
AcDbEntity
  8
0
 62
     7
100
AcDbBlockReference
 66
     1
  2
RELEASE
 10
16.50000000000068
 20
9.953200000000439
 30
0.0
  0
ATTRIB
  5
1393
330
1392
100
AcDbEntity
  8
TB-TXT
100
AcDbText
 10
11.57285670612053
 20
9.778200000000438
 30
0.0
 40
0.1
  1
A
  7
ROMANS
 72
     4
 11
11.61571384897767
 21
9.828200000000439
 31
0.0
100
AcDbAttribute
  2
REV
 70
     0
  0
ATTRIB
  5
1394
330
1392
100
AcDbEntity
  8
TXT
100
AcDbText
 10
11.92943623616825
 20
9.778200000000438
 30
0.0
 40
0.1
  1
RELEASED TO PRODUCTION
  7
ROMANS
 11
11.92943623616825
 21
9.828200000000439
 31
0.0
100
AcDbAttribute
  2
DESC
 70
     0
 74
     2
  0
ATTRIB
  5
1395
330
1392
100
AcDbEntity
  8
TB-TXT
100
AcDbText
 10
14.70007420994426
 20
9.785342857143296
 30
0.0
 40
0.1
  1
8/26/96
  7
ROMANS
 72
     4
 11
15.0429313528014
 21
9.828200000000439
 31
0.0
100
AcDbAttribute
  2
DATE
 70
     0
  0
ATTRIB
  5
1396
330
1392
100
AcDbEntity
  8
TB-TXT
100
AcDbText
 10
15.99021567640104
 20
9.828200000000439
 30
0.0
 40
0.1
  1

  7
ROMANS
 72
     4
 11
15.99021567640104
 21
9.828200000000439
 31
0.0
100
AcDbAttribute
  2
APPR
 70
     0
  0
SEQEND
  5
1397
330
1392
100
AcDbEntity
  8
0
  0
TEXT
  5
222A
330
211A
100
AcDbEntity
  8
SILK
 62
     7
100
AcDbText
 10
10.05359788481971
 20
4.614180419899492
 30
0.0
 40
0.08897
  1
DMX512 Interface
 41
1.5
  7
ARIAL
100
AcDbText
  0
TEXT
  5
222B
330
211A
100
AcDbEntity
  8
SILK
 62
     7
100
AcDbText
 10
10.05124254440021
 20
4.781801284555996
 30
0.0
 40
0.141
  1
AXB-DMX512
 41
1.7
  7
BOLD
100
AcDbText
  0
TEXT
  5
222C
330
211A
100
AcDbEntity
  8
SILK
 62
     7
100
AcDbText
 10
10.28840893529721
 20
4.261967521514244
 30
0.0
 40
0.062
  1
AXlink
  7
ARIAL
 72
     4
 11
10.41109788481972
 21
4.292967521514244
 31
0.0
100
AcDbText
  0
TEXT
  5
222D
330
211A
100
AcDbEntity
  8
SILK
 62
     7
100
AcDbText
 10
10.97693212765734
 20
4.296705753379357
 30
0.0
 40
0.062
  1
DEVICE
  7
ARIAL
 72
     4
 11
11.13609788481969
 21
4.327705753379357
 31
0.0
100
AcDbText
  0
SOLID
  5
2231
330
211A
100
AcDbEntity
  8
SILK
 62
     7
100
AcDbTrace
 10
11.72906854973593
 20
4.177253551998951
 30
0.0
 11
11.68906854973591
 21
4.177253551998951
 31
0.0
 12
11.70906854973594
 22
4.097707658981892
 32
0.0
 13
11.70906854973594
 23
4.097707658981892
 33
0.0
  0
TEXT
  5
2232
330
211A
100
AcDbEntity
  8
SILK
 62
     7
100
AcDbText
 10
11.64440279257359
 20
4.004412822674191
 30
0.0
 40
0.06
  1
ON
  7
ARIAL
 72
     4
 11
11.70906854973594
 21
4.034433286521394
 31
0.0
100
AcDbText
  0
LWPOLYLINE
  5
2233
330
211A
100
AcDbEntity
  8
SILK
 62
     7
100
AcDbPolyline
 90
        2
 70
     0
 43
0.004
 10
11.70906854973594
 20
4.177253551998951
 10
11.70906854973594
 20
4.249151238969322
  0
TEXT
  5
224C
330
211A
100
AcDbEntity
  8
SILK
 62
     7
100
AcDbText
 10
14.65294645235041
 20
4.262006883638748
 30
0.0
 40
0.062
  1
RX
  7
ARIAL
 72
     4
 11
14.71109788481971
 21
4.293006883638748
 31
0.0
100
AcDbText
  0
TEXT
  5
224D
330
211A
100
AcDbEntity
  8
SILK
 62
     7
100
AcDbText
 10
14.28075886708438
 20
4.262006883638748
 30
0.0
 40
0.062
  1
TX
  7
ARIAL
 72
     4
 11
14.33609788481971
 21
4.293006883638748
 31
0.0
100
AcDbText
  0
INSERT
  5
2E17
330
211A
100
AcDbEntity
  8
0
 62
     7
100
AcDbBlockReference
 66
     1
  2
RELEASE
 10
16.50000000000068
 20
9.703200000000439
 30
0.0
  0
ATTRIB
  5
2E18
330
2E17
100
AcDbEntity
  8
TB-TXT
100
AcDbText
 10
11.56333289659672
 20
9.528200000000438
 30
0.0
 40
0.1
  1
B
  7
ROMANS
 72
     4
 11
11.61571384897767
 21
9.578200000000439
 31
0.0
100
AcDbAttribute
  2
REV
 70
     0
  0
ATTRIB
  5
2E19
330
2E17
100
AcDbEntity
  8
TXT
100
AcDbText
 10
11.92943623616825
 20
9.528200000000438
 30
0.0
 40
0.1
  1
ECN 2171, REMOVE RS232
  7
ROMANS
 11
11.92943623616825
 21
9.578200000000439
 31
0.0
100
AcDbAttribute
  2
DESC
 70
     0
 74
     2
  0
ATTRIB
  5
2E1A
330
2E17
100
AcDbEntity
  8
TB-TXT
100
AcDbText
 10
14.70721706708711
 20
9.535342857143296
 30
0.0
 40
0.1
  1
1/18/01
  7
ROMANS
 72
     4
 11
15.0429313528014
 21
9.578200000000439
 31
0.0
100
AcDbAttribute
  2
DATE
 70
     0
  0
ATTRIB
  5
2E1B
330
2E17
100
AcDbEntity
  8
TB-TXT
100
AcDbText
 10
15.99021567640104
 20
9.578200000000439
 30
0.0
 40
0.1
  1

  7
ROMANS
 72
     4
 11
15.99021567640104
 21
9.578200000000439
 31
0.0
100
AcDbAttribute
  2
APPR
 70
     0
  0
SEQEND
  5
2E1C
330
2E17
100
AcDbEntity
  8
0
  0
LWPOLYLINE
  5
2EAD
330
211A
100
AcDbEntity
  8
WHT
 62
     7
100
AcDbPolyline
 90
        3
 70
     0
 43
0.007
 10
10.60859788481971
 20
6.721949885358863
 10
10.60859788481971
 20
6.64418909185365
 10
11.13522544695296
 20
6.644189091853654
  0
LWPOLYLINE
  5
2EB2
330
211A
100
AcDbEntity
  8
WHT
 62
     7
100
AcDbPolyline
 90
        3
 70
     0
 43
0.007
 10
12.13359788481971
 20
6.721949885358863
 10
12.13359788481971
 20
6.64418909185365
 10
12.61556235723702
 20
6.64418909185365
  0
LWPOLYLINE
  5
2EB7
330
211A
100
AcDbEntity
  8
WHT
 62
     7
100
AcDbPolyline
 90
        3
 70
     0
 43
0.007
 10
11.28776161249041
 20
6.64418909185365
 10
11.82779143320681
 20
6.64418909185365
 10
11.82779143320681
 20
6.721949885358863
  0
TEXT
  5
2EBC
330
211A
100
AcDbEntity
  8
WHT
 62
     7
100
AcDbText
 10
11.17440134387002
 20
6.612436123411302
 30
0.0
 40
0.062
  1
IN
  7
ARIAL
 72
     4
 11
11.21819465901327
 21
6.643436123411301
 31
0.0
100
AcDbText
  0
LWPOLYLINE
  5
2EBD
330
211A
100
AcDbEntity
  8
WHT
 62
     7
100
AcDbPolyline
 90
        3
 70
     0
 43
0.007
 10
12.8708269607895
 20
6.64418909185365
 10
13.35279143320681
 20
6.64418909185365
 10
13.35279143320681
 20
6.721949885358863
  0
TEXT
  5
2EC2
330
211A
100
AcDbEntity
  8
WHT
 62
     7
100
AcDbText
 10
12.65178060717152
 20
6.612414977435858
 30
0.0
 40
0.062
  1
OUT
  7
ARIAL
 72
     4
 11
12.74319465901327
 21
6.643436123411301
 31
0.0
100
AcDbText
  0
LWPOLYLINE
  5
2EC3
330
211A
100
AcDbEntity
  8
SILK
 62
     7
100
AcDbPolyline
 90
        3
 70
     0
 43
0.007
 10
14.12809788481971
 20
6.721949885358863
 10
14.12809788481971
 20
6.644189091853649
 10
14.37465496161667
 20
6.644189091853649
  0
TEXT
  5
2EC8
330
211A
100
AcDbEntity
  8
SILK
 62
     7
100
AcDbText
 10
14.39932859201744
 20
6.612436123411301
 30
0.0
 40
0.062
  1
AXlink
  7
ARIAL
 72
     4
 11
14.52201754153995
 21
6.643436123411301
 31
0.0
100
AcDbText
  0
LWPOLYLINE
  5
2EC9
330
211A
100
AcDbEntity
  8
SILK
 62
     7
100
AcDbPolyline
 90
        3
 70
     0
 43
0.007
 10
14.668056937055
 20
6.644189091853649
 10
14.91461401385197
 20
6.644189091853649
 10
14.91461401385197
 20
6.721949885358863
  0
TEXT
  5
2ECE
330
211A
100
AcDbEntity
  8
WHT
 62
     7
100
AcDbText
 10
10.96274305293096
 20
7.400246724631276
 30
0.0
 40
0.062
  1
DATA
 50
90.0
  7
ARIAL
100
AcDbText
  0
TEXT
  5
2ECF
330
211A
100
AcDbEntity
  8
WHT
 62
     7
100
AcDbText
 10
10.76590434325353
 20
7.403352910585759
 30
0.0
 40
0.062
  1
GND
 50
90.0
  7
ARIAL
100
AcDbText
  0
TEXT
  5
2ED0
330
211A
100
AcDbEntity
  8
WHT
 62
     7
100
AcDbText
 10
12.29090434325354
 20
7.403352910585759
 30
0.0
 40
0.062
  1
GND
 50
90.0
  7
ARIAL
100
AcDbText
  0
TEXT
  5
2ED1
330
211A
100
AcDbEntity
  8
WHT
 62
     7
100
AcDbText
 10
11.35642047228581
 20
7.400246724631276
 30
0.0
 40
0.062
  1
DATA
 50
90.0
  7
ARIAL
100
AcDbText
  0
TEXT
  5
2ED2
330
211A
100
AcDbEntity
  8
WHT
 62
     7
100
AcDbText
 10
11.15958176260839
 20
7.400246724631276
 30
0.0
 40
0.062
  1
DATA
 50
90.0
  7
ARIAL
100
AcDbText
  0
TEXT
  5
2ED3
330
211A
100
AcDbEntity
  8
WHT
 62
     7
100
AcDbText
 10
11.55325918196323
 20
7.400246724631276
 30
0.0
 40
0.062
  1
DATA
 50
90.0
  7
ARIAL
100
AcDbText
  0
TEXT
  5
2ED4
330
211A
100
AcDbEntity
  8
WHT
 62
     7
100
AcDbText
 10
11.75009789164064
 20
7.400086509516139
 30
0.0
 40
0.062
  1
NC
 50
90.0
  7
ARIAL
100
AcDbText
  0
TEXT
  5
2ED5
330
211A
100
AcDbEntity
  8
WHT
 62
     7
100
AcDbText
 10
12.68458176260839
 20
7.400246724631276
 30
0.0
 40
0.062
  1
DATA
 50
90.0
  7
ARIAL
100
AcDbText
  0
TEXT
  5
2ED6
330
211A
100
AcDbEntity
  8
WHT
 62
     7
100
AcDbText
 10
12.48774305293097
 20
7.400246724631276
 30
0.0
 40
0.062
  1
DATA
 50
90.0
  7
ARIAL
100
AcDbText
  0
TEXT
  5
2ED7
330
211A
100
AcDbEntity
  8
WHT
 62
     7
100
AcDbText
 10
12.88142047228581
 20
7.400246724631276
 30
0.0
 40
0.062
  1
DATA
 50
90.0
  7
ARIAL
100
AcDbText
  0
TEXT
  5
2ED8
330
211A
100
AcDbEntity
  8
WHT
 62
     7
100
AcDbText
 10
13.07825918196323
 20
7.400246724631276
 30
0.0
 40
0.062
  1
DATA
 50
90.0
  7
ARIAL
100
AcDbText
  0
TEXT
  5
2ED9
330
211A
100
AcDbEntity
  8
WHT
 62
     7
100
AcDbText
 10
13.27509789164065
 20
7.400086509516139
 30
0.0
 40
0.062
  1
NC
 50
90.0
  7
ARIAL
100
AcDbText
  0
TEXT
  5
2EDA
330
211A
100
AcDbEntity
  8
SILK
 62
     7
100
AcDbText
 10
14.26590434325353
 20
7.403821438756902
 30
0.0
 40
0.062
  1
GND
 50
90.0
  7
ARIAL
100
AcDbText
  0
TEXT
  5
2EDB
330
211A
100
AcDbEntity
  8
SILK
 62
     7
100
AcDbText
 10
14.65958176260838
 20
7.411390257555768
 30
0.0
 40
0.062
  1
AXP
 50
90.0
  7
ARIAL
100
AcDbText
  0
TEXT
  5
2EDC
330
211A
100
AcDbEntity
  8
SILK
 62
     7
100
AcDbText
 10
14.46274305293096
 20
7.411390257555768
 30
0.0
 40
0.062
  1
AXM
 50
90.0
  7
ARIAL
100
AcDbText
  0
TEXT
  5
2EDD
330
211A
100
AcDbEntity
  8
SILK
 62
     7
100
AcDbText
 10
14.8564204722858
 20
7.399487537211942
 30
0.0
 40
0.062
  1
PWR
 50
90.0
  7
ARIAL
100
AcDbText
  0
LWPOLYLINE
  5
2EDF
330
211A
100
AcDbEntity
  8
WHT
 62
     7
100
AcDbPolyline
 90
        2
 70
     0
 43
0.007
 10
12.8494184513826
 20
7.745664481933651
 10
12.8494184513826
 20
7.809057553425461
  0
LWPOLYLINE
  5
2EE3
330
211A
100
AcDbEntity
  8
WHT
 62
     7
100
AcDbPolyline
 90
        2
 70
     0
 43
0.007
 10
12.66247365117988
 20
7.74851744584069
 10
12.66247365117988
 20
7.811910517332499
  0
LWPOLYLINE
  5
2EE7
330
211A
100
AcDbEntity
  8
WHT
 62
     7
100
AcDbPolyline
 90
        2
 70
     0
 43
0.007
 10
12.45574103202776
 20
7.745664481933651
 10
12.45574103202776
 20
7.809057553425461
  0
LWPOLYLINE
  5
2EEB
330
211A
100
AcDbEntity
  8
WHT
 62
     7
100
AcDbPolyline
 90
        2
 70
     0
 43
0.007
 10
13.05615107053472
 20
7.74851744584069
 10
13.05615107053472
 20
7.811910517332499
  0
LWPOLYLINE
  5
2EEF
330
211A
100
AcDbEntity
  8
WHT
 62
     7
100
AcDbPolyline
 90
        2
 70
     0
 43
0.007
 10
11.53115107053472
 20
7.74851744584069
 10
11.53115107053472
 20
7.811910517332499
  0
LWPOLYLINE
  5
2EF3
330
211A
100
AcDbEntity
  8
WHT
 62
     7
100
AcDbPolyline
 90
        2
 70
     0
 43
0.007
 10
11.3244184513826
 20
7.745664481933651
 10
11.3244184513826
 20
7.809057553425461
  0
LWPOLYLINE
  5
2EF7
330
211A
100
AcDbEntity
  8
WHT
 62
     7
100
AcDbPolyline
 90
        2
 70
     0
 43
0.007
 10
11.13747365117988
 20
7.74851744584069
 10
11.13747365117988
 20
7.811910517332499
  0
LWPOLYLINE
  5
2EFB
330
211A
100
AcDbEntity
  8
WHT
 62
     7
100
AcDbPolyline
 90
        2
 70
     0
 43
0.007
 10
10.93074103202776
 20
7.745664481933651
 10
10.93074103202776
 20
7.809057553425461
  0
TEXT
  5
2EFF
330
211A
100
AcDbEntity
  8
WHT
 62
     7
100
AcDbText
 10
10.96274305293096
 20
7.667484685149023
 30
0.0
 40
0.062
  1
1
 50
90.0
  7
ARIAL
100
AcDbText
  0
TEXT
  5
2F00
330
211A
100
AcDbEntity
  8
WHT
 62
     7
100
AcDbText
 10
11.35642047228581
 20
7.671754687050366
 30
0.0
 40
0.062
  1
2
 50
90.0
  7
ARIAL
100
AcDbText
  0
LWPOLYLINE
  5
2F01
330
211A
100
AcDbEntity
  8
WHT
 62
     7
100
AcDbPolyline
 90
        2
 70
     0
 43
0.007
 10
11.10577711543397
 20
7.780213981586594
 10
11.16917018692578
 20
7.780213981586594
  0
TEXT
  5
2F05
330
211A
100
AcDbEntity
  8
WHT
 62
     7
100
AcDbText
 10
11.15958176260839
 20
7.667484685149023
 30
0.0
 40
0.062
  1
1
 50
90.0
  7
ARIAL
100
AcDbText
  0
LWPOLYLINE
  5
2F06
330
211A
100
AcDbEntity
  8
WHT
 62
     7
100
AcDbPolyline
 90
        2
 70
     0
 43
0.007
 10
11.49945453478881
 20
7.780213981586594
 10
11.56284760628062
 20
7.780213981586594
  0
TEXT
  5
2F0A
330
211A
100
AcDbEntity
  8
WHT
 62
     7
100
AcDbText
 10
11.55325918196323
 20
7.671754687050366
 30
0.0
 40
0.062
  1
2
 50
90.0
  7
ARIAL
100
AcDbText
  0
LWPOLYLINE
  5
2F0B
330
211A
100
AcDbEntity
  8
WHT
 62
     7
100
AcDbPolyline
 90
        2
 70
     0
 43
0.007
 10
12.63077711543397
 20
7.780213981586594
 10
12.69417018692578
 20
7.780213981586594
  0
TEXT
  5
2F0F
330
211A
100
AcDbEntity
  8
WHT
 62
     7
100
AcDbText
 10
12.68458176260839
 20
7.667484685149023
 30
0.0
 40
0.062
  1
1
 50
90.0
  7
ARIAL
100
AcDbText
  0
TEXT
  5
2F10
330
211A
100
AcDbEntity
  8
WHT
 62
     7
100
AcDbText
 10
12.48774305293097
 20
7.667484685149023
 30
0.0
 40
0.062
  1
1
 50
90.0
  7
ARIAL
100
AcDbText
  0
TEXT
  5
2F11
330
211A
100
AcDbEntity
  8
WHT
 62
     7
100
AcDbText
 10
12.88142047228581
 20
7.671754687050366
 30
0.0
 40
0.062
  1
2
 50
90.0
  7
ARIAL
100
AcDbText
  0
LWPOLYLINE
  5
2F12
330
211A
100
AcDbEntity
  8
WHT
 62
     7
100
AcDbPolyline
 90
        2
 70
     0
 43
0.007
 10
13.02445453478882
 20
7.780213981586594
 10
13.08784760628062
 20
7.780213981586594
  0
TEXT
  5
2F16
330
211A
100
AcDbEntity
  8
WHT
 62
     7
100
AcDbText
 10
13.07825918196323
 20
7.671754687050366
 30
0.0
 40
0.062
  1
2
 50
90.0
  7
ARIAL
100
AcDbText
  0
INSERT
  5
2F2F
330
211A
100
AcDbEntity
  8
TXT
 62
     7
100
AcDbBlockReference
 66
     1
  2
SIGNOFF
 10
11.03011378089557
 20
2.303364982506457
 30
0.0
  0
ATTRIB
  5
2F30
330
2F2F
100
AcDbEntity
  8
TXT
100
AcDbText
 10
11.86653925888933
 20
1.586708633250002
 30
0.0
 40
0.12
  1
RDR
  7
ROMANS
100
AcDbAttribute
  2
ENG
 70
     0
  0
ATTRIB
  5
2F31
330
2F2F
100
AcDbEntity
  8
TXT
100
AcDbText
 10
12.46247696936172
 20
1.847381629751294
 30
0.0
 40
0.12
  1
1/25/01
 41
0.6789296516774347
  7
ROMANS
 72
     5
 11
12.98622270065574
 21
1.847381629751294
 31
0.0
100
AcDbAttribute
  2
CHKDATE
 70
     0
  0
ATTRIB
  5
2F32
330
2F2F
100
AcDbEntity
  8
TXT
100
AcDbText
 10
12.46247696936172
 20
1.586708633250002
 30
0.0
 40
0.12
  1
1/18
 41
1.160196240208273
  7
ROMANS
 72
     5
 11
12.98622270065574
 21
1.586708633250002
 31
0.0
100
AcDbAttribute
  2
ENGDATE
 70
     0
  0
ATTRIB
  5
2F33
330
2F2F
100
AcDbEntity
  8
TXT
100
AcDbText
 10
12.46247696936172
 20
1.326035636748711
 30
0.0
 40
0.12
  1
1/25/01
 41
0.6789296516774345
  7
ROMANS
 72
     5
 11
12.98622270065574
 21
1.326035636748711
 31
0.0
100
AcDbAttribute
  2
QCDATE
 70
     0
  0
ATTRIB
  5
2F34
330
2F2F
100
AcDbEntity
  8
TXT
100
AcDbText
 10
12.46247696936172
 20
1.06536264024742
 30
0.0
 40
0.12
  1
10/25/00
 41
0.5692888383630662
  7
ROMANS
 72
     5
 11
12.98622270065574
 21
1.06536264024742
 31
0.0
100
AcDbAttribute
  2
MFGDATE
 70
     0
  0
ATTRIB
  5
2F35
330
2F2F
100
AcDbEntity
  8
TXT
100
AcDbText
 10
11.86653925888933
 20
1.06536264024742
 30
0.0
 40
0.12
  1
III
  7
ROMANS
100
AcDbAttribute
  2
MFG
 70
     0
  0
ATTRIB
  5
2F36
330
2F2F
100
AcDbEntity
  8
TXT
100
AcDbText
 10
11.86653925888933
 20
1.847381629751294
 30
0.0
 40
0.12
  1
MP
  7
ROMANS
100
AcDbAttribute
  2
CHK
 70
     0
  0
ATTRIB
  5
2F37
330
2F2F
100
AcDbEntity
  8
TXT
100
AcDbText
 10
11.86653925888933
 20
1.326035636748711
 30
0.0
 40
0.12
  1
MM
  7
ROMANS
100
AcDbAttribute
  2
QC
 70
     0
  0
SEQEND
  5
2F38
330
2F2F
100
AcDbEntity
  8
TXT
  0
HATCH
  5
2F4A
330
211A
100
AcDbEntity
  8
NEWLOGO
 62
     7
100
AcDbHatch
 10
0.0
 20
0.0
 30
0.0
210
0.0
220
0.0
230
1.0
  2
SOLID
 70
     1
 71
     0
 91
        1
 92
        1
 93
        1
 72
     4
 94
        3
 73
     0
 74
     0
 95
       44
 96
       40
 40
0.0
 40
0.0
 40
0.0
 40
0.0
 40
1.0
 40
1.0
 40
1.0
 40
2.0
 40
2.0
 40
2.0
 40
3.0
 40
3.0
 40
3.0
 40
4.0
 40
4.0
 40
4.0
 40
5.0
 40
5.0
 40
5.0
 40
6.0
 40
6.0
 40
6.0
 40
7.0
 40
7.0
 40
7.0
 40
8.0
 40
8.0
 40
8.0
 40
9.0
 40
9.0
 40
9.0
 40
10.0
 40
10.0
 40
10.0
 40
11.0
 40
11.0
 40
11.0
 40
12.0
 40
12.0
 40
12.0
 40
13.0
 40
13.0
 40
13.0
 40
13.0
 10
13.65358138440278
 20
2.042616139327762
 10
13.65358138440278
 20
2.042616139327762
 10
13.67621812463
 20
2.178711616641227
 10
13.67621812463
 20
2.178711616641227
 10
13.67621812463
 20
2.178711616641227
 10
13.75346970969754
 20
2.178711616641227
 10
13.75346970969754
 20
2.178711616641227
 10
13.75346970969754
 20
2.178711616641227
 10
13.82746423820842
 20
2.097797814531306
 10
13.83038711129877
 20
2.094584132819828
 10
13.83368754270063
 20
2.097223097832597
 10
13.93530297546732
 20
2.178711616641227
 10
13.93530297546732
 20
2.178711616641227
 10
13.93530297546732
 20
2.178711616641227
 10
14.12772167504626
 20
2.178511500878213
 10
14.12772167504626
 20
2.178511500878213
 10
14.12772167504626
 20
2.178511500878213
 10
14.18020720930475
 20
2.116481529095018
 10
14.18321584629353
 20
2.112931692333348
 10
14.18662471480835
 20
2.115877238638225
 10
14.25927166574266
 20
2.178511500878213
 10
14.25927166574266
 20
2.178511500878213
 10
14.25927166574266
 20
2.178511500878213
 10
14.37954813985854
 20
2.178511500878213
 10
14.37954813985854
 20
2.178511500878213
 10
14.37954813985854
 20
2.178511500878213
 10
14.31464359878986
 20
2.123496424511857
 10
14.27157040593666
 20
2.086972833281684
 10
14.20722185151991
 20
2.087259698735072
 10
14.14647538083743
 20
2.086368542824894
 10
14.08912003441492
 20
2.084445262757685
 10
14.06373983522971
 20
2.113618789312767
 10
14.02612792970216
 20
2.156848723083798
 10
14.01248851247515
 20
2.172509999571619
 10
14.01248851247515
 20
2.172509999571619
 10
13.99718113529237
 20
2.080345354095707
 10
13.99718113529237
 20
2.080345354095707
 10
13.86305625605904
 20
2.072829676375362
 10
13.74952457036952
 20
2.059443607675915
 10
13.65358138440278
 20
2.042616139327762
 97
        0
 75
     0
 76
     1
 98
        1
 10
13.82664603090151
 20
2.051712534417545
  0
HATCH
  5
2F4B
330
211A
100
AcDbEntity
  8
NEWLOGO
 62
     7
100
AcDbHatch
 10
0.0
 20
0.0
 30
0.0
210
0.0
220
0.0
230
1.0
  2
SOLID
 70
     1
 71
     0
 91
        2
 92
       16
 93
        1
 72
     4
 94
        3
 73
     0
 74
     0
 95
       17
 96
       13
 40
0.0
 40
0.0
 40
0.0
 40
0.0
 40
1.0
 40
1.0
 40
1.0
 40
2.0
 40
2.0
 40
2.0
 40
3.0
 40
3.0
 40
3.0
 40
4.0
 40
4.0
 40
4.0
 40
4.0
 10
13.59798271921029
 20
2.032109568873479
 10
13.59798271921029
 20
2.032109568873479
 10
13.5411064676687
 20
2.178511500878213
 10
13.5411064676687
 20
2.178511500878213
 10
13.5411064676687
 20
2.178511500878213
 10
13.44360868781883
 20
2.178511500878213
 10
13.44360868781883
 20
2.178511500878213
 10
13.44360868781883
 20
2.178511500878213
 10
13.27374392194448
 20
1.924835690393928
 10
13.27374392194448
 20
1.924835690393928
 10
13.34191044852951
 20
1.96107340196265
 10
13.44485275724211
 20
2.000962486862452
 10
13.59798271921029
 20
2.032109568873479
 97
        0
 92
        1
 93
        1
 72
     4
 94
        3
 73
     0
 74
     0
 95
       14
 96
       10
 40
0.0
 40
0.0
 40
0.0
 40
0.0
 40
1.0
 40
1.0
 40
1.0
 40
2.0
 40
2.0
 40
2.0
 40
3.0
 40
3.0
 40
3.0
 40
3.0
 10
13.48032746585234
 20
2.092565230934822
 10
13.48324639577494
 20
2.084302322926959
 10
13.49963321512768
 20
2.037771957754076
 10
13.50245159427281
 20
2.029804787327027
 10
13.49556682339153
 20
2.029804787327027
 10
13.44947612142212
 20
2.029804787327027
 10
13.44032501487989
 20
2.029804787327027
 10
13.44130390627237
 20
2.031352480666603
 10
13.47550004274157
 20
2.084998292033804
 10
13.48032746585234
 20
2.092565230934822
 97
        0
 75
     0
 76
     1
 98
        1
 10
13.82664603090151
 20
2.051712534417545
  0
HATCH
  5
2F4C
330
211A
100
AcDbEntity
  8
NEWLOGO
 62
     7
100
AcDbHatch
 10
0.0
 20
0.0
 30
0.0
210
0.0
220
0.0
230
1.0
  2
SOLID
 70
     1
 71
     0
 91
        1
 92
        1
 93
        1
 72
     4
 94
        3
 73
     0
 74
     0
 95
       26
 96
       22
 40
0.0
 40
0.0
 40
0.0
 40
0.0
 40
1.0
 40
1.0
 40
1.0
 40
2.0
 40
2.0
 40
2.0
 40
3.0
 40
3.0
 40
3.0
 40
4.0
 40
4.0
 40
4.0
 40
5.0
 40
5.0
 40
5.0
 40
6.0
 40
6.0
 40
6.0
 40
7.0
 40
7.0
 40
7.0
 40
7.0
 10
13.74287146059321
 20
2.022638079952036
 10
13.73615526013299
 20
1.982208781071285
 10
13.72660096468892
 20
1.92471345219386
 10
13.72660096468892
 20
1.92471345219386
 10
13.72660096468892
 20
1.92471345219386
 10
13.539683969905
 20
1.92471345219386
 10
13.539683969905
 20
1.92471345219386
 10
13.539683969905
 20
1.92471345219386
 10
13.52236952034044
 20
1.97365013548261
 10
13.51782107634757
 20
1.986522606583382
 10
13.54608570273763
 20
1.992610857580348
 10
13.5764244353611
 20
1.99843097317071
 10
13.60895064029064
 20
2.003884374160867
 10
13.60895064029064
 20
2.003884374160867
 10
13.6356971470992
 20
1.935038636931911
 10
13.6356971470992
 20
1.935038636931911
 10
13.6356971470992
 20
1.935038636931911
 10
13.6481792445933
 20
2.010130351867596
 10
13.6481792445933
 20
2.010130351867596
 10
13.67801325174553
 20
2.014635421015287
 10
13.70953986365193
 20
2.018819121991827
 10
13.74287146059321
 20
2.022638079952036
 97
        0
 75
     0
 76
     1
 98
        1
 10
13.82664603090151
 20
2.051712534417545
  0
TEXT
  5
2F4D
330
211A
100
AcDbEntity
  8
TB-TXT
  6
BYBLOCK
 62
     7
100
AcDbText
 10
14.9153852405884
 20
1.99218461157799
 30
0.0
 40
0.074997
  1
3000 Research Drive
 41
0.9958581065088651
  7
ROMANS
 72
     5
 11
16.11748015486838
 21
1.99218461157799
 31
0.0
100
AcDbText
  0
TEXT
  5
2F4E
330
211A
100
AcDbEntity
  8
TB-TXT
  6
BYBLOCK
 62
     7
100
AcDbText
 10
14.9153852405884
 20
1.86361875441799
 30
0.0
 40
0.074997
  1
Richardson, TX U.S.A. 75082
 41
0.738461709401709
  7
ROMANS
 72
     5
 11
16.1496218691484
 21
1.86361875441799
 31
0.0
100
AcDbText
  0
HATCH
  5
2F4F
330
211A
100
AcDbEntity
  8
NEWLOGO
 62
     7
100
AcDbHatch
 10
0.0
 20
0.0
 30
0.0
210
0.0
220
0.0
230
1.0
  2
SOLID
 70
     1
 71
     0
 91
        1
 92
        1
 93
        1
 72
     4
 94
        3
 73
     0
 74
     0
 95
       35
 96
       31
 40
0.0
 40
0.0
 40
0.0
 40
0.0
 40
1.0
 40
1.0
 40
1.0
 40
2.0
 40
2.0
 40
2.0
 40
3.0
 40
3.0
 40
3.0
 40
4.0
 40
4.0
 40
4.0
 40
5.0
 40
5.0
 40
5.0
 40
6.0
 40
6.0
 40
6.0
 40
7.0
 40
7.0
 40
7.0
 40
8.0
 40
8.0
 40
8.0
 40
9.0
 40
9.0
 40
9.0
 40
10.0
 40
10.0
 40
10.0
 40
10.0
 10
14.24232787394606
 20
2.046348347597598
 10
14.26857951320272
 20
2.016547857371198
 10
14.34947162789005
 20
1.92471345219386
 10
14.34947162789005
 20
1.92471345219386
 10
14.34947162789005
 20
1.92471345219386
 10
14.22893293311918
 20
1.92471345219386
 10
14.22893293311918
 20
1.92471345219386
 10
14.22893293311918
 20
1.92471345219386
 10
14.16827321212708
 20
1.995238978881821
 10
14.16526260355442
 20
1.99871685283216
 10
14.16185373503961
 20
1.995830454043442
 10
14.07822900510559
 20
1.92471345219386
 10
14.07822900510559
 20
1.92471345219386
 10
14.07822900510559
 20
1.92471345219386
 10
13.87869485933233
 20
1.92471345219386
 10
13.87869485933233
 20
1.92471345219386
 10
13.87869485933233
 20
1.92471345219386
 10
13.89075109471006
 20
1.997220420673256
 10
13.8972928099976
 20
2.036571263175981
 10
13.92728257227572
 20
2.038605937731963
 10
13.95842176795126
 20
2.040364590545854
 10
13.99077940245974
 20
2.041790045685364
 10
13.99077940245974
 20
2.041790045685364
 10
13.97357536159202
 20
1.938283863985346
 10
13.97357536159202
 20
1.938283863985346
 10
14.00464358024817
 20
1.964429037712921
 10
14.07236748625391
 20
2.021401896864244
 10
14.1008272994473
 20
2.045356640909946
 10
14.14590164993066
 20
2.046279342162075
 10
14.19302644764098
 20
2.046644085178408
 10
14.24232787394606
 20
2.046348347597598
 97
        0
 75
     0
 76
     1
 98
        1
 10
13.82664603090151
 20
2.051712534417545
  0
TEXT
  5
2F50
330
211A
100
AcDbEntity
  8
NEWLOGO
 62
     7
100
AcDbText
 10
14.35940279780895
 20
1.919946928411969
 30
0.0
 40
0.044483287849256
  1
T
 41
1.40000000000003
  7
ROMANS
 72
     5
 11
14.4038860856582
 21
1.919946928411969
 31
0.0
100
AcDbText
  0
TEXT
  5
2F51
330
211A
100
AcDbEntity
  8
NEWLOGO
 62
     7
100
AcDbText
 10
14.40198398026977
 20
1.919946928411969
 30
0.0
 40
0.044483287849256
  1
M
 41
1.050000000000065
  7
ROMANS
 72
     5
 11
14.44646726811903
 21
1.919946928411969
 31
0.0
100
AcDbText
  0
TEXT
  5
2F52
330
211A
100
AcDbEntity
  8
TB-TXT
  6
BYBLOCK
 62
     7
100
AcDbText
 10
14.9153852405884
 20
2.120751468697989
 30
0.0
 40
0.074997
  1
AMX CORPORATION
 41
1.129465146757671
  7
ROMANS
 72
     5
 11
16.09724256440439
 21
2.120751468697989
 31
0.0
100
AcDbText
  0
HATCH
  5
2F55
330
211A
100
AcDbEntity
  8
SILK
 62
     7
100
AcDbHatch
 10
0.0
 20
0.0
 30
0.0
210
0.0
220
0.0
230
1.0
  2
SOLID
 70
     1
 71
     0
 91
        2
 92
       16
 93
        1
 72
     4
 94
        3
 73
     0
 74
     0
 95
       17
 96
       13
 40
0.0
 40
0.0
 40
0.0
 40
0.0
 40
1.0
 40
1.0
 40
1.0
 40
2.0
 40
2.0
 40
2.0
 40
3.0
 40
3.0
 40
3.0
 40
4.0
 40
4.0
 40
4.0
 40
4.0
 10
14.57926407188151
 20
4.750798318190813
 10
14.57926407188151
 20
4.750798318190813
 10
14.53675358631067
 20
4.860222147106098
 10
14.53675358631067
 20
4.860222147106098
 10
14.53675358631067
 20
4.860222147106098
 10
14.46388173116624
 20
4.860222147106098
 10
14.46388173116624
 20
4.860222147106098
 10
14.46388173116624
 20
4.860222147106098
 10
14.33692129543122
 20
4.670619604938273
 10
14.33692129543122
 20
4.670619604938273
 10
14.38787036584751
 20
4.697704419302942
 10
14.46481157435798
 20
4.727518345539396
 10
14.57926407188151
 20
4.750798318190813
 97
        0
 92
        1
 93
        1
 72
     4
 94
        3
 73
     0
 74
     0
 95
       14
 96
       10
 40
0.0
 40
0.0
 40
0.0
 40
0.0
 40
1.0
 40
1.0
 40
1.0
 40
2.0
 40
2.0
 40
2.0
 40
3.0
 40
3.0
 40
3.0
 40
3.0
 10
14.49132610454642
 20
4.795984129141359
 10
14.49350777308107
 20
4.789808260969307
 10
14.50575562044734
 20
4.755030504635607
 10
14.50786213525334
 20
4.74907567684194
 10
14.50271631524455
 20
4.74907567684194
 10
14.46826717227339
 20
4.74907567684194
 10
14.46142744616492
 20
4.74907567684194
 10
14.46215908981737
 20
4.75023245482215
 10
14.48771798876993
 20
4.79032844265977
 10
14.49132610454642
 20
4.795984129141359
 97
        0
 75
     0
 76
     1
 98
        1
 10
14.75017175564686
 20
4.765449979672006
  0
HATCH
  5
2F56
330
211A
100
AcDbEntity
  8
SILK
 62
     7
100
AcDbHatch
 10
0.0
 20
0.0
 30
0.0
210
0.0
220
0.0
230
1.0
  2
SOLID
 70
     1
 71
     0
 91
        1
 92
        1
 93
        1
 72
     4
 94
        3
 73
     0
 74
     0
 95
       35
 96
       31
 40
0.0
 40
0.0
 40
0.0
 40
0.0
 40
1.0
 40
1.0
 40
1.0
 40
2.0
 40
2.0
 40
2.0
 40
3.0
 40
3.0
 40
3.0
 40
4.0
 40
4.0
 40
4.0
 40
5.0
 40
5.0
 40
5.0
 40
6.0
 40
6.0
 40
6.0
 40
7.0
 40
7.0
 40
7.0
 40
8.0
 40
8.0
 40
8.0
 40
9.0
 40
9.0
 40
9.0
 40
10.0
 40
10.0
 40
10.0
 40
10.0
 10
15.06086095389478
 20
4.761440675608747
 10
15.08048197148267
 20
4.73916717348024
 10
15.14094240938083
 20
4.670528241581875
 10
15.14094240938083
 20
4.670528241581875
 10
15.14094240938083
 20
4.670528241581875
 10
15.0508492983565
 20
4.670528241581875
 10
15.0508492983565
 20
4.670528241581875
 10
15.0508492983565
 20
4.670528241581875
 10
15.00551096954486
 20
4.723240477416402
 10
15.00326077849291
 20
4.725839912266199
 10
15.00071291973141
 20
4.72368255817317
 10
14.93821006873699
 20
4.670528241581875
 10
14.93821006873699
 20
4.670528241581875
 10
14.93821006873699
 20
4.670528241581875
 10
14.78907412544121
 20
4.670528241581875
 10
14.78907412544121
 20
4.670528241581875
 10
14.78907412544121
 20
4.670528241581875
 10
14.79808520486667
 20
4.724721447951575
 10
14.80297461803653
 20
4.754133080699368
 10
14.8253895860072
 20
4.75565383850265
 10
14.84866366424853
 20
4.756968291952775
 10
14.8728484288488
 20
4.758033706576586
 10
14.8728484288488
 20
4.758033706576586
 10
14.85998977323693
 20
4.680671047744661
 10
14.85998977323693
 20
4.680671047744661
 10
14.88321080178744
 20
4.700212490796342
 10
14.93382904843741
 20
4.742795182890784
 10
14.95510050085058
 20
4.760699453539899
 10
14.98879000172137
 20
4.761389099520458
 10
15.02401204921562
 20
4.761661715987132
 10
15.06086095389478
 20
4.761440675608747
 97
        0
 75
     0
 76
     1
 98
        1
 10
14.75017175564686
 20
4.765449979672006
  0
HATCH
  5
2F57
330
211A
100
AcDbEntity
  8
SILK
 62
     7
100
AcDbHatch
 10
0.0
 20
0.0
 30
0.0
210
0.0
220
0.0
230
1.0
  2
SOLID
 70
     1
 71
     0
 91
        1
 92
        1
 93
        1
 72
     4
 94
        3
 73
     0
 74
     0
 95
       44
 96
       40
 40
0.0
 40
0.0
 40
0.0
 40
0.0
 40
1.0
 40
1.0
 40
1.0
 40
2.0
 40
2.0
 40
2.0
 40
3.0
 40
3.0
 40
3.0
 40
4.0
 40
4.0
 40
4.0
 40
5.0
 40
5.0
 40
5.0
 40
6.0
 40
6.0
 40
6.0
 40
7.0
 40
7.0
 40
7.0
 40
8.0
 40
8.0
 40
8.0
 40
9.0
 40
9.0
 40
9.0
 40
10.0
 40
10.0
 40
10.0
 40
11.0
 40
11.0
 40
11.0
 40
12.0
 40
12.0
 40
12.0
 40
13.0
 40
13.0
 40
13.0
 40
13.0
 10
14.62081966301772
 20
4.758651146033541
 10
14.62081966301772
 20
4.758651146033541
 10
14.63773883038051
 20
4.860371717762136
 10
14.63773883038051
 20
4.860371717762136
 10
14.63773883038051
 20
4.860371717762136
 10
14.69547826122075
 20
4.860371717762136
 10
14.69547826122075
 20
4.860371717762136
 10
14.69547826122075
 20
4.860371717762136
 10
14.75078330069372
 20
4.799895070236237
 10
14.75296791643342
 20
4.797493098124462
 10
14.75543472705619
 20
4.79946551510091
 10
14.83138420106898
 20
4.860371717762136
 10
14.83138420106898
 20
4.860371717762136
 10
14.83138420106898
 20
4.860371717762136
 10
14.97520191286083
 20
4.860222147106098
 10
14.97520191286083
 20
4.860222147106098
 10
14.97520191286083
 20
4.860222147106098
 10
15.01443068561393
 20
4.813859664541284
 10
15.01667940306336
 20
4.811206443199415
 10
15.01922726182486
 20
4.81340800536812
 10
15.07352509397366
 20
4.860222147106098
 10
15.07352509397366
 20
4.860222147106098
 10
15.07352509397366
 20
4.860222147106098
 10
15.1634222158625
 20
4.860222147106098
 10
15.1634222158625
 20
4.860222147106098
 10
15.1634222158625
 20
4.860222147106098
 10
15.11491122081979
 20
4.819102742316557
 10
15.0827174265094
 20
4.791804255586116
 10
15.03462198737806
 20
4.792018664753149
 10
14.98921882005543
 20
4.79135259641295
 10
14.94635024907161
 20
4.789915097152192
 10
14.92738056379868
 20
4.811719993678527
 10
14.89926864847579
 20
4.844030939389458
 10
14.88907426622471
 20
4.855736501027422
 10
14.88907426622471
 20
4.855736501027422
 10
14.87763321623955
 20
4.786850740706528
 10
14.87763321623955
 20
4.786850740706528
 10
14.77738551023225
 20
4.781233367890525
 10
14.6925295825731
 20
4.771228343563597
 10
14.62081966301772
 20
4.758651146033541
 97
        0
 75
     0
 76
     1
 98
        1
 10
14.75017175564686
 20
4.765449979672006
  0
HATCH
  5
2F58
330
211A
100
AcDbEntity
  8
SILK
 62
     7
100
AcDbHatch
 10
0.0
 20
0.0
 30
0.0
210
0.0
220
0.0
230
1.0
  2
SOLID
 70
     1
 71
     0
 91
        1
 92
        1
 93
        1
 72
     4
 94
        3
 73
     0
 74
     0
 95
       26
 96
       22
 40
0.0
 40
0.0
 40
0.0
 40
0.0
 40
1.0
 40
1.0
 40
1.0
 40
2.0
 40
2.0
 40
2.0
 40
3.0
 40
3.0
 40
3.0
 40
4.0
 40
4.0
 40
4.0
 40
5.0
 40
5.0
 40
5.0
 40
6.0
 40
6.0
 40
6.0
 40
7.0
 40
7.0
 40
7.0
 40
7.0
 10
14.68755691086072
 20
4.743719131672429
 10
14.68253708386762
 20
4.713501438344795
 10
14.67539600604329
 20
4.670528241581875
 10
14.67539600604329
 20
4.670528241581875
 10
14.67539600604329
 20
4.670528241581875
 10
14.53569038209064
 20
4.670528241581875
 10
14.53569038209064
 20
4.670528241581875
 10
14.53569038209064
 20
4.670528241581875
 10
14.52274920473751
 20
4.707104529794358
 10
14.51934960371796
 20
4.716725680664159
 10
14.5404751694814
 20
4.721276165253827
 10
14.56315096509857
 20
4.725626239900426
 10
14.58746172271451
 20
4.729702224477831
 10
14.58746172271451
 20
4.729702224477831
 10
14.60745261453557
 20
4.678245497992525
 10
14.60745261453557
 20
4.678245497992525
 10
14.60745261453557
 20
4.678245497992525
 10
14.61678199210591
 20
4.734370597269304
 10
14.61678199210591
 20
4.734370597269304
 10
14.6390805454773
 20
4.737737779033356
 10
14.66264418661431
 20
4.74086476358623
 10
14.68755691086072
 20
4.743719131672429
 97
        0
 75
     0
 76
     1
 98
        1
 10
14.75017175564686
 20
4.765449979672006
  0
INSERT
  5
2FB3
330
211A
100
AcDbEntity
  8
0
 62
     7
100
AcDbBlockReference
 66
     1
  2
RELEASE
 10
16.50000000000068
 20
9.453200000000439
 30
0.0
  0
ATTRIB
  5
2FB4
330
2FB3
100
AcDbEntity
  8
TB-TXT
100
AcDbText
 10
11.56571384897767
 20
9.278200000000438
 30
0.0
 40
0.1
  1
C
  7
ROMANS
 72
     4
 11
11.61571384897767
 21
9.328200000000439
 31
0.0
100
AcDbAttribute
  2
REV
 70
     0
  0
ATTRIB
  5
2FB5
330
2FB3
100
AcDbEntity
  8
TXT
100
AcDbText
 10
11.92943623616825
 20
9.278200000000438
 30
0.0
 40
0.1
  1
ECN 2631-A, AMX LOGO
  7
ROMANS
 11
11.92943623616825
 21
9.328200000000439
 31
0.0
100
AcDbAttribute
  2
DESC
 70
     0
 74
     2
  0
ATTRIB
  5
2FB6
330
2FB3
100
AcDbEntity
  8
TB-TXT
100
AcDbText
 10
14.71435992422997
 20
9.285342857143296
 30
0.0
 40
0.1
  1
8/14/01
  7
ROMANS
 72
     4
 11
15.0429313528014
 21
9.328200000000439
 31
0.0
100
AcDbAttribute
  2
DATE
 70
     0
  0
ATTRIB
  5
2FB7
330
2FB3
100
AcDbEntity
  8
TB-TXT
100
AcDbText
 10
15.99021567640104
 20
9.328200000000439
 30
0.0
 40
0.1
  1

  7
ROMANS
 72
     4
 11
15.99021567640104
 21
9.328200000000439
 31
0.0
100
AcDbAttribute
  2
APPR
 70
     0
  0
SEQEND
  5
2FB8
330
2FB3
100
AcDbEntity
  8
0
  0
ENDSEC
  0
SECTION
  2
OBJECTS
  0
DICTIONARY
  5
210F
330
0
100
AcDbDictionary
  3
ACAD_GROUP
350
2110
  3
ACAD_MLINESTYLE
350
211D
  3
ACDBVARIABLEDICTIONARY
350
214F
  3
ACAD_PLOTSTYLENAME
350
2FBC
  3
ACAD_LAYOUT
350
2FBE
  3
ACAD_PLOTSETTINGS
350
2FBF
  3
ACDBHEADERROUNDTRIPXREC
350
2FC9
  0
DICTIONARY
  5
2FEC
330
211A
100
AcDbDictionary
280
     1
  3
ACAD_LAYOUTSELFREF
360
2FED
  0
DICTIONARY
  5
2FEA
330
2117
100
AcDbDictionary
280
     1
  3
ACAD_LAYOUTSELFREF
360
2FEB
  0
DICTIONARY
  5
2110
102
{ACAD_REACTORS
330
210F
102
}
330
210F
100
AcDbDictionary
  0
DICTIONARY
  5
211D
102
{ACAD_REACTORS
330
210F
102
}
330
210F
100
AcDbDictionary
  3
STANDARD
350
211E
  0
DICTIONARY
  5
214F
102
{ACAD_REACTORS
330
210F
102
}
330
210F
100
AcDbDictionary
  3
DIMADEC
350
2150
  0
ACDBDICTIONARYWDFLT
  5
2FBC
102
{ACAD_REACTORS
330
210F
102
}
330
210F
100
AcDbDictionary
281
     1
  3
Normal
350
2FBD
100
AcDbDictionaryWithDefault
340
2FBD
  0
DICTIONARY
  5
2FBE
102
{ACAD_REACTORS
330
210F
102
}
330
210F
100
AcDbDictionary
  0
DICTIONARY
  5
2FBF
102
{ACAD_REACTORS
330
210F
102
}
330
210F
100
AcDbDictionary
  0
DICTIONARY
  5
2FC9
102
{ACAD_REACTORS
330
210F
102
}
330
210F
100
AcDbDictionary
  3
TSTACKALIGN
350
2FCA
  3
TSTACKSIZE
350
2FCB
  3
HYPERLINKBASE
350
2FCC
  3
STYLESHEET
350
2FCD
  3
LAYOUTDICT
350
2FCE
  3
PLOTSETDICT
350
2FCF
  3
PLOTSTYLNAMDICT
350
2FD0
  3
LWETCUNION
350
2FD1
  3
INSUNITS
350
2FD2
  3
CEPSNTYPE
350
2FD3
  3
FINGERPRINTGUID
350
2FD4
  3
VERSIONGUID
350
2FD5
  3
PSVPSCALE
350
2FD6
  3
DIMSTYLEDATA
350
2FD7
  3
PUCSORTHOREF
350
2FD8
  3
PUCSORTHOVIEW
350
2FD9
  3
PUCSBASE
350
2FDA
  3
PUCSORGTOP
350
2FDB
  3
PUCSORGBOTTOM
350
2FDC
  3
PUCSORGLEFT
350
2FDD
  3
PUCSORGRIGHT
350
2FDE
  3
PUCSORGFRONT
350
2FDF
  3
PUCSORGBACK
350
2FE0
  3
UCSORTHOREF
350
2FE1
  3
UCSORTHOVIEW
350
2FE2
  3
UCSBASE
350
2FE3
  3
UCSORGTOP
350
2FE4
  3
UCSORGBOTTOM
350
2FE5
  3
UCSORGLEFT
350
2FE6
  3
UCSORGRIGHT
350
2FE7
  3
UCSORGFRONT
350
2FE8
  3
UCSORGBACK
350
2FE9
  0
XRECORD
  5
2FED
102
{ACAD_REACTORS
330
2FEC
102
}
330
2FEC
100
AcDbXrecord
340
211A
  0
XRECORD
  5
2FEB
102
{ACAD_REACTORS
330
2FEA
102
}
330
2FEA
100
AcDbXrecord
340
2117
  0
MLINESTYLE
  5
211E
102
{ACAD_REACTORS
330
211D
102
}
330
211D
100
AcDbMlineStyle
  2
STANDARD
 70
     0
  3

 62
   256
 51
90.0
 52
90.0
 71
     2
 49
0.5
 62
   256
  6
BYLAYER
 49
-0.5
 62
   256
  6
BYLAYER
  0
DICTIONARYVAR
  5
2150
102
{ACAD_REACTORS
330
214F
102
}
330
214F
100
DictionaryVariables
280
     0
  1
1
  0
ACDBPLACEHOLDER
  5
2FBD
102
{ACAD_REACTORS
330
2FBC
102
}
330
2FBC
100
AcDbPlaceHolder
280
     0
  0
XRECORD
  5
2FCA
102
{ACAD_REACTORS
330
2FC9
102
}
330
2FC9
100
AcDbXrecord
 90
        1
  0
XRECORD
  5
2FCB
102
{ACAD_REACTORS
330
2FC9
102
}
330
2FC9
100
AcDbXrecord
 90
       70
  0
XRECORD
  5
2FCC
102
{ACAD_REACTORS
330
2FC9
102
}
330
2FC9
100
AcDbXrecord
  1

  0
XRECORD
  5
2FCD
102
{ACAD_REACTORS
330
2FC9
102
}
330
2FC9
100
AcDbXrecord
  1

  0
XRECORD
  5
2FCE
102
{ACAD_REACTORS
330
2FC9
102
}
330
2FC9
100
AcDbXrecord
340
2FBE
  0
XRECORD
  5
2FCF
102
{ACAD_REACTORS
330
2FC9
102
}
330
2FC9
100
AcDbXrecord
340
2FBF
  0
XRECORD
  5
2FD0
102
{ACAD_REACTORS
330
2FC9
102
}
330
2FC9
100
AcDbXrecord
340
2FBC
  0
XRECORD
  5
2FD1
102
{ACAD_REACTORS
330
2FC9
102
}
330
2FC9
100
AcDbXrecord
 90
    14877
  0
XRECORD
  5
2FD2
102
{ACAD_REACTORS
330
2FC9
102
}
330
2FC9
100
AcDbXrecord
 90
        0
  0
XRECORD
  5
2FD3
102
{ACAD_REACTORS
330
2FC9
102
}
330
2FC9
100
AcDbXrecord
 90
        0
  0
XRECORD
  5
2FD4
102
{ACAD_REACTORS
330
2FC9
102
}
330
2FC9
100
AcDbXrecord
  1
{830469A3-9523-4ADC-AF81-241771552BA7}
  0
XRECORD
  5
2FD5
102
{ACAD_REACTORS
330
2FC9
102
}
330
2FC9
100
AcDbXrecord
  1
{631C5FA4-EE0E-4E34-87EC-8E529B2DDFA5}
  0
XRECORD
  5
2FD6
102
{ACAD_REACTORS
330
2FC9
102
}
330
2FC9
100
AcDbXrecord
 40
0.0
  0
XRECORD
  5
2FD7
102
{ACAD_REACTORS
330
2FC9
102
}
330
2FC9
100
AcDbXrecord
1000
DSTYLE
1002
{
1070
   279
 70
     2
1002
}
  0
XRECORD
  5
2FD8
102
{ACAD_REACTORS
330
2FC9
102
}
330
2FC9
100
AcDbXrecord
340
0
  0
XRECORD
  5
2FD9
102
{ACAD_REACTORS
330
2FC9
102
}
330
2FC9
100
AcDbXrecord
 70
     0
  0
XRECORD
  5
2FDA
102
{ACAD_REACTORS
330
2FC9
102
}
330
2FC9
100
AcDbXrecord
340
0
  0
XRECORD
  5
2FDB
102
{ACAD_REACTORS
330
2FC9
102
}
330
2FC9
100
AcDbXrecord
 10
0.0
 20
0.0
 30
0.0
  0
XRECORD
  5
2FDC
102
{ACAD_REACTORS
330
2FC9
102
}
330
2FC9
100
AcDbXrecord
 10
0.0
 20
0.0
 30
0.0
  0
XRECORD
  5
2FDD
102
{ACAD_REACTORS
330
2FC9
102
}
330
2FC9
100
AcDbXrecord
 10
0.0
 20
0.0
 30
0.0
  0
XRECORD
  5
2FDE
102
{ACAD_REACTORS
330
2FC9
102
}
330
2FC9
100
AcDbXrecord
 10
0.0
 20
0.0
 30
0.0
  0
XRECORD
  5
2FDF
102
{ACAD_REACTORS
330
2FC9
102
}
330
2FC9
100
AcDbXrecord
 10
0.0
 20
0.0
 30
0.0
  0
XRECORD
  5
2FE0
102
{ACAD_REACTORS
330
2FC9
102
}
330
2FC9
100
AcDbXrecord
 10
0.0
 20
0.0
 30
0.0
  0
XRECORD
  5
2FE1
102
{ACAD_REACTORS
330
2FC9
102
}
330
2FC9
100
AcDbXrecord
340
0
  0
XRECORD
  5
2FE2
102
{ACAD_REACTORS
330
2FC9
102
}
330
2FC9
100
AcDbXrecord
 70
     0
  0
XRECORD
  5
2FE3
102
{ACAD_REACTORS
330
2FC9
102
}
330
2FC9
100
AcDbXrecord
340
0
  0
XRECORD
  5
2FE4
102
{ACAD_REACTORS
330
2FC9
102
}
330
2FC9
100
AcDbXrecord
 10
0.0
 20
0.0
 30
0.0
  0
XRECORD
  5
2FE5
102
{ACAD_REACTORS
330
2FC9
102
}
330
2FC9
100
AcDbXrecord
 10
0.0
 20
0.0
 30
0.0
  0
XRECORD
  5
2FE6
102
{ACAD_REACTORS
330
2FC9
102
}
330
2FC9
100
AcDbXrecord
 10
0.0
 20
0.0
 30
0.0
  0
XRECORD
  5
2FE7
102
{ACAD_REACTORS
330
2FC9
102
}
330
2FC9
100
AcDbXrecord
 10
0.0
 20
0.0
 30
0.0
  0
XRECORD
  5
2FE8
102
{ACAD_REACTORS
330
2FC9
102
}
330
2FC9
100
AcDbXrecord
 10
0.0
 20
0.0
 30
0.0
  0
XRECORD
  5
2FE9
102
{ACAD_REACTORS
330
2FC9
102
}
330
2FC9
100
AcDbXrecord
 10
0.0
 20
0.0
 30
0.0
  0
ENDSEC
  0
EOF
