  0
SECTION
  2
HEADER
  9
$ACADVER
  1
AC1014
  9
$ACADMAINTVER
 70
     9
  9
$DWGCODEPAGE
  3
ANSI_1252
  9
$INSBASE
 10
0.0
 20
0.0
 30
0.0
  9
$EXTMIN
 10
-0.0020751003151815
 20
-0.0013427119686398
 30
-0.0000000349181948
  9
$EXTMAX
 10
34.00207541697452
 20
22.00134291686587
 30
0.0000000814935746
  9
$LIMMIN
 10
0.0
 20
0.0
  9
$LIMMAX
 10
34.0
 20
22.0
  9
$ORTHOMODE
 70
     1
  9
$REGENMODE
 70
     1
  9
$FILLMODE
 70
     1
  9
$QTEXTMODE
 70
     0
  9
$MIRRTEXT
 70
     1
  9
$DRAGMODE
 70
     2
  9
$LTSCALE
 40
1.0
  9
$OSMODE
 70
    37
  9
$ATTMODE
 70
     1
  9
$TEXTSIZE
 40
0.156
  9
$TRACEWID
 40
0.05
  9
$TEXTSTYLE
  7
STANDARD
  9
$CLAYER
  8
DIM
  9
$CELTYPE
  6
BYLAYER
  9
$CECOLOR
 62
   256
  9
$CELTSCALE
 40
1.0
  9
$DELOBJ
 70
     1
  9
$DISPSILH
 70
     0
  9
$DIMSCALE
 40
1.0
  9
$DIMASZ
 40
0.18
  9
$DIMEXO
 40
0.0625
  9
$DIMDLI
 40
0.38
  9
$DIMRND
 40
0.0
  9
$DIMDLE
 40
0.0
  9
$DIMEXE
 40
0.18
  9
$DIMTP
 40
0.0
  9
$DIMTM
 40
0.0
  9
$DIMTXT
 40
0.18
  9
$DIMCEN
 40
0.09
  9
$DIMTSZ
 40
0.0
  9
$DIMTOL
 70
     0
  9
$DIMLIM
 70
     0
  9
$DIMTIH
 70
     1
  9
$DIMTOH
 70
     1
  9
$DIMSE1
 70
     0
  9
$DIMSE2
 70
     0
  9
$DIMTAD
 70
     0
  9
$DIMZIN
 70
     0
  9
$DIMBLK
  1

  9
$DIMASO
 70
     1
  9
$DIMSHO
 70
     1
  9
$DIMPOST
  1

  9
$DIMAPOST
  1

  9
$DIMALT
 70
     1
  9
$DIMALTD
 70
     2
  9
$DIMALTF
 40
25.4
  9
$DIMLFAC
 40
1.0
  9
$DIMTOFL
 70
     0
  9
$DIMTVP
 40
0.0
  9
$DIMTIX
 70
     0
  9
$DIMSOXD
 70
     0
  9
$DIMSAH
 70
     0
  9
$DIMBLK1
  1

  9
$DIMBLK2
  1

  9
$DIMSTYLE
  2
STANDARD
  9
$DIMCLRD
 70
     0
  9
$DIMCLRE
 70
     0
  9
$DIMCLRT
 70
     0
  9
$DIMTFAC
 40
1.0
  9
$DIMGAP
 40
0.09
  9
$DIMJUST
 70
     0
  9
$DIMSD1
 70
     0
  9
$DIMSD2
 70
     0
  9
$DIMTOLJ
 70
     1
  9
$DIMTZIN
 70
     0
  9
$DIMALTZ
 70
     0
  9
$DIMALTTZ
 70
     0
  9
$DIMFIT
 70
     3
  9
$DIMUPT
 70
     0
  9
$DIMUNIT
 70
     2
  9
$DIMDEC
 70
     4
  9
$DIMTDEC
 70
     4
  9
$DIMALTU
 70
     2
  9
$DIMALTTD
 70
     2
  9
$DIMTXSTY
  7
STANDARD
  9
$DIMAUNIT
 70
     0
  9
$LUNITS
 70
     2
  9
$LUPREC
 70
     3
  9
$SKETCHINC
 40
0.1
  9
$FILLETRAD
 40
0.5
  9
$AUNITS
 70
     0
  9
$AUPREC
 70
     1
  9
$MENU
  1
.
  9
$ELEVATION
 40
0.0
  9
$PELEVATION
 40
0.0
  9
$THICKNESS
 40
0.0
  9
$LIMCHECK
 70
     0
  9
$BLIPMODE
 70
     0
  9
$CHAMFERA
 40
0.5
  9
$CHAMFERB
 40
0.5
  9
$CHAMFERC
 40
1.0
  9
$CHAMFERD
 40
0.0
  9
$SKPOLY
 70
     0
  9
$TDCREATE
 40
2456374.851431574
  9
$TDUPDATE
 40
2456377.417757037
  9
$TDINDWG
 40
0.0264808102
  9
$TDUSRTIMER
 40
0.0264808102
  9
$USRTIMER
 70
     1
  9
$ANGBASE
 50
0.0
  9
$ANGDIR
 70
     0
  9
$PDMODE
 70
     0
  9
$PDSIZE
 40
-1.0
  9
$PLINEWID
 40
0.0
  9
$COORDS
 70
     1
  9
$SPLFRAME
 70
     0
  9
$SPLINETYPE
 70
     6
  9
$SPLINESEGS
 70
     8
  9
$ATTDIA
 70
     0
  9
$ATTREQ
 70
     1
  9
$HANDLING
 70
 22529
  9
$HANDSEED
  5
7FA
  9
$SURFTAB1
 70
     6
  9
$SURFTAB2
 70
     6
  9
$SURFTYPE
 70
     6
  9
$SURFU
 70
     6
  9
$SURFV
 70
     6
  9
$UCSNAME
  2

  9
$UCSORG
 10
0.0
 20
0.0
 30
0.0
  9
$UCSXDIR
 10
1.0
 20
0.0
 30
0.0
  9
$UCSYDIR
 10
0.0
 20
1.0
 30
0.0
  9
$PUCSNAME
  2

  9
$PUCSORG
 10
0.0
 20
0.0
 30
0.0
  9
$PUCSXDIR
 10
1.0
 20
0.0
 30
0.0
  9
$PUCSYDIR
 10
0.0
 20
1.0
 30
0.0
  9
$USERI1
 70
     0
  9
$USERI2
 70
     0
  9
$USERI3
 70
     0
  9
$USERI4
 70
     0
  9
$USERI5
 70
     0
  9
$USERR1
 40
0.0
  9
$USERR2
 40
0.0
  9
$USERR3
 40
0.0
  9
$USERR4
 40
0.0
  9
$USERR5
 40
0.0
  9
$WORLDVIEW
 70
     1
  9
$SHADEDGE
 70
     3
  9
$SHADEDIF
 70
    70
  9
$TILEMODE
 70
     1
  9
$MAXACTVP
 70
    64
  9
$PINSBASE
 10
0.0
 20
0.0
 30
0.0
  9
$PLIMCHECK
 70
     0
  9
$PEXTMIN
 10
1.000000000000000E+20
 20
1.000000000000000E+20
 30
1.000000000000000E+20
  9
$PEXTMAX
 10
-1.000000000000000E+20
 20
-1.000000000000000E+20
 30
-1.000000000000000E+20
  9
$PLIMMIN
 10
0.0
 20
0.0
  9
$PLIMMAX
 10
12.0
 20
9.0
  9
$UNITMODE
 70
     0
  9
$VISRETAIN
 70
     1
  9
$PLINEGEN
 70
     0
  9
$PSLTSCALE
 70
     1
  9
$TREEDEPTH
 70
  3020
  9
$PICKSTYLE
 70
     1
  9
$CMLSTYLE
  2
STANDARD
  9
$CMLJUST
 70
     0
  9
$CMLSCALE
 40
1.0
  9
$PROXYGRAPHICS
 70
     1
  9
$MEASUREMENT
 70
     0
  0
ENDSEC
  0
SECTION
  2
CLASSES
  0
CLASS
  1
ACDBDICTIONARYWDFLT
  2
AcDbDictionaryWithDefault
  3
AutoCAD 2000
 90
        0
280
     0
281
     0
  0
CLASS
  1
VISUALSTYLE
  2
AcDbVisualStyle
  3
ObjectDBX Classes
 90
     4095
280
     0
281
     0
  0
CLASS
  1
MATERIAL
  2
AcDbMaterial
  3
ObjectDBX Classes
 90
     1153
280
     0
281
     0
  0
CLASS
  1
SCALE
  2
AcDbScale
  3
ObjectDBX Classes
 90
     1153
280
     0
281
     0
  0
CLASS
  1
DICTIONARYVAR
  2
AcDbDictionaryVar
  3
AutoCAD 2000
 90
        0
280
     0
281
     0
  0
CLASS
  1
XRECORD
  2
AcDbXrecord
  3
AutoCAD 2000
 90
        0
280
     0
281
     0
  0
CLASS
  1
LWPOLYLINE
  2
AcDbPolyline
  3
AutoCAD 2000
 90
        0
280
     0
281
     1
  0
CLASS
  1
HATCH
  2
AcDbHatch
  3
AutoCAD 2000
 90
        0
280
     0
281
     1
  0
CLASS
  1
ACDBPLACEHOLDER
  2
AcDbPlaceHolder
  3
AutoCAD 2000
 90
        0
280
     0
281
     0
  0
CLASS
  1
LAYOUT
  2
AcDbLayout
  3
AutoCAD 2000
 90
        0
280
     0
281
     0
  0
CLASS
  1
LONG_TRANSACTION
  2
AcDbLongTransaction
  3
AutoCAD 2000
 90
        0
280
     0
281
     0
  0
CLASS
  1
LWPOLYLINE
  2
AcDbPolyline
  3
AutoCAD 2000
 90
        0
280
     0
281
     1
  0
CLASS
  1
HATCH
  2
AcDbHatch
  3
AutoCAD 2000
 90
        0
280
     0
281
     1
  0
CLASS
  1
XRECORD
  2
AcDbXrecord
  3
AutoCAD 2000
 90
        0
280
     0
281
     0
  0
ENDSEC
  0
SECTION
  2
TABLES
  0
TABLE
  2
VPORT
  5
8
330
0
100
AcDbSymbolTable
 70
     4
  0
VPORT
  5
7D5
330
8
100
AcDbSymbolTableRecord
100
AcDbViewportTableRecord
  2
*ACTIVE
 70
     0
 10
0.0
 20
0.0
 11
1.0
 21
1.0
 12
17.00000015832967
 22
11.00000010244861
 13
0.0
 23
0.0
 14
0.5
 24
0.5
 15
0.5
 25
0.5
 16
0.0
 26
0.0
 36
1.0
 17
0.0
 27
0.0
 37
0.0
 40
27.94632935880448
 41
1.225475841874084
 42
50.0
 43
0.0
 44
0.0
 50
0.0
 51
0.0
 71
     0
 72
  2000
 73
     1
 74
     2
 75
     0
 76
     0
 77
     0
 78
     0
  0
ENDTAB
  0
TABLE
  2
LTYPE
  5
5
330
0
100
AcDbSymbolTable
 70
     6
  0
LTYPE
  5
14
330
5
100
AcDbSymbolTableRecord
100
AcDbLinetypeTableRecord
  2
BYBLOCK
 70
     0
  3

 72
    65
 73
     0
 40
0.0
  0
LTYPE
  5
15
330
5
100
AcDbSymbolTableRecord
100
AcDbLinetypeTableRecord
  2
BYLAYER
 70
     0
  3

 72
    65
 73
     0
 40
0.0
  0
LTYPE
  5
16
330
5
100
AcDbSymbolTableRecord
100
AcDbLinetypeTableRecord
  2
CONTINUOUS
 70
     0
  3
Solid line
 72
    65
 73
     0
 40
0.0
  0
LTYPE
  5
3F
330
5
100
AcDbSymbolTableRecord
100
AcDbLinetypeTableRecord
  2
HIDDEN
 70
     0
  3
Hidden __ __ __ __ __ __ __ __ __ __ __ __ __ __
 72
    65
 73
     2
 40
0.075
 49
0.05
 74
     0
 49
-0.025
 74
     0
  0
LTYPE
  5
40
330
5
100
AcDbSymbolTableRecord
100
AcDbLinetypeTableRecord
  2
PHANTOM
 70
     0
  3
Phantom ______  __  __  ______  __  __  ______
 72
    65
 73
     6
 40
0.5
 49
0.25
 74
     0
 49
-0.05
 74
     0
 49
0.05
 74
     0
 49
-0.05
 74
     0
 49
0.05
 74
     0
 49
-0.05
 74
     0
  0
LTYPE
  5
41
330
5
100
AcDbSymbolTableRecord
100
AcDbLinetypeTableRecord
  2
CENTER
 70
     0
  3
Center ____ _ ____ _ ____ _ ____ _ ____ _ ____
 72
    65
 73
     4
 40
0.4
 49
0.25
 74
     0
 49
-0.05
 74
     0
 49
0.05
 74
     0
 49
-0.05
 74
     0
  0
LTYPE
  5
42
330
5
100
AcDbSymbolTableRecord
100
AcDbLinetypeTableRecord
  2
CENTERX2
 70
     0
  3
Center (2x) ________  __  ________  __  _____
 72
    65
 73
     4
 40
0.8
 49
0.5
 74
     0
 49
-0.1
 74
     0
 49
0.1
 74
     0
 49
-0.1
 74
     0
  0
LTYPE
  5
43
330
5
100
AcDbSymbolTableRecord
100
AcDbLinetypeTableRecord
  2
DOT2
 70
     0
  3
Dot (.5x) ........................................
 72
    65
 73
     2
 40
0.025
 49
0.0
 74
     0
 49
-0.025
 74
     0
  0
ENDTAB
  0
TABLE
  2
LAYER
  5
2
330
0
100
AcDbSymbolTable
 70
     9
  0
LAYER
  5
10
330
2
100
AcDbSymbolTableRecord
100
AcDbLayerTableRecord
  2
0
 70
     0
 62
     7
  6
CONTINUOUS
  0
LAYER
  5
44
330
2
100
AcDbSymbolTableRecord
100
AcDbLayerTableRecord
  2
SLD-0
 70
     0
 62
     9
  6
CONTINUOUS
  0
LAYER
  5
45
330
2
100
AcDbSymbolTableRecord
100
AcDbLayerTableRecord
  2
FORMAT
 70
     0
 62
     7
  6
CONTINUOUS
  0
LAYER
  5
46
330
2
100
AcDbSymbolTableRecord
100
AcDbLayerTableRecord
  2
TXT
 70
     0
 62
     3
  6
CONTINUOUS
  0
LAYER
  5
47
330
2
100
AcDbSymbolTableRecord
100
AcDbLayerTableRecord
  2
TB-TXT
 70
     0
 62
     3
  6
CONTINUOUS
  0
LAYER
  5
390
330
2
100
AcDbSymbolTableRecord
100
AcDbLayerTableRecord
  2
PART
 70
     0
 62
     4
  6
CONTINUOUS
  0
LAYER
  5
391
330
2
100
AcDbSymbolTableRecord
100
AcDbLayerTableRecord
  2
DIM
 70
     0
 62
     1
  6
CONTINUOUS
  0
LAYER
  5
392
330
2
100
AcDbSymbolTableRecord
100
AcDbLayerTableRecord
  2
SILK
 70
     0
 62
     7
  6
CONTINUOUS
  0
LAYER
  5
393
330
2
100
AcDbSymbolTableRecord
100
AcDbLayerTableRecord
  2
DEFPOINTS
 70
     0
 62
     7
  6
CONTINUOUS
  0
ENDTAB
  0
TABLE
  2
STYLE
  5
3
330
0
100
AcDbSymbolTable
 70
    10
  0
STYLE
  5
11
330
3
100
AcDbSymbolTableRecord
100
AcDbTextStyleTableRecord
  2
STANDARD
 70
     0
 40
0.0
 41
1.0
 50
0.0
 71
     0
 42
0.156
  3
txt
  4

  0
STYLE
  5
E4
330
3
100
AcDbSymbolTableRecord
100
AcDbTextStyleTableRecord
  2
SLDTEXTSTYLE0
 70
     0
 40
0.0
 41
0.6381856540084389
 50
0.0
 71
     0
 42
0.2
  3
TXT
  4

  0
STYLE
  5
119
330
3
100
AcDbSymbolTableRecord
100
AcDbTextStyleTableRecord
  2
SLDTEXTSTYLE1
 70
     0
 40
0.0
 41
0.6457397730096305
 50
0.0
 71
     0
 42
0.2
  3
TXT
  4

  0
STYLE
  5
11C
330
3
100
AcDbSymbolTableRecord
100
AcDbTextStyleTableRecord
  2
SLDTEXTSTYLE2
 70
     0
 40
0.0
 41
0.6502377399469584
 50
0.0
 71
     0
 42
0.2
  3
TXT
  4

  0
STYLE
  5
125
330
3
100
AcDbSymbolTableRecord
100
AcDbTextStyleTableRecord
  2
SLDTEXTSTYLE3
 70
     0
 40
0.0
 41
0.75
 50
0.0
 71
     0
 42
0.2
  3
TXT
  4

  0
STYLE
  5
12B
330
3
100
AcDbSymbolTableRecord
100
AcDbTextStyleTableRecord
  2
SLDTEXTSTYLE4
 70
     0
 40
0.0
 41
0.57
 50
0.0
 71
     0
 42
0.2
  3
TXT
  4

  0
STYLE
  5
14B
330
3
100
AcDbSymbolTableRecord
100
AcDbTextStyleTableRecord
  2
SLDTEXTSTYLE5
 70
     0
 40
0.0
 41
0.59
 50
0.0
 71
     0
 42
0.2
  3
TXT
  4

  0
STYLE
  5
394
330
3
100
AcDbSymbolTableRecord
100
AcDbTextStyleTableRecord
  2
SLDTEXTSTYLE6
 70
     0
 40
0.0
 41
0.59
 50
0.0
 71
     0
 42
0.2
  3
TXT
  4

  0
STYLE
  5
395
330
3
100
AcDbSymbolTableRecord
100
AcDbTextStyleTableRecord
  2
ROMANS
 70
     0
 40
0.0
 41
1.0
 50
0.0
 71
     0
 42
4.0
  3
ROMANS.SHX
  4

  0
STYLE
  5
396
330
3
100
AcDbSymbolTableRecord
100
AcDbTextStyleTableRecord
  2
ARIAL
 70
     0
 40
0.0
 41
1.0
 50
0.0
 71
     0
 42
0.12
  3
arial.ttf
  4

1001
ACAD
1000
Arial
1071
       34
  0
ENDTAB
  0
TABLE
  2
VIEW
  5
6
330
0
100
AcDbSymbolTable
 70
     0
  0
ENDTAB
  0
TABLE
  2
UCS
  5
7
330
0
100
AcDbSymbolTable
 70
     0
  0
ENDTAB
  0
TABLE
  2
APPID
  5
9
330
0
100
AcDbSymbolTable
 70
     1
  0
APPID
  5
12
330
9
100
AcDbSymbolTableRecord
100
AcDbRegAppTableRecord
  2
ACAD
 70
     0
  0
ENDTAB
  0
TABLE
  2
DIMSTYLE
  5
A
330
0
100
AcDbSymbolTable
 70
     5
  0
DIMSTYLE
105
27
330
A
100
AcDbSymbolTableRecord
100
AcDbDimStyleTableRecord
  2
STANDARD
 70
     0
  3

  4

  5

  6

  7

 40
1.0
 41
0.18
 42
0.0625
 43
0.38
 44
0.18
 45
0.0
 46
0.0
 47
0.0
 48
0.0
140
0.18
141
0.09
142
0.0
143
25.4
144
1.0
145
0.0
146
1.0
147
0.09
 71
     0
 72
     0
 73
     1
 74
     1
 75
     0
 76
     0
 77
     0
 78
     0
170
     1
171
     2
172
     0
173
     0
174
     0
175
     0
176
     0
177
     0
178
     0
270
     2
271
     4
272
     4
273
     2
274
     2
340
11
275
     0
280
     0
281
     0
282
     0
283
     1
284
     0
285
     0
286
     0
287
     3
288
     0
  0
DIMSTYLE
105
397
330
A
100
AcDbSymbolTableRecord
100
AcDbDimStyleTableRecord
  2
SLDDIMSTYLE0
 70
     0
  3

  4

  5

  6

  7

 40
1.0
 41
0.13
 42
0.0625
 43
0.38
 44
0.0
 45
0.000000001
 46
0.0
 47
0.0
 48
0.0
140
0.156
141
0.09
142
0.0
143
25.4
144
1.0
145
0.0
146
1.0
147
0.039
 71
     0
 72
     0
 73
     1
 74
     1
 75
     0
 76
     0
 77
     0
 78
    12
170
     1
171
     2
172
     0
173
     1
174
     0
175
     0
176
     0
177
     0
178
     0
270
     2
271
     3
272
     3
273
     2
274
     2
340
12B
275
     0
280
     0
281
     0
282
     0
283
     1
284
    12
285
     0
286
     0
287
     3
288
     0
  0
DIMSTYLE
105
398
330
A
100
AcDbSymbolTableRecord
100
AcDbDimStyleTableRecord
  2
SLDDIMSTYLE1
 70
     0
  3

  4

  5

  6

  7

 40
1.0
 41
0.13
 42
0.0625
 43
0.38
 44
0.0
 45
0.000000001
 46
0.0
 47
0.0
 48
0.0
140
0.156
141
0.09
142
0.0
143
25.4
144
1.0
145
0.0
146
1.0
147
0.039
 71
     0
 72
     0
 73
     1
 74
     1
 75
     0
 76
     0
 77
     0
 78
    12
170
     1
171
     2
172
     1
173
     1
174
     0
175
     0
176
     0
177
     0
178
     0
270
     2
271
     3
272
     3
273
     2
274
     2
340
12B
275
     0
280
     0
281
     0
282
     0
283
     1
284
    12
285
     0
286
     0
287
     0
288
     0
  0
DIMSTYLE
105
399
330
A
100
AcDbSymbolTableRecord
100
AcDbDimStyleTableRecord
  2
SLDDIMSTYLE2
 70
     0
  3

  4

  5

  6

  7

 40
1.0
 41
0.13
 42
0.0625
 43
0.38
 44
0.0
 45
0.000000001
 46
0.0
 47
0.0
 48
0.0
140
0.156
141
0.09
142
0.0
143
25.4
144
1.0
145
0.0
146
1.0
147
0.039
 71
     0
 72
     0
 73
     1
 74
     1
 75
     0
 76
     0
 77
     0
 78
     4
170
     1
171
     2
172
     0
173
     1
174
     0
175
     0
176
     0
177
     0
178
     0
270
     2
271
     3
272
     3
273
     2
274
     2
340
12B
275
     0
280
     0
281
     0
282
     0
283
     1
284
    12
285
     0
286
     0
287
     3
288
     0
  0
DIMSTYLE
105
39A
330
A
100
AcDbSymbolTableRecord
100
AcDbDimStyleTableRecord
  2
SLDDIMSTYLE3
 70
     0
  3

  4

  5

  6

  7

 40
1.0
 41
0.13
 42
0.0625
 43
0.38
 44
0.0
 45
0.000000001
 46
0.0
 47
0.0
 48
0.0
140
0.156
141
0.09
142
0.0
143
25.4
144
1.0
145
0.0
146
1.0
147
0.039
 71
     0
 72
     0
 73
     1
 74
     1
 75
     0
 76
     0
 77
     0
 78
     4
170
     1
171
     2
172
     1
173
     1
174
     0
175
     0
176
     0
177
     0
178
     0
270
     2
271
     3
272
     3
273
     2
274
     2
340
12B
275
     0
280
     0
281
     0
282
     0
283
     1
284
    12
285
     0
286
     0
287
     0
288
     0
  0
ENDTAB
  0
TABLE
  2
BLOCK_RECORD
  5
1
330
0
100
AcDbSymbolTable
 70
    30
  0
BLOCK_RECORD
  5
1F
102
{ACAD_XDICTIONARY
360
7F8
102
}
330
1
100
AcDbSymbolTableRecord
100
AcDbBlockTableRecord
  2
*MODEL_SPACE
  0
BLOCK_RECORD
  5
1B
102
{ACAD_XDICTIONARY
360
7F6
102
}
330
1
100
AcDbSymbolTableRecord
100
AcDbBlockTableRecord
  2
*PAPER_SPACE
  0
BLOCK_RECORD
  5
FB
330
1
100
AcDbSymbolTableRecord
100
AcDbBlockTableRecord
  2
SW_NOTE_0
  0
BLOCK_RECORD
  5
103
330
1
100
AcDbSymbolTableRecord
100
AcDbBlockTableRecord
  2
SW_NOTE_1
  0
BLOCK_RECORD
  5
111
330
1
100
AcDbSymbolTableRecord
100
AcDbBlockTableRecord
  2
SW_NOTE_2
  0
BLOCK_RECORD
  5
122
330
1
100
AcDbSymbolTableRecord
100
AcDbBlockTableRecord
  2
SW_NOTE_3
  0
BLOCK_RECORD
  5
12E
330
1
100
AcDbSymbolTableRecord
100
AcDbBlockTableRecord
  2
SW_NOTE_4
  0
BLOCK_RECORD
  5
13E
330
1
100
AcDbSymbolTableRecord
100
AcDbBlockTableRecord
  2
SW_TABLEANNOTATION_0
  0
BLOCK_RECORD
  5
26B
330
1
100
AcDbSymbolTableRecord
100
AcDbBlockTableRecord
  2
_D
  0
BLOCK_RECORD
  5
278
330
1
100
AcDbSymbolTableRecord
100
AcDbBlockTableRecord
  2
_D_1
  0
BLOCK_RECORD
  5
285
330
1
100
AcDbSymbolTableRecord
100
AcDbBlockTableRecord
  2
_D_2
  0
BLOCK_RECORD
  5
293
330
1
100
AcDbSymbolTableRecord
100
AcDbBlockTableRecord
  2
_D_3
  0
BLOCK_RECORD
  5
2A0
330
1
100
AcDbSymbolTableRecord
100
AcDbBlockTableRecord
  2
_D_4
  0
BLOCK_RECORD
  5
2AD
330
1
100
AcDbSymbolTableRecord
100
AcDbBlockTableRecord
  2
_D_5
  0
BLOCK_RECORD
  5
2BA
330
1
100
AcDbSymbolTableRecord
100
AcDbBlockTableRecord
  2
_D_6
  0
BLOCK_RECORD
  5
2C9
330
1
100
AcDbSymbolTableRecord
100
AcDbBlockTableRecord
  2
_D_7
  0
BLOCK_RECORD
  5
2D6
330
1
100
AcDbSymbolTableRecord
100
AcDbBlockTableRecord
  2
REV-BLOCK
  0
BLOCK_RECORD
  5
2DF
330
1
100
AcDbSymbolTableRecord
100
AcDbBlockTableRecord
  2
TITLE-BLOCK
  0
BLOCK_RECORD
  5
2EB
330
1
100
AcDbSymbolTableRecord
100
AcDbBlockTableRecord
  2
FORMAT
  0
BLOCK_RECORD
  5
39B
330
1
100
AcDbSymbolTableRecord
100
AcDbBlockTableRecord
  2
95-5968-43
  0
BLOCK_RECORD
  5
6A7
330
1
100
AcDbSymbolTableRecord
100
AcDbBlockTableRecord
  2
*D20
  0
ENDTAB
  0
ENDSEC
  0
SECTION
  2
BLOCKS
  0
BLOCK
  5
20
330
1F
100
AcDbEntity
  8
0
100
AcDbBlockBegin
  2
*MODEL_SPACE
 70
     0
 10
0.0
 20
0.0
 30
0.0
  3
*MODEL_SPACE
  1

  0
ENDBLK
  5
21
330
1F
100
AcDbEntity
  8
0
100
AcDbBlockEnd
  0
BLOCK
  5
1C
330
1B
100
AcDbEntity
 67
     1
  8
0
100
AcDbBlockBegin
  2
*PAPER_SPACE
 70
     0
 10
0.0
 20
0.0
 30
0.0
  3
*PAPER_SPACE
  1

  0
ENDBLK
  5
1D
330
1B
100
AcDbEntity
 67
     1
  8
0
100
AcDbBlockEnd
  0
BLOCK
  5
24
330
23
100
AcDbEntity
  8
0
100
AcDbBlockBegin
  2
*PAPER_SPACE0
 70
     0
 10
0.0
 20
0.0
 30
0.0
  3
*PAPER_SPACE0
  1

  0
ENDBLK
  5
25
330
23
100
AcDbEntity
  8
0
100
AcDbBlockEnd
  0
BLOCK
  5
FC
330
FB
100
AcDbEntity
  8
0
100
AcDbBlockBegin
  2
SW_NOTE_0
 70
     0
 10
0.0
 20
0.0
 30
0.0
  3
SW_NOTE_0
  1

  0
MTEXT
  5
FE
330
FB
100
AcDbEntity
  8
FORMAT
 62
     0
100
AcDbMText
 10
1.985759493670884
 20
0.1546881287726359
 30
0.0
 40
0.12
 41
0.0
 71
     2
 72
     1
  1
SURFACE FLATNESS .003 TIR PER LINEAR INCH
  7
SLDTEXTSTYLE0
1001
ACAD
1000
MTEXTBEGIN
1070
    73
1070
     1
1070
    44
1040
1.0
1070
    74
1070
     0
1000
MTEXTEND
  0
MTEXT
  5
FF
330
FB
100
AcDbEntity
  8
FORMAT
 62
     0
100
AcDbMText
 10
1.996421314249434
 20
-0.0003118689874967
 30
0.0
 40
0.12
 41
0.0
 71
     2
 72
     1
  1
ALL DIMENSIONS ARE IN INCHES
  7
SLDTEXTSTYLE0
1001
ACAD
1000
MTEXTBEGIN
1070
    73
1070
     1
1070
    44
1040
1.0
1070
    74
1070
     0
1000
MTEXTEND
  0
ENDBLK
  5
FD
330
FB
100
AcDbEntity
  8
0
100
AcDbBlockEnd
  0
BLOCK
  5
104
330
103
100
AcDbEntity
  8
0
100
AcDbBlockBegin
  2
SW_NOTE_1
 70
     0
 10
0.0
 20
0.0
 30
0.0
  3
SW_NOTE_1
  1

  0
MTEXT
  5
106
330
103
100
AcDbEntity
  8
FORMAT
 62
     0
100
AcDbMText
 10
1.181302742616035
 20
0.1598443997317237
 30
0.0
 40
0.124
 41
0.0
 71
     3
 72
     1
  1
THIRD ANGLE
  7
SLDTEXTSTYLE0
1001
ACAD
1000
MTEXTBEGIN
1070
    73
1070
     1
1070
    44
1040
1.0
1070
    74
1070
     0
1000
MTEXTEND
  0
MTEXT
  5
107
330
103
100
AcDbEntity
  8
FORMAT
 62
     0
100
AcDbMText
 10
1.182368777419284
 20
-0.0003222750091821
 30
0.0
 40
0.124
 41
0.0
 71
     3
 72
     1
  1
PROJECTION
  7
SLDTEXTSTYLE0
1001
ACAD
1000
MTEXTBEGIN
1070
    73
1070
     1
1070
    44
1040
1.0
1070
    74
1070
     0
1000
MTEXTEND
  0
ENDBLK
  5
105
330
103
100
AcDbEntity
  8
0
100
AcDbBlockEnd
  0
BLOCK
  5
112
330
111
100
AcDbEntity
  8
0
100
AcDbBlockBegin
  2
SW_NOTE_2
 70
     0
 10
0.0
 20
0.0
 30
0.0
  3
SW_NOTE_2
  1

  0
MTEXT
  5
114
330
111
100
AcDbEntity
  8
TXT
 62
     0
100
AcDbMText
 10
6.15110759493671
 20
0.2578135479543929
 30
0.0
 40
0.2
 41
0.0
 71
     3
 72
     1
  1
UNLESS OTHERWISE STATED, THE ARTICLE
  7
SLDTEXTSTYLE0
1001
ACAD
1000
MTEXTBEGIN
1070
    73
1070
     1
1070
    44
1040
1.0
1070
    74
1070
     0
1000
MTEXTEND
  0
MTEXT
  5
115
330
111
100
AcDbEntity
  8
TXT
 62
     0
100
AcDbMText
 10
6.144701041606238
 20
-0.0421864447534245
 30
0.0
 40
0.2
 41
0.0
 71
     3
 72
     1
  1
SPECIFIED SHALL BE RoHS COMPLIANT PER
  7
SLDTEXTSTYLE0
1001
ACAD
1000
MTEXTBEGIN
1070
    73
1070
     1
1070
    44
1040
1.0
1070
    74
1070
     0
1000
MTEXTEND
  0
MTEXT
  5
116
330
111
100
AcDbEntity
  8
TXT
 62
     0
100
AcDbMText
 10
6.194700460453129
 20
-0.3421864374612421
 30
0.0
 40
0.2
 41
0.0
 71
     3
 72
     1
  1
EU DIRECTIVE 2002/95/EC
  7
SLDTEXTSTYLE0
1001
ACAD
1000
MTEXTBEGIN
1070
    73
1070
     1
1070
    44
1040
1.0
1070
    74
1070
     0
1000
MTEXTEND
  0
ENDBLK
  5
113
330
111
100
AcDbEntity
  8
0
100
AcDbBlockEnd
  0
BLOCK
  5
123
330
122
100
AcDbEntity
  8
0
100
AcDbBlockBegin
  2
SW_NOTE_3
 70
     0
 10
0.0
 20
0.0
 30
0.0
  3
SW_NOTE_3
  1

  0
MTEXT
  5
126
330
122
100
AcDbEntity
  8
FORMAT
 62
     0
100
AcDbMText
 10
2.386067708333332
 20
0.2685557791191595
 30
0.0
 40
0.2083333333333333
 41
0.0
 71
     2
 72
     1
  1
RACK MOUNT PANEL, 20.3" MODERO
  7
SLDTEXTSTYLE3
1001
ACAD
1000
MTEXTBEGIN
1070
    73
1070
     1
1070
    44
1040
1.0
1070
    74
1070
     0
1000
MTEXTEND
  0
MTEXT
  5
127
330
122
100
AcDbEntity
  8
FORMAT
 62
     0
100
AcDbMText
 10
2.390166876588279
 20
-0.0092219953016201
 30
0.0
 40
0.2083333333333333
 41
0.0
 71
     2
 72
     1
  1
PANORAMIC WALL TOUCH PANEL
  7
SLDTEXTSTYLE3
1001
ACAD
1000
MTEXTBEGIN
1070
    73
1070
     1
1070
    44
1040
1.0
1070
    74
1070
     0
1000
MTEXTEND
  0
ENDBLK
  5
124
330
122
100
AcDbEntity
  8
0
100
AcDbBlockEnd
  0
BLOCK
  5
12F
330
12E
100
AcDbEntity
  8
0
100
AcDbBlockBegin
  2
SW_NOTE_4
 70
     0
 10
0.0
 20
0.0
 30
0.0
  3
SW_NOTE_4
  1

  0
MTEXT
  5
131
330
12E
100
AcDbEntity
  8
FORMAT
 62
     0
100
AcDbMText
 10
0.0
 20
0.1692906881287727
 30
0.0
 40
0.131328
 41
0.0
 71
     1
 72
     1
  1
NOTICE:
  7
SLDTEXTSTYLE0
1001
ACAD
1000
MTEXTBEGIN
1070
    73
1070
     1
1070
    44
1040
1.0
1070
    74
1070
     0
1000
MTEXTEND
  0
MTEXT
  5
132
330
12E
100
AcDbEntity
  8
FORMAT
 62
     0
100
AcDbMText
 10
0.9284159284610456
 20
0.1692906409777757
 30
0.0
 40
0.1313279527559055
 41
0.0
 71
     1
 72
     1
  1
This drawing is the
  7
SLDTEXTSTYLE0
1001
ACAD
1000
MTEXTBEGIN
1070
    73
1070
     1
1070
    44
1040
1.0
1070
    74
1070
     0
1000
MTEXTEND
  0
MTEXT
  5
133
330
12E
100
AcDbEntity
  8
FORMAT
 62
     0
100
AcDbMText
 10
0.0
 20
-0.0620373467015707
 30
0.0
 40
0.1313279527559055
 41
0.0
 71
     1
 72
     1
  1
property of AMX LLC.
  7
SLDTEXTSTYLE0
1001
ACAD
1000
MTEXTBEGIN
1070
    73
1070
     1
1070
    44
1040
1.0
1070
    74
1070
     0
1000
MTEXTEND
  0
MTEXT
  5
134
330
12E
100
AcDbEntity
  8
FORMAT
 62
     0
100
AcDbMText
 10
0.0
 20
-0.2933652977146739
 30
0.0
 40
0.1313279527559055
 41
0.0
 71
     1
 72
     1
  1
All information contained herein
  7
SLDTEXTSTYLE0
1001
ACAD
1000
MTEXTBEGIN
1070
    73
1070
     1
1070
    44
1040
1.0
1070
    74
1070
     0
1000
MTEXTEND
  0
MTEXT
  5
135
330
12E
100
AcDbEntity
  8
FORMAT
 62
     0
100
AcDbMText
 10
0.0
 20
-0.5246932487277772
 30
0.0
 40
0.1313279527559055
 41
0.0
 71
     1
 72
     1
  1
that is not generally known
  7
SLDTEXTSTYLE0
1001
ACAD
1000
MTEXTBEGIN
1070
    73
1070
     1
1070
    44
1040
1.0
1070
    74
1070
     0
1000
MTEXTEND
  0
MTEXT
  5
136
330
12E
100
AcDbEntity
  8
FORMAT
 62
     0
100
AcDbMText
 10
0.0
 20
-0.7560211997408805
 30
0.0
 40
0.1313279527559055
 41
0.0
 71
     1
 72
     1
  1
shall be confidential except to
  7
SLDTEXTSTYLE0
1001
ACAD
1000
MTEXTBEGIN
1070
    73
1070
     1
1070
    44
1040
1.0
1070
    74
1070
     0
1000
MTEXTEND
  0
MTEXT
  5
137
330
12E
100
AcDbEntity
  8
FORMAT
 62
     0
100
AcDbMText
 10
0.0
 20
-0.9873491507539837
 30
0.0
 40
0.1313279527559055
 41
0.0
 71
     1
 72
     1
  1
the extent the information has
  7
SLDTEXTSTYLE0
1001
ACAD
1000
MTEXTBEGIN
1070
    73
1070
     1
1070
    44
1040
1.0
1070
    74
1070
     0
1000
MTEXTEND
  0
MTEXT
  5
138
330
12E
100
AcDbEntity
  8
FORMAT
 62
     0
100
AcDbMText
 10
0.0
 20
-1.218677101767086
 30
0.0
 40
0.1313279527559055
 41
0.0
 71
     1
 72
     1
  1
been previously established.
  7
SLDTEXTSTYLE0
1001
ACAD
1000
MTEXTBEGIN
1070
    73
1070
     1
1070
    44
1040
1.0
1070
    74
1070
     0
1000
MTEXTEND
  0
MTEXT
  5
139
330
12E
100
AcDbEntity
  8
FORMAT
 62
     0
100
AcDbMText
 10
0.0
 20
-1.45000505278019
 30
0.0
 40
0.1313279527559055
 41
0.0
 71
     1
 72
     1
  1
This drawing may not be copied,
  7
SLDTEXTSTYLE0
1001
ACAD
1000
MTEXTBEGIN
1070
    73
1070
     1
1070
    44
1040
1.0
1070
    74
1070
     0
1000
MTEXTEND
  0
MTEXT
  5
13A
330
12E
100
AcDbEntity
  8
FORMAT
 62
     0
100
AcDbMText
 10
0.0
 20
-1.681333003793293
 30
0.0
 40
0.1313279527559055
 41
0.0
 71
     1
 72
     1
  1
reproduced, or used as the basis
  7
SLDTEXTSTYLE0
1001
ACAD
1000
MTEXTBEGIN
1070
    73
1070
     1
1070
    44
1040
1.0
1070
    74
1070
     0
1000
MTEXTEND
  0
MTEXT
  5
13B
330
12E
100
AcDbEntity
  8
FORMAT
 62
     0
100
AcDbMText
 10
0.0
 20
-1.912660954806396
 30
0.0
 40
0.1313279527559055
 41
0.0
 71
     1
 72
     1
  1
for manufacture or sale without
  7
SLDTEXTSTYLE0
1001
ACAD
1000
MTEXTBEGIN
1070
    73
1070
     1
1070
    44
1040
1.0
1070
    74
1070
     0
1000
MTEXTEND
  0
MTEXT
  5
13C
330
12E
100
AcDbEntity
  8
FORMAT
 62
     0
100
AcDbMText
 10
0.0
 20
-2.1439889058195
 30
0.0
 40
0.1313279527559055
 41
0.0
 71
     1
 72
     1
  1
written permission.
  7
SLDTEXTSTYLE0
1001
ACAD
1000
MTEXTBEGIN
1070
    73
1070
     1
1070
    44
1040
1.0
1070
    74
1070
     0
1000
MTEXTEND
  0
ENDBLK
  5
130
330
12E
100
AcDbEntity
  8
0
100
AcDbBlockEnd
  0
BLOCK
  5
13F
330
13E
100
AcDbEntity
  8
0
100
AcDbBlockBegin
  2
SW_TABLEANNOTATION_0
 70
     0
 10
0.0
 20
0.0
 30
0.0
  3
SW_TABLEANNOTATION_0
  1

  0
LINE
  5
141
330
13E
100
AcDbEntity
  8
FORMAT
 62
     0
100
AcDbLine
 10
0.0
 20
0.0
 30
0.0
 11
0.0
 21
-1.082899745257337
 31
0.0
  0
LINE
  5
142
330
13E
100
AcDbEntity
  8
FORMAT
 62
     0
100
AcDbLine
 10
0.0
 20
-1.082899745257337
 30
0.0
 11
12.00740362592097
 21
-1.082899745257337
 31
0.0
  0
LINE
  5
143
330
13E
100
AcDbEntity
  8
FORMAT
 62
     0
100
AcDbLine
 10
12.00740362592097
 20
-1.082899745257337
 30
0.0
 11
12.00740362592097
 21
0.0
 31
0.0
  0
LINE
  5
144
330
13E
100
AcDbEntity
  8
FORMAT
 62
     0
100
AcDbLine
 10
12.00740362592097
 20
0.0
 30
0.0
 11
0.0
 21
0.0
 31
0.0
  0
LINE
  5
145
330
13E
100
AcDbEntity
  8
FORMAT
 62
     0
100
AcDbLine
 10
0.9353259116352523
 20
-0.3744000000000057
 30
0.0
 11
0.9353259116352523
 21
-1.082899745257346
 31
0.0
  0
LINE
  5
146
330
13E
100
AcDbEntity
  8
FORMAT
 62
     0
100
AcDbLine
 10
2.158009340206679
 20
-0.3744000000000057
 30
0.0
 11
2.158009340206679
 21
-1.082899745257346
 31
0.0
  0
LINE
  5
147
330
13E
100
AcDbEntity
  8
FORMAT
 62
     0
100
AcDbLine
 10
9.08654876877811
 20
-0.3744000000000057
 30
0.0
 11
9.08654876877811
 21
-1.082899745257346
 31
0.0
  0
LINE
  5
148
330
13E
100
AcDbEntity
  8
FORMAT
 62
     0
100
AcDbLine
 10
10.30923219734953
 20
-0.3744000000000057
 30
0.0
 11
10.30923219734953
 21
-1.082899745257346
 31
0.0
  0
LINE
  5
149
330
13E
100
AcDbEntity
  8
FORMAT
 62
     0
100
AcDbLine
 10
0.0
 20
-0.7432654595430615
 30
0.0
 11
12.00740362592096
 21
-0.7432654595430615
 31
0.0
  0
LINE
  5
14A
330
13E
100
AcDbEntity
  8
FORMAT
 62
     0
100
AcDbLine
 10
0.0
 20
-0.3744000000000013
 30
0.0
 11
12.00740362592097
 21
-0.3744000000000013
 31
0.0
  0
MTEXT
  5
14C
330
13E
100
AcDbEntity
  8
FORMAT
 62
     0
100
AcDbMText
 10
5.291163190934114
 20
-0.1294832117418124
 30
0.0
 40
0.1145833333333333
 41
0.0
 71
     1
 72
     1
  1
R  E  V  I  S  I  O  N  S
  7
SLDTEXTSTYLE5
1001
ACAD
1000
MTEXTBEGIN
1070
    73
1070
     1
1070
    44
1040
1.0
1070
    74
1070
     0
1000
MTEXTEND
  0
MTEXT
  5
14D
330
13E
100
AcDbEntity
  8
FORMAT
 62
     0
100
AcDbMText
 10
0.3651166587745314
 20
-0.5164859707163792
 30
0.0
 40
0.0833333333333333
 41
0.0
 71
     1
 72
     1
  1
REV
  7
SLDTEXTSTYLE3
1001
ACAD
1000
MTEXTBEGIN
1070
    73
1070
     1
1070
    44
1040
1.0
1070
    74
1070
     0
1000
MTEXTEND
  0
MTEXT
  5
14E
330
13E
100
AcDbEntity
  8
FORMAT
 62
     0
100
AcDbMText
 10
1.430618242366678
 20
-0.5164859707163792
 30
0.0
 40
0.0833333333333333
 41
0.0
 71
     1
 72
     1
  1
ECN
  7
SLDTEXTSTYLE3
1001
ACAD
1000
MTEXTBEGIN
1070
    73
1070
     1
1070
    44
1040
1.0
1070
    74
1070
     0
1000
MTEXTEND
  0
MTEXT
  5
14F
330
13E
100
AcDbEntity
  8
FORMAT
 62
     0
100
AcDbMText
 10
5.273436454351877
 20
-0.5164859707163792
 30
0.0
 40
0.0833333333333333
 41
0.0
 71
     1
 72
     1
  1
DESCRIPTION
  7
SLDTEXTSTYLE3
1001
ACAD
1000
MTEXTBEGIN
1070
    73
1070
     1
1070
    44
1040
1.0
1070
    74
1070
     0
1000
MTEXTEND
  0
MTEXT
  5
150
330
13E
100
AcDbEntity
  8
FORMAT
 62
     0
100
AcDbMText
 10
9.561933694481577
 20
-0.5164859707163792
 30
0.0
 40
0.0833333333333333
 41
0.0
 71
     1
 72
     1
  1
DATE
  7
SLDTEXTSTYLE3
1001
ACAD
1000
MTEXTBEGIN
1070
    73
1070
     1
1070
    44
1040
1.0
1070
    74
1070
     0
1000
MTEXTEND
  0
MTEXT
  5
151
330
13E
100
AcDbEntity
  8
FORMAT
 62
     0
100
AcDbMText
 10
10.85924383323118
 20
-0.5164859707163792
 30
0.0
 40
0.0833333333333333
 41
0.0
 71
     1
 72
     1
  1
APPROVED
  7
SLDTEXTSTYLE3
1001
ACAD
1000
MTEXTBEGIN
1070
    73
1070
     1
1070
    44
1040
1.0
1070
    74
1070
     0
1000
MTEXTEND
  0
ENDBLK
  5
140
330
13E
100
AcDbEntity
  8
0
100
AcDbBlockEnd
  0
BLOCK
  5
276
330
26B
100
AcDbEntity
  8
0
100
AcDbBlockBegin
  2
_D
 70
     0
 10
0.0
 20
0.0
 30
0.0
  3
_D
  1

  0
LINE
  5
26C
330
26B
100
AcDbEntity
  8
DIM
 62
     0
100
AcDbLine
 10
4.937689670255067
 20
9.838013768228044
 30
0.0
 11
4.001047937971604
 21
9.838013768228044
 31
0.0
  0
LINE
  5
26D
330
26B
100
AcDbEntity
  8
DIM
 62
     0
100
AcDbLine
 10
4.804689670255068
 20
8.353013768228045
 30
0.0
 11
4.001047937971604
 21
8.353013768228045
 31
0.0
  0
LINE
  5
26E
330
26B
100
AcDbEntity
  8
DIM
 62
     0
100
AcDbLine
 10
4.001047937971604
 20
9.708013768228044
 30
0.0
 11
4.001047937971604
 21
9.2718879485433
 31
0.0
  0
LINE
  5
26F
330
26B
100
AcDbEntity
  8
DIM
 62
     0
100
AcDbLine
 10
4.001047937971604
 20
8.483013768228046
 30
0.0
 11
4.001047937971604
 21
9.037887948543298
 31
0.0
  0
SOLID
  5
270
330
26B
100
AcDbEntity
  8
DIM
 62
     0
100
AcDbTrace
 10
3.979381271304938
 20
9.708013768228045
 30
0.0
 11
4.02271460463827
 21
9.708013768228044
 31
0.0
 12
4.001047937971604
 22
9.838013768228044
 32
0.0
 13
4.001047937971604
 23
9.838013768228044
 33
0.0
  0
SOLID
  5
271
330
26B
100
AcDbEntity
  8
DIM
 62
     0
100
AcDbTrace
 10
3.979381271304937
 20
8.483013768228047
 30
0.0
 11
4.02271460463827
 21
8.483013768228046
 31
0.0
 12
4.001047937971604
 22
8.353013768228045
 32
0.0
 13
4.001047937971604
 23
8.353013768228045
 33
0.0
  0
MTEXT
  5
272
330
26B
100
AcDbEntity
  8
DIM
 62
     0
100
AcDbMText
 10
4.001047937971603
 20
9.154887948543301
 30
0.0
 40
0.156
 41
0.0
 71
     5
 72
     1
  1
\A1;1.485 [37.72]
  7
SLDTEXTSTYLE4
1001
ACAD
1000
MTEXTBEGIN
1070
    73
1070
     1
1070
    44
1040
1.0
1070
    74
1070
     0
1000
MTEXTEND
  0
POINT
  5
273
330
26B
100
AcDbEntity
  8
DEFPOINTS
 62
     0
100
AcDbPoint
 10
5.000189670255067
 20
9.838013768228044
 30
0.0
  0
POINT
  5
274
330
26B
100
AcDbEntity
  8
DEFPOINTS
 62
     0
100
AcDbPoint
 10
4.867189670255068
 20
8.353013768228045
 30
0.0
  0
POINT
  5
275
330
26B
100
AcDbEntity
  8
DEFPOINTS
 62
     0
100
AcDbPoint
 10
4.001047937971604
 20
8.353013768228045
 30
0.0
  0
ENDBLK
  5
277
330
26B
100
AcDbEntity
  8
0
100
AcDbBlockEnd
  0
BLOCK
  5
283
330
278
100
AcDbEntity
  8
0
100
AcDbBlockBegin
  2
_D_1
 70
     0
 10
0.0
 20
0.0
 30
0.0
  3
_D_1
  1

  0
LINE
  5
279
330
278
100
AcDbEntity
  8
DIM
 62
     0
100
AcDbLine
 10
4.937689670255067
 20
12.08901376822804
 30
0.0
 11
3.292386520648774
 21
12.08901376822804
 31
0.0
  0
LINE
  5
27A
330
278
100
AcDbEntity
  8
DIM
 62
     0
100
AcDbLine
 10
4.804689670255068
 20
8.353013768228045
 30
0.0
 11
3.292386520648773
 21
8.353013768228047
 31
0.0
  0
LINE
  5
27B
330
278
100
AcDbEntity
  8
DIM
 62
     0
100
AcDbLine
 10
3.292386520648774
 20
11.95901376822804
 30
0.0
 11
3.292386520648774
 21
10.54319306562524
 31
0.0
  0
LINE
  5
27C
330
278
100
AcDbEntity
  8
DIM
 62
     0
100
AcDbLine
 10
3.292386520648773
 20
8.483013768228047
 30
0.0
 11
3.292386520648774
 21
10.30919306562524
 31
0.0
  0
SOLID
  5
27D
330
278
100
AcDbEntity
  8
DIM
 62
     0
100
AcDbTrace
 10
3.270719853982108
 20
11.95901376822804
 30
0.0
 11
3.314053187315441
 21
11.95901376822804
 31
0.0
 12
3.292386520648774
 22
12.08901376822804
 32
0.0
 13
3.292386520648774
 23
12.08901376822804
 33
0.0
  0
SOLID
  5
27E
330
278
100
AcDbEntity
  8
DIM
 62
     0
100
AcDbTrace
 10
3.270719853982107
 20
8.483013768228047
 30
0.0
 11
3.31405318731544
 21
8.483013768228047
 31
0.0
 12
3.292386520648773
 22
8.353013768228047
 32
0.0
 13
3.292386520648773
 23
8.353013768228047
 33
0.0
  0
MTEXT
  5
27F
330
278
100
AcDbEntity
  8
DIM
 62
     0
100
AcDbMText
 10
3.292386520648772
 20
10.42619306562524
 30
0.0
 40
0.156
 41
0.0
 71
     5
 72
     1
  1
\A1;3.736 [94.89]
  7
SLDTEXTSTYLE4
1001
ACAD
1000
MTEXTBEGIN
1070
    73
1070
     1
1070
    44
1040
1.0
1070
    74
1070
     0
1000
MTEXTEND
  0
POINT
  5
280
330
278
100
AcDbEntity
  8
DEFPOINTS
 62
     0
100
AcDbPoint
 10
5.000189670255067
 20
12.08901376822804
 30
0.0
  0
POINT
  5
281
330
278
100
AcDbEntity
  8
DEFPOINTS
 62
     0
100
AcDbPoint
 10
4.867189670255068
 20
8.353013768228045
 30
0.0
  0
POINT
  5
282
330
278
100
AcDbEntity
  8
DEFPOINTS
 62
     0
100
AcDbPoint
 10
3.292386520648773
 20
8.353013768228047
 30
0.0
  0
ENDBLK
  5
284
330
278
100
AcDbEntity
  8
0
100
AcDbBlockEnd
  0
BLOCK
  5
291
330
285
100
AcDbEntity
  8
0
100
AcDbBlockBegin
  2
_D_2
 70
     0
 10
0.0
 20
0.0
 30
0.0
  3
_D_2
  1

  0
LINE
  5
286
330
285
100
AcDbEntity
  8
DIM
 62
     0
100
AcDbLine
 10
5.203189670255067
 20
9.635013768228045
 30
0.0
 11
5.203189670255067
 21
7.486867977769746
 31
0.0
  0
LINE
  5
287
330
285
100
AcDbEntity
  8
DIM
 62
     0
100
AcDbLine
 10
4.867189670255068
 20
8.290513768228045
 30
0.0
 11
4.867189670255068
 21
7.486867977769746
 31
0.0
  0
LINE
  5
288
330
285
100
AcDbEntity
  8
DIM
 62
     0
100
AcDbLine
 10
5.333189670255067
 20
7.486867977769746
 30
0.0
 11
5.463189670255067
 21
7.486867977769746
 31
0.0
  0
LINE
  5
289
330
285
100
AcDbEntity
  8
DIM
 62
     0
100
AcDbLine
 10
4.737189670255069
 20
7.486867977769746
 30
0.0
 11
4.547047937971603
 21
7.486867977769746
 31
0.0
  0
LINE
  5
28A
330
285
100
AcDbEntity
  8
DIM
 62
     0
100
AcDbLine
 10
5.203189670255067
 20
7.486867977769746
 30
0.0
 11
4.867189670255068
 21
7.486867977769746
 31
0.0
  0
SOLID
  5
28B
330
285
100
AcDbEntity
  8
DIM
 62
     0
100
AcDbTrace
 10
5.333189670255067
 20
7.508534644436412
 30
0.0
 11
5.333189670255067
 21
7.465201311103079
 31
0.0
 12
5.203189670255067
 22
7.486867977769746
 32
0.0
 13
5.203189670255067
 23
7.486867977769746
 33
0.0
  0
SOLID
  5
28C
330
285
100
AcDbEntity
  8
DIM
 62
     0
100
AcDbTrace
 10
4.737189670255069
 20
7.508534644436412
 30
0.0
 11
4.737189670255069
 21
7.465201311103079
 31
0.0
 12
4.867189670255068
 22
7.486867977769746
 32
0.0
 13
4.867189670255068
 23
7.486867977769746
 33
0.0
  0
MTEXT
  5
28D
330
285
100
AcDbEntity
  8
DIM
 62
     0
100
AcDbMText
 10
4.001047937971603
 20
7.486867977769746
 30
0.0
 40
0.156
 41
0.0
 71
     5
 72
     1
  1
\A1;.336 [8.53]
  7
SLDTEXTSTYLE4
1001
ACAD
1000
MTEXTBEGIN
1070
    73
1070
     1
1070
    44
1040
1.0
1070
    74
1070
     0
1000
MTEXTEND
  0
POINT
  5
28E
330
285
100
AcDbEntity
  8
DEFPOINTS
 62
     0
100
AcDbPoint
 10
5.203189670255067
 20
9.697513768228045
 30
0.0
  0
POINT
  5
28F
330
285
100
AcDbEntity
  8
DEFPOINTS
 62
     0
100
AcDbPoint
 10
4.867189670255068
 20
8.353013768228045
 30
0.0
  0
POINT
  5
290
330
285
100
AcDbEntity
  8
DEFPOINTS
 62
     0
100
AcDbPoint
 10
4.867189670255068
 20
7.486867977769746
 30
0.0
  0
ENDBLK
  5
292
330
285
100
AcDbEntity
  8
0
100
AcDbBlockEnd
  0
BLOCK
  5
29E
330
293
100
AcDbEntity
  8
0
100
AcDbBlockBegin
  2
_D_3
 70
     0
 10
0.0
 20
0.0
 30
0.0
  3
_D_3
  1

  0
LINE
  5
294
330
293
100
AcDbEntity
  8
DIM
 62
     0
100
AcDbLine
 10
23.53118967025506
 20
9.635013768228045
 30
0.0
 11
23.53118967025506
 21
7.014427032887861
 31
0.0
  0
LINE
  5
295
330
293
100
AcDbEntity
  8
DIM
 62
     0
100
AcDbLine
 10
4.867189670255068
 20
8.290513768228045
 30
0.0
 11
4.867189670255068
 21
7.014427032887861
 31
0.0
  0
LINE
  5
296
330
293
100
AcDbEntity
  8
DIM
 62
     0
100
AcDbLine
 10
23.40118967025506
 20
7.014427032887861
 30
0.0
 11
15.04865549921701
 21
7.014427032887861
 31
0.0
  0
LINE
  5
297
330
293
100
AcDbEntity
  8
DIM
 62
     0
100
AcDbLine
 10
4.997189670255068
 20
7.014427032887861
 30
0.0
 11
13.54715549921701
 21
7.014427032887861
 31
0.0
  0
SOLID
  5
298
330
293
100
AcDbEntity
  8
DIM
 62
     0
100
AcDbTrace
 10
23.40118967025506
 20
7.036093699554528
 30
0.0
 11
23.40118967025506
 21
6.992760366221195
 31
0.0
 12
23.53118967025506
 22
7.014427032887861
 32
0.0
 13
23.53118967025506
 23
7.014427032887861
 33
0.0
  0
SOLID
  5
299
330
293
100
AcDbEntity
  8
DIM
 62
     0
100
AcDbTrace
 10
4.997189670255068
 20
7.036093699554528
 30
0.0
 11
4.997189670255068
 21
6.992760366221195
 31
0.0
 12
4.867189670255068
 22
7.014427032887861
 32
0.0
 13
4.867189670255068
 23
7.014427032887861
 33
0.0
  0
MTEXT
  5
29A
330
293
100
AcDbEntity
  8
DIM
 62
     0
100
AcDbMText
 10
14.29790549921701
 20
7.014427032887861
 30
0.0
 40
0.156
 41
0.0
 71
     5
 72
     1
  1
\A1;18.664 [474.07]
  7
SLDTEXTSTYLE4
1001
ACAD
1000
MTEXTBEGIN
1070
    73
1070
     1
1070
    44
1040
1.0
1070
    74
1070
     0
1000
MTEXTEND
  0
POINT
  5
29B
330
293
100
AcDbEntity
  8
DEFPOINTS
 62
     0
100
AcDbPoint
 10
23.53118967025506
 20
9.697513768228045
 30
0.0
  0
POINT
  5
29C
330
293
100
AcDbEntity
  8
DEFPOINTS
 62
     0
100
AcDbPoint
 10
4.867189670255068
 20
8.353013768228045
 30
0.0
  0
POINT
  5
29D
330
293
100
AcDbEntity
  8
DEFPOINTS
 62
     0
100
AcDbPoint
 10
4.867189670255068
 20
7.014427032887861
 30
0.0
  0
ENDBLK
  5
29F
330
293
100
AcDbEntity
  8
0
100
AcDbBlockEnd
  0
BLOCK
  5
2AB
330
2A0
100
AcDbEntity
  8
0
100
AcDbBlockBegin
  2
_D_4
 70
     0
 10
0.0
 20
0.0
 30
0.0
  3
_D_4
  1

  0
LINE
  5
2A1
330
2A0
100
AcDbEntity
  8
DIM
 62
     0
100
AcDbLine
 10
4.867189670255068
 20
8.290513768228045
 30
0.0
 11
4.867189670255068
 21
6.069545143124086
 31
0.0
  0
LINE
  5
2A2
330
2A0
100
AcDbEntity
  8
DIM
 62
     0
100
AcDbLine
 10
23.86718967025506
 20
8.290513768228045
 30
0.0
 11
23.86718967025506
 21
6.069545143124086
 31
0.0
  0
LINE
  5
2A3
330
2A0
100
AcDbEntity
  8
DIM
 62
     0
100
AcDbLine
 10
4.997189670255068
 20
6.069545143124086
 30
0.0
 11
13.57640549921701
 21
6.069545143124086
 31
0.0
  0
LINE
  5
2A4
330
2A0
100
AcDbEntity
  8
DIM
 62
     0
100
AcDbLine
 10
23.73718967025506
 20
6.069545143124086
 30
0.0
 11
15.01940549921701
 21
6.069545143124086
 31
0.0
  0
SOLID
  5
2A5
330
2A0
100
AcDbEntity
  8
DIM
 62
     0
100
AcDbTrace
 10
4.997189670255068
 20
6.091211809790753
 30
0.0
 11
4.997189670255068
 21
6.04787847645742
 31
0.0
 12
4.867189670255068
 22
6.069545143124086
 32
0.0
 13
4.867189670255068
 23
6.069545143124086
 33
0.0
  0
SOLID
  5
2A6
330
2A0
100
AcDbEntity
  8
DIM
 62
     0
100
AcDbTrace
 10
23.73718967025506
 20
6.091211809790753
 30
0.0
 11
23.73718967025506
 21
6.04787847645742
 31
0.0
 12
23.86718967025506
 22
6.069545143124086
 32
0.0
 13
23.86718967025506
 23
6.069545143124086
 33
0.0
  0
MTEXT
  5
2A7
330
2A0
100
AcDbEntity
  8
DIM
 62
     0
100
AcDbMText
 10
14.29790549921701
 20
6.069545143124086
 30
0.0
 40
0.156
 41
0.0
 71
     5
 72
     1
  1
\A1;19.000 [482.60]
  7
SLDTEXTSTYLE4
1001
ACAD
1000
MTEXTBEGIN
1070
    73
1070
     1
1070
    44
1040
1.0
1070
    74
1070
     0
1000
MTEXTEND
  0
POINT
  5
2A8
330
2A0
100
AcDbEntity
  8
DEFPOINTS
 62
     0
100
AcDbPoint
 10
4.867189670255068
 20
8.353013768228045
 30
0.0
  0
POINT
  5
2A9
330
2A0
100
AcDbEntity
  8
DEFPOINTS
 62
     0
100
AcDbPoint
 10
23.86718967025506
 20
8.353013768228045
 30
0.0
  0
POINT
  5
2AA
330
2A0
100
AcDbEntity
  8
DEFPOINTS
 62
     0
100
AcDbPoint
 10
23.86718967025506
 20
6.069545143124086
 30
0.0
  0
ENDBLK
  5
2AC
330
2A0
100
AcDbEntity
  8
0
100
AcDbBlockEnd
  0
BLOCK
  5
2B8
330
2AD
100
AcDbEntity
  8
0
100
AcDbBlockBegin
  2
_D_5
 70
     0
 10
0.0
 20
0.0
 30
0.0
  3
_D_5
  1

  0
LINE
  5
2AE
330
2AD
100
AcDbEntity
  8
DIM
 62
     0
100
AcDbLine
 10
4.804689670255068
 20
8.353013768228045
 30
0.0
 11
2.111284158444045
 21
8.353013768228047
 31
0.0
  0
LINE
  5
2AF
330
2AD
100
AcDbEntity
  8
DIM
 62
     0
100
AcDbLine
 10
4.804689670255068
 20
13.57301376822804
 30
0.0
 11
2.111284158444046
 21
13.57301376822804
 31
0.0
  0
LINE
  5
2B0
330
2AD
100
AcDbEntity
  8
DIM
 62
     0
100
AcDbLine
 10
2.111284158444045
 20
8.483013768228047
 30
0.0
 11
2.111284158444045
 21
10.92486117286473
 31
0.0
  0
LINE
  5
2B1
330
2AD
100
AcDbEntity
  8
DIM
 62
     0
100
AcDbLine
 10
2.111284158444046
 20
13.44301376822804
 30
0.0
 11
2.111284158444046
 21
11.15886117286473
 31
0.0
  0
SOLID
  5
2B2
330
2AD
100
AcDbEntity
  8
DIM
 62
     0
100
AcDbTrace
 10
2.089617491777378
 20
8.483013768228047
 30
0.0
 11
2.132950825110711
 21
8.483013768228047
 31
0.0
 12
2.111284158444045
 22
8.353013768228047
 32
0.0
 13
2.111284158444045
 23
8.353013768228047
 33
0.0
  0
SOLID
  5
2B3
330
2AD
100
AcDbEntity
  8
DIM
 62
     0
100
AcDbTrace
 10
2.08961749177738
 20
13.44301376822804
 30
0.0
 11
2.132950825110713
 21
13.44301376822804
 31
0.0
 12
2.111284158444046
 22
13.57301376822804
 32
0.0
 13
2.111284158444046
 23
13.57301376822804
 33
0.0
  0
MTEXT
  5
2B4
330
2AD
100
AcDbEntity
  8
DIM
 62
     0
100
AcDbMText
 10
2.111284158444044
 20
11.04186117286473
 30
0.0
 40
0.156
 41
0.0
 71
     5
 72
     1
  1
\A1;5.220 [132.59]
  7
SLDTEXTSTYLE4
1001
ACAD
1000
MTEXTBEGIN
1070
    73
1070
     1
1070
    44
1040
1.0
1070
    74
1070
     0
1000
MTEXTEND
  0
POINT
  5
2B5
330
2AD
100
AcDbEntity
  8
DEFPOINTS
 62
     0
100
AcDbPoint
 10
4.867189670255068
 20
8.353013768228045
 30
0.0
  0
POINT
  5
2B6
330
2AD
100
AcDbEntity
  8
DEFPOINTS
 62
     0
100
AcDbPoint
 10
4.867189670255068
 20
13.57301376822804
 30
0.0
  0
POINT
  5
2B7
330
2AD
100
AcDbEntity
  8
DEFPOINTS
 62
     0
100
AcDbPoint
 10
2.111284158444046
 20
13.57301376822804
 30
0.0
  0
ENDBLK
  5
2B9
330
2AD
100
AcDbEntity
  8
0
100
AcDbBlockEnd
  0
BLOCK
  5
2C7
330
2BA
100
AcDbEntity
  8
0
100
AcDbBlockBegin
  2
_D_6
 70
     0
 10
0.0
 20
0.0
 30
0.0
  3
_D_6
  1

  0
LINE
  5
2BB
330
2BA
100
AcDbEntity
  8
DIM
 62
     0
100
AcDbLine
 10
4.804689670255068
 20
16.23584264414771
 30
0.0
 11
3.431905701919137
 21
16.23584264414771
 31
0.0
  0
LINE
  5
2BC
330
2BA
100
AcDbEntity
  8
DIM
 62
     0
100
AcDbLine
 10
5.804689670255068
 20
16.7358426441477
 30
0.0
 11
3.431905701919137
 21
16.7358426441477
 31
0.0
  0
LINE
  5
2BD
330
2BA
100
AcDbEntity
  8
DIM
 62
     0
100
AcDbLine
 10
3.431905701919137
 20
16.10584264414771
 30
0.0
 11
3.431905701919137
 21
15.97584264414771
 31
0.0
  0
LINE
  5
2BE
330
2BA
100
AcDbEntity
  8
DIM
 62
     0
100
AcDbLine
 10
3.431905701919137
 20
16.8658426441477
 30
0.0
 11
3.431905701919137
 21
17.15794950731761
 31
0.0
  0
LINE
  5
2BF
330
2BA
100
AcDbEntity
  8
DIM
 62
     0
100
AcDbLine
 10
3.431905701919137
 20
17.15794950731761
 30
0.0
 11
3.561905701919137
 21
17.15794950731761
 31
0.0
  0
LINE
  5
2C0
330
2BA
100
AcDbEntity
  8
DIM
 62
     0
100
AcDbLine
 10
3.431905701919137
 20
16.23584264414771
 30
0.0
 11
3.431905701919137
 21
16.7358426441477
 31
0.0
  0
SOLID
  5
2C1
330
2BA
100
AcDbEntity
  8
DIM
 62
     0
100
AcDbTrace
 10
3.41023903525247
 20
16.10584264414771
 30
0.0
 11
3.453572368585803
 21
16.10584264414771
 31
0.0
 12
3.431905701919137
 22
16.23584264414771
 32
0.0
 13
3.431905701919137
 23
16.23584264414771
 33
0.0
  0
SOLID
  5
2C2
330
2BA
100
AcDbEntity
  8
DIM
 62
     0
100
AcDbTrace
 10
3.41023903525247
 20
16.8658426441477
 30
0.0
 11
3.453572368585803
 21
16.8658426441477
 31
0.0
 12
3.431905701919137
 22
16.7358426441477
 32
0.0
 13
3.431905701919137
 23
16.7358426441477
 33
0.0
  0
MTEXT
  5
2C3
330
2BA
100
AcDbEntity
  8
DIM
 62
     0
100
AcDbMText
 10
4.117655701919134
 20
17.15794950731761
 30
0.0
 40
0.156
 41
0.0
 71
     5
 72
     1
  1
\A1;.500 [12.70]
  7
SLDTEXTSTYLE4
1001
ACAD
1000
MTEXTBEGIN
1070
    73
1070
     1
1070
    44
1040
1.0
1070
    74
1070
     0
1000
MTEXTEND
  0
POINT
  5
2C4
330
2BA
100
AcDbEntity
  8
DEFPOINTS
 62
     0
100
AcDbPoint
 10
4.867189670255068
 20
16.23584264414771
 30
0.0
  0
POINT
  5
2C5
330
2BA
100
AcDbEntity
  8
DEFPOINTS
 62
     0
100
AcDbPoint
 10
5.867189670255068
 20
16.7358426441477
 30
0.0
  0
POINT
  5
2C6
330
2BA
100
AcDbEntity
  8
DEFPOINTS
 62
     0
100
AcDbPoint
 10
3.431905701919137
 20
16.7358426441477
 30
0.0
  0
ENDBLK
  5
2C8
330
2BA
100
AcDbEntity
  8
0
100
AcDbBlockEnd
  0
BLOCK
  5
2D4
330
2C9
100
AcDbEntity
  8
0
100
AcDbBlockBegin
  2
_D_7
 70
     0
 10
0.0
 20
0.0
 30
0.0
  3
_D_7
  1

  0
LINE
  5
2CA
330
2C9
100
AcDbEntity
  8
DIM
 62
     0
100
AcDbLine
 10
28.52206590241893
 20
8.290513768228045
 30
0.0
 11
28.52206590241893
 21
7.640683760683757
 31
0.0
  0
LINE
  5
2CB
330
2C9
100
AcDbEntity
  8
DIM
 62
     0
100
AcDbLine
 10
30.63506590241895
 20
8.950513768228045
 30
0.0
 11
30.63506590241895
 21
7.640683760683757
 31
0.0
  0
LINE
  5
2CC
330
2C9
100
AcDbEntity
  8
DIM
 62
     0
100
AcDbLine
 10
28.65206590241892
 20
7.640683760683757
 30
0.0
 11
29.04532944201237
 21
7.640683760683757
 31
0.0
  0
LINE
  5
2CD
330
2C9
100
AcDbEntity
  8
DIM
 62
     0
100
AcDbLine
 10
30.50506590241895
 20
7.640683760683757
 30
0.0
 11
30.29332944201237
 21
7.640683760683757
 31
0.0
  0
SOLID
  5
2CE
330
2C9
100
AcDbEntity
  8
DIM
 62
     0
100
AcDbTrace
 10
28.65206590241892
 20
7.662350427350424
 30
0.0
 11
28.65206590241892
 21
7.619017094017091
 31
0.0
 12
28.52206590241893
 22
7.640683760683757
 32
0.0
 13
28.52206590241893
 23
7.640683760683757
 33
0.0
  0
SOLID
  5
2CF
330
2C9
100
AcDbEntity
  8
DIM
 62
     0
100
AcDbTrace
 10
30.50506590241895
 20
7.662350427350424
 30
0.0
 11
30.50506590241895
 21
7.619017094017091
 31
0.0
 12
30.63506590241895
 22
7.640683760683757
 32
0.0
 13
30.63506590241895
 23
7.640683760683757
 33
0.0
  0
MTEXT
  5
2D0
330
2C9
100
AcDbEntity
  8
DIM
 62
     0
100
AcDbMText
 10
29.66932944201237
 20
7.640683760683757
 30
0.0
 40
0.156
 41
0.0
 71
     5
 72
     1
  1
\A1;2.113 [53.67]
  7
SLDTEXTSTYLE4
1001
ACAD
1000
MTEXTBEGIN
1070
    73
1070
     1
1070
    44
1040
1.0
1070
    74
1070
     0
1000
MTEXTEND
  0
POINT
  5
2D1
330
2C9
100
AcDbEntity
  8
DEFPOINTS
 62
     0
100
AcDbPoint
 10
28.52206590241893
 20
8.353013768228045
 30
0.0
  0
POINT
  5
2D2
330
2C9
100
AcDbEntity
  8
DEFPOINTS
 62
     0
100
AcDbPoint
 10
30.63506590241895
 20
9.013013768228045
 30
0.0
  0
POINT
  5
2D3
330
2C9
100
AcDbEntity
  8
DEFPOINTS
 62
     0
100
AcDbPoint
 10
30.63506590241895
 20
7.640683760683757
 30
0.0
  0
ENDBLK
  5
2D5
330
2C9
100
AcDbEntity
  8
0
100
AcDbBlockEnd
  0
BLOCK
  5
2DD
330
2D6
100
AcDbEntity
  8
0
100
AcDbBlockBegin
  2
REV-BLOCK
 70
     2
 10
0.0
 20
0.0
 30
0.0
  3
REV-BLOCK
  1

  0
ATTDEF
  5
2D7
330
2D6
100
AcDbEntity
  8
TB-TXT
100
AcDbText
 10
-7.419585413768534
 20
-0.2641364156046726
 30
0.0
 40
0.12
  1
--
  7
ARIAL
 72
     1
 11
-7.363760038598002
 21
-0.2041364156046725
 31
0.0
100
AcDbAttributeDefinition
  3
REV
  2
REV
 70
     0
 74
     2
  0
ATTDEF
  5
2D8
330
2D6
100
AcDbEntity
  8
TB-TXT
100
AcDbText
 10
-7.021598876369779
 20
-0.2621627084294076
 30
0.0
 40
0.12
  1

  7
ARIAL
100
AcDbAttributeDefinition
  3
ECN N0,
  2
ECN
 70
     0
  0
ATTDEF
  5
2D9
330
2D6
100
AcDbEntity
  8
TB-TXT
100
AcDbText
 10
-6.3841325538651
 20
-0.2621627084294076
 30
0.0
 40
0.12
  1

  7
ARIAL
100
AcDbAttributeDefinition
  3
DESCRIPTION
  2
DESCRIPTION
 70
     0
  0
ATTDEF
  5
2DA
330
2D6
100
AcDbEntity
  8
TB-TXT
100
AcDbText
 10
-1.912314371261913
 20
-0.2641364156046726
 30
0.0
 40
0.12
  1

  7
ARIAL
 72
     1
 11
-1.912314371261913
 21
-0.2041364156046725
 31
0.0
100
AcDbAttributeDefinition
  3
REV DATE
  2
REV-DATE
 70
     0
 74
     2
  0
ATTDEF
  5
2DB
330
2D6
100
AcDbEntity
  8
TB-TXT
100
AcDbText
 10
-0.7008820905977871
 20
-0.2641364156046726
 30
0.0
 40
0.12
  1

  7
ARIAL
 72
     1
 11
-0.7008820905977871
 21
-0.2041364156046725
 31
0.0
100
AcDbAttributeDefinition
  3
APPR
  2
APPR
 70
     0
 74
     2
  0
LWPOLYLINE
  5
2DC
330
2D6
100
AcDbEntity
  8
FORMAT
100
AcDbPolyline
 90
        2
 70
     0
 43
0.0198
 10
-7.66263347794009
 20
-0.4059699235454915
 10
0.0
 20
-0.4059699235454915
  0
ENDBLK
  5
2DE
330
2D6
100
AcDbEntity
  8
0
100
AcDbBlockEnd
  0
BLOCK
  5
2E9
330
2DF
100
AcDbEntity
  8
0
100
AcDbBlockBegin
  2
TITLE-BLOCK
 70
     2
 10
0.0
 20
0.0
 30
0.0
  3
TITLE-BLOCK
  1

  0
ATTDEF
  5
2E0
330
2DF
100
AcDbEntity
  8
TB-TXT
100
AcDbText
 10
-5.452069740892156
 20
1.724637434505384
 30
0.0
 40
0.15996
  1

  7
ARIAL
100
AcDbAttributeDefinition
  3
TITLE (LINE 1)
  2
LINE1
 70
     0
  0
ATTDEF
  5
2E1
330
2DF
100
AcDbEntity
  8
TB-TXT
100
AcDbText
 10
-5.452069740892156
 20
1.465654577362527
 30
0.0
 40
0.15996
  1

  7
ARIAL
100
AcDbAttributeDefinition
  3
TITLE (LINE 2)
  2
LINE2
 70
     0
  0
ATTDEF
  5
2E2
330
2DF
100
AcDbEntity
  8
TB-TXT
100
AcDbText
 10
-5.452069740892156
 20
1.20667172021967
 30
0.0
 40
0.15996
  1

  7
ARIAL
100
AcDbAttributeDefinition
  3
TITLE (LINE 3)
  2
LINE3
 70
     0
  0
ATTDEF
  5
2E3
330
2DF
100
AcDbEntity
  8
TB-TXT
100
AcDbText
 10
-5.452069740892156
 20
0.9476888630768137
 30
0.0
 40
0.15996
  1

  7
ARIAL
100
AcDbAttributeDefinition
  3
TITLE (LINE 4)
  2
LINE4
 70
     0
  0
ATTDEF
  5
2E4
330
2DF
100
AcDbEntity
  8
TB-TXT
100
AcDbText
 10
-2.607663526262058
 20
0.495823930069566
 30
0.0
 40
0.12
  1

  7
ARIAL
100
AcDbAttributeDefinition
  3
DWG NO.
  2
DWG#
 70
     0
  0
ATTDEF
  5
2E5
330
2DF
100
AcDbEntity
  8
TB-TXT
100
AcDbText
 10
-5.506905230490374
 20
0.1136078675417114
 30
0.0
 40
0.12
  1

  7
ARIAL
100
AcDbAttributeDefinition
  3
FILE NO.
  2
FILE#
 70
     0
  0
ATTDEF
  5
2E6
330
2DF
100
AcDbEntity
  8
TB-TXT
100
AcDbText
 10
-0.2425360425092862
 20
0.4881363695403174
 30
0.0
 40
0.12
  1

  7
ARIAL
 72
     4
 11
-0.2425360425092862
 21
0.4881363695403174
 31
0.0
100
AcDbAttributeDefinition
  3
REV
  2
REV
 70
     0
  0
ATTDEF
  5
2E7
330
2DF
100
AcDbEntity
  8
TB-TXT
100
AcDbText
 10
-4.485055143223689
 20
0.495823930069566
 30
0.0
 40
0.12
  1
FULL
  7
ARIAL
100
AcDbAttributeDefinition
  3
SCALE
  2
SCALE
 70
     0
  0
ATTDEF
  5
2E8
330
2DF
100
AcDbEntity
  8
TB-TXT
100
AcDbText
 10
-1.004564496465349
 20
0.0916846763858388
 30
0.0
 40
0.12
  1
1 OF 1
  7
ARIAL
100
AcDbAttributeDefinition
  3
SHEET N0.
  2
SHT#
 70
     0
  0
ENDBLK
  5
2EA
330
2DF
100
AcDbEntity
  8
0
100
AcDbBlockEnd
  0
BLOCK
  5
38E
330
2EB
100
AcDbEntity
  8
0
100
AcDbBlockBegin
  2
FORMAT
 70
     0
 10
0.0
 20
0.0
 30
0.0
  3
FORMAT
  1

  0
TEXT
  5
2EC
330
2EB
100
AcDbEntity
  8
FORMAT
100
AcDbText
 10
27.2922243621056
 20
0.8984635216691145
 30
0.0
 40
0.16
  1
D
  7
ARIAL
100
AcDbText
  0
TEXT
  5
2ED
330
2EB
100
AcDbEntity
  8
FORMAT
  6
CONTINUOUS
100
AcDbText
 10
31.74889154160982
 20
0.1499999999999986
 30
0.0
 40
0.25
  1
H
  7
ARIAL
 72
     1
 11
31.875
 21
0.1499999999999986
 31
0.0
100
AcDbText
  0
TEXT
  5
2EE
330
2EB
100
AcDbEntity
  8
FORMAT
  6
CONTINUOUS
100
AcDbText
 10
27.48917121418827
 20
0.1499999999999986
 30
0.0
 40
0.25
  1
G
  7
ARIAL
 72
     1
 11
27.625
 21
0.1499999999999986
 31
0.0
100
AcDbText
  0
TEXT
  5
2EF
330
2EB
100
AcDbEntity
  8
FORMAT
  6
CONTINUOUS
100
AcDbText
 10
23.26833219645293
 20
0.1499999999999986
 30
0.0
 40
0.25
  1
F
  7
ARIAL
 72
     1
 11
23.37499999999999
 21
0.1499999999999986
 31
0.0
100
AcDbText
  0
TEXT
  5
2F0
330
2EB
100
AcDbEntity
  8
FORMAT
  6
CONTINUOUS
100
AcDbText
 10
19.00852660300136
 20
0.1499999999999986
 30
0.0
 40
0.25
  1
E
  7
ARIAL
 72
     1
 11
19.125
 21
0.1499999999999986
 31
0.0
100
AcDbText
  0
TEXT
  5
2F1
330
2EB
100
AcDbEntity
  8
FORMAT
  6
CONTINUOUS
100
AcDbText
 10
14.74889154160982
 20
0.1499999999999986
 30
0.0
 40
0.25
  1
D
  7
ARIAL
 72
     1
 11
14.875
 21
0.1499999999999986
 31
0.0
100
AcDbText
  0
TEXT
  5
2F2
330
2EB
100
AcDbEntity
  8
FORMAT
  6
CONTINUOUS
100
AcDbText
 10
6.258526603001364
 20
0.1499999999999986
 30
0.0
 40
0.25
  1
B
  7
ARIAL
 72
     1
 11
6.375
 21
0.1499999999999986
 31
0.0
100
AcDbText
  0
TEXT
  5
2F3
330
2EB
100
AcDbEntity
  8
FORMAT
  6
CONTINUOUS
100
AcDbText
 10
10.49889154160982
 20
0.1499999999999986
 30
0.0
 40
0.25
  1
C
  7
ARIAL
 72
     1
 11
10.625
 21
0.1499999999999986
 31
0.0
100
AcDbText
  0
TEXT
  5
2F4
330
2EB
100
AcDbEntity
  8
FORMAT
  6
CONTINUOUS
100
AcDbText
 10
2.008526603001364
 20
0.1499999999999986
 30
0.0
 40
0.25
  1
A
  7
ARIAL
 72
     1
 11
2.125
 21
0.1499999999999986
 31
0.0
100
AcDbText
  0
TEXT
  5
2F5
330
2EB
100
AcDbEntity
  8
FORMAT
  6
CONTINUOUS
100
AcDbText
 10
33.62586108649741
 20
19.125
 30
0.0
 40
0.25
  1
1
  7
ARIAL
 72
     2
 11
33.82009710286848
 21
19.125
 31
0.0
100
AcDbText
  0
TEXT
  5
2F6
330
2EB
100
AcDbEntity
  8
FORMAT
  6
CONTINUOUS
100
AcDbText
 10
33.62586108649741
 20
13.625
 30
0.0
 40
0.25
  1
2
  7
ARIAL
 72
     2
 11
33.82009710286848
 21
13.625
 31
0.0
100
AcDbText
  0
TEXT
  5
2F7
330
2EB
100
AcDbEntity
  8
FORMAT
  6
CONTINUOUS
100
AcDbText
 10
33.62586108649741
 20
8.125
 30
0.0
 40
0.25
  1
3
  7
ARIAL
 72
     2
 11
33.82009710286848
 21
8.125
 31
0.0
100
AcDbText
  0
TEXT
  5
2F8
330
2EB
100
AcDbEntity
  8
FORMAT
  6
CONTINUOUS
100
AcDbText
 10
33.62586108649741
 20
2.625
 30
0.0
 40
0.25
  1
4
  7
ARIAL
 72
     2
 11
33.82009710286848
 21
2.625
 31
0.0
100
AcDbText
  0
TEXT
  5
2F9
330
2EB
100
AcDbEntity
  8
FORMAT
  6
CONTINUOUS
100
AcDbText
 10
27.48917121418827
 20
21.59999999999999
 30
0.0
 40
0.25
  1
G
  7
ARIAL
 72
     1
 11
27.625
 21
21.59999999999999
 31
0.0
100
AcDbText
  0
TEXT
  5
2FA
330
2EB
100
AcDbEntity
  8
FORMAT
100
AcDbText
 10
28.46644392275831
 20
0.6672081632976301
 30
0.0
 40
0.1088
  1
ACAD FILE NO.
  7
ARIAL
100
AcDbText
  0
LWPOLYLINE
  5
2FB
330
2EB
100
AcDbEntity
  8
FORMAT
100
AcDbPolyline
 90
        2
 70
     0
 43
0.02
 10
27.61703378072079
 20
1.272892106623777
 10
27.61703378072079
 20
0.8236485696487072
  0
LWPOLYLINE
  5
2FC
330
2EB
100
AcDbEntity
  8
FORMAT
100
AcDbPolyline
 90
        2
 70
     0
 43
0.02
 10
28.42063372699124
 20
0.8236485696487072
 10
28.42063372699124
 20
0.5
  0
LWPOLYLINE
  5
2FD
330
2EB
100
AcDbEntity
  8
FORMAT
100
AcDbPolyline
 90
        2
 70
     0
 43
0.02
 10
31.81895966809327
 20
0.8236485696487072
 10
31.81895966809327
 20
0.5
  0
LWPOLYLINE
  5
2FE
330
2EB
100
AcDbEntity
  8
FORMAT
100
AcDbPolyline
 90
        2
 70
     0
 43
0.02
 10
32.94931437403055
 20
1.272892106623777
 10
32.94931437403055
 20
0.8236485696487072
  0
LWPOLYLINE
  5
2FF
330
2EB
100
AcDbEntity
  8
FORMAT
100
AcDbPolyline
 90
        2
 70
     0
 43
0.02
 10
27.12431506274814
 20
0.8236485696487072
 10
33.5
 20
0.8236485696487072
  0
LWPOLYLINE
  5
300
330
2EB
100
AcDbEntity
  8
FORMAT
100
AcDbPolyline
 90
        2
 70
     0
 43
0.02
 10
27.12431506274814
 20
1.272892106623777
 10
33.5
 20
1.272892106623777
  0
LWPOLYLINE
  5
301
330
2EB
100
AcDbEntity
  8
FORMAT
100
AcDbPolyline
 90
        2
 70
     0
 43
0.02
 10
27.12431506274814
 20
2.441891417892239
 10
33.5
 20
2.441891417892239
  0
LWPOLYLINE
  5
302
330
2EB
100
AcDbEntity
  8
FORMAT
100
AcDbPolyline
 90
        2
 70
     0
 43
0.02
 10
22.60089726348933
 20
1.055516201635839
 10
27.12431293507279
 20
1.055507487567172
  0
LWPOLYLINE
  5
303
330
2EB
100
AcDbEntity
  8
FORMAT
100
AcDbPolyline
 90
        2
 70
     0
 43
0.02
 10
22.60089513581397
 20
3.113332721452977
 10
22.60089726348933
 20
0.5
  0
LWPOLYLINE
  5
304
330
2EB
100
AcDbEntity
  8
FORMAT
100
AcDbPolyline
 90
        2
 70
     0
 43
0.02
 10
27.12431506274814
 20
3.113341435521647
 10
27.12431506274814
 20
0.5
  0
LWPOLYLINE
  5
305
330
2EB
100
AcDbEntity
  8
FORMAT
100
AcDbPolyline
 90
        3
 70
     0
 43
0.02
 10
19.55365650994497
 20
0.5
 10
19.55365654839636
 20
3.113341420836697
 10
33.5
 20
3.113341435521647
  0
TEXT
  5
306
330
2EB
100
AcDbEntity
  8
FORMAT
100
AcDbText
 10
27.17012525851521
 20
0.6672081632976301
 30
0.0
 40
0.1088
  1
SCALE
  7
ARIAL
100
AcDbText
  0
TEXT
  5
307
330
2EB
100
AcDbEntity
  8
FORMAT
  6
CONTINUOUS
100
AcDbText
 10
31.74889154160982
 20
21.59999999999999
 30
0.0
 40
0.25
  1
H
  7
ARIAL
 72
     1
 11
31.875
 21
21.59999999999999
 31
0.0
100
AcDbText
  0
LINE
  5
308
330
2EB
100
AcDbEntity
  8
FORMAT
  6
CONTINUOUS
100
AcDbLine
 10
29.75
 20
21.49999999999999
 30
0.0
 11
29.75
 21
22.0
 31
0.0
  0
LINE
  5
309
330
2EB
100
AcDbEntity
  8
FORMAT
  6
CONTINUOUS
100
AcDbLine
 10
33.5
 20
16.5
 30
0.0
 11
34.0
 21
16.5
 31
0.0
  0
LINE
  5
30A
330
2EB
100
AcDbEntity
  8
FORMAT
  6
CONTINUOUS
100
AcDbLine
 10
25.5
 20
21.49999999999999
 30
0.0
 11
25.5
 21
22.0
 31
0.0
  0
TEXT
  5
30B
330
2EB
100
AcDbEntity
  8
FORMAT
  6
CONTINUOUS
100
AcDbText
 10
23.26833219645293
 20
21.59999999999999
 30
0.0
 40
0.25
  1
F
  7
ARIAL
 72
     1
 11
23.37499999999999
 21
21.59999999999999
 31
0.0
100
AcDbText
  0
LINE
  5
30C
330
2EB
100
AcDbEntity
  8
FORMAT
  6
CONTINUOUS
100
AcDbLine
 10
21.25
 20
21.49999999999999
 30
0.0
 11
21.25
 21
22.0
 31
0.0
  0
TEXT
  5
30D
330
2EB
100
AcDbEntity
  8
FORMAT
  6
CONTINUOUS
100
AcDbText
 10
19.00852660300136
 20
21.59999999999999
 30
0.0
 40
0.25
  1
E
  7
ARIAL
 72
     1
 11
19.125
 21
21.59999999999999
 31
0.0
100
AcDbText
  0
LINE
  5
30E
330
2EB
100
AcDbEntity
  8
FORMAT
  6
CONTINUOUS
100
AcDbLine
 10
33.5
 20
11.0
 30
0.0
 11
33.696573
 21
10.88650899999999
 31
0.0
  0
LINE
  5
30F
330
2EB
100
AcDbEntity
  8
FORMAT
  6
CONTINUOUS
100
AcDbLine
 10
33.5
 20
11.0
 30
0.0
 11
34.0
 21
11.0
 31
0.0
  0
LINE
  5
310
330
2EB
100
AcDbEntity
  8
FORMAT
  6
CONTINUOUS
100
AcDbLine
 10
33.5
 20
5.5
 30
0.0
 11
34.0
 21
5.5
 31
0.0
  0
LINE
  5
311
330
2EB
100
AcDbEntity
  8
FORMAT
  6
CONTINUOUS
100
AcDbLine
 10
29.75
 20
0.0
 30
0.0
 11
29.75
 21
0.5
 31
0.0
  0
TEXT
  5
312
330
2EB
100
AcDbEntity
  8
FORMAT
  6
CONTINUOUS
100
AcDbText
 10
26.57169898372832
 20
2.051152953348244
 30
0.0
 40
0.12
  1
0.005
  7
ARIAL
 72
     2
 11
26.99120785139544
 21
2.051152953348244
 31
0.0
100
AcDbText
  0
TEXT
  5
313
330
2EB
100
AcDbEntity
  8
FORMAT
  6
CONTINUOUS
100
AcDbText
 10
26.5491223910726
 20
2.236977562228064
 30
0.0
 40
0.12
  1
0.01
  7
ARIAL
 72
     2
 11
26.8753979708816
 21
2.236977562228064
 31
0.0
100
AcDbText
  0
TEXT
  5
314
330
2EB
100
AcDbEntity
  8
FORMAT
  6
CONTINUOUS
100
AcDbText
 10
26.56637366390401
 20
1.865328344468428
 30
0.0
 40
0.12
  1
0.5%%d
 51
1.0
  7
ARIAL
 72
     2
 11
26.86645551929283
 21
1.865328344468428
 31
0.0
100
AcDbText
  0
TEXT
  5
315
330
2EB
100
AcDbEntity
  8
FORMAT
  6
CONTINUOUS
100
AcDbText
 10
25.84954095233039
 20
2.051152953348244
 30
0.0
 40
0.12
  1
.XXX = %%p
  7
ARIAL
 72
     2
 11
26.51461598643681
 21
2.051152953348244
 31
0.0
100
AcDbText
  0
TEXT
  5
316
330
2EB
100
AcDbEntity
  8
FORMAT
  6
CONTINUOUS
100
AcDbText
 10
25.96135541344908
 20
2.236977562228064
 30
0.0
 40
0.12
  1
.XX = %%p
  7
ARIAL
 72
     2
 11
26.51461598643681
 21
2.236977562228064
 31
0.0
100
AcDbText
  0
TEXT
  5
317
330
2EB
100
AcDbEntity
  8
FORMAT
  6
CONTINUOUS
100
AcDbText
 10
25.6027469550589
 20
1.865328344468428
 30
0.0
 40
0.12
  1
ANGLES:  %%p
  7
ARIAL
 72
     2
 11
26.51461598643681
 21
1.865328344468428
 31
0.0
100
AcDbText
  0
TEXT
  5
318
330
2EB
100
AcDbEntity
  8
FORMAT
  6
CONTINUOUS
100
AcDbText
 10
26.54694158954057
 20
2.422802171107882
 30
0.0
 40
0.12
  1
0.1
  7
ARIAL
 72
     2
 11
26.77998388149146
 21
2.422802171107882
 31
0.0
100
AcDbText
  0
TEXT
  5
319
330
2EB
100
AcDbEntity
  8
FORMAT
  6
CONTINUOUS
100
AcDbText
 10
23.23123432193724
 20
1.12281556394616
 30
0.0
 40
0.186
  1
DO NOT SCALE DRAWING
  7
ARIAL
 72
     1
 11
24.86260403544338
 21
1.12281556394616
 31
0.0
100
AcDbText
  0
TEXT
  5
31A
330
2EB
100
AcDbEntity
  8
FORMAT
  6
CONTINUOUS
100
AcDbText
 10
23.66571454021828
 20
1.398362308673736
 30
0.0
 40
0.12
  1
ALL DIMENSIONS IN INCHES. 
  7
ARIAL
 72
     1
 11
24.86260403544338
 21
1.398362308673736
 31
0.0
100
AcDbText
  0
TEXT
  5
31B
330
2EB
100
AcDbEntity
  8
FORMAT
  6
CONTINUOUS
100
AcDbText
 10
22.84782049927794
 20
1.598364381162374
 30
0.0
 40
0.12
  1
SURFACE FLATNESS .003 TIR PER LINEAR INCH  
  7
ARIAL
 72
     2
 11
26.84416429191095
 21
1.598364381162374
 31
0.0
100
AcDbText
  0
TEXT
  5
31C
330
2EB
100
AcDbEntity
  8
FORMAT
  6
CONTINUOUS
100
AcDbText
 10
22.6639747858911
 20
2.422802171107882
 30
0.0
 40
0.12
  1
TOLERANCE ON DECIMAL DIMENSIONS:   .X = %%p
  7
ARIAL
 72
     2
 11
26.51461598643681
 21
2.422802171107882
 31
0.0
100
AcDbText
  0
TEXT
  5
31D
330
2EB
100
AcDbEntity
  8
FORMAT
  6
CONTINUOUS
100
AcDbText
 10
22.75440355659141
 20
2.741378395140287
 30
0.0
 40
0.1899233025254706
  1
%%uUNLESS OTHERWISE SPECIFIED
  7
ARIAL
 72
     1
 11
24.86260403544338
 21
2.741378395140287
 31
0.0
100
AcDbText
  0
TEXT
  5
31E
330
2EB
100
AcDbEntity
  8
FORMAT
  6
CONTINUOUS
100
AcDbText
 10
23.21154877296527
 20
0.8019109791499126
 30
0.0
 40
0.124
  1
          THIRD ANGLE
  7
ARIAL
100
AcDbText
  0
LINE
  5
31F
330
2EB
100
AcDbEntity
  8
FORMAT
  6
CONTINUOUS
100
AcDbLine
 10
25.5
 20
0.0
 30
0.0
 11
25.5
 21
0.5
 31
0.0
  0
TEXT
  5
320
330
2EB
100
AcDbEntity
  8
FORMAT
  6
CONTINUOUS
100
AcDbText
 10
23.21154877296527
 20
0.6043942372759084
 30
0.0
 40
0.124
  1
          PROJECTION 
  7
ARIAL
100
AcDbText
  0
LINE
  5
321
330
2EB
100
AcDbEntity
  8
FORMAT
  6
CONTINUOUS
100
AcDbLine
 10
21.25
 20
0.0
 30
0.0
 11
21.25
 21
0.5
 31
0.0
  0
LINE
  5
322
330
2EB
100
AcDbEntity
  8
FORMAT
  6
CONTINUOUS
100
AcDbLine
 10
33.696573
 20
10.88650899999999
 30
0.0
 11
33.696573
 21
11.113492
 31
0.0
  0
LINE
  5
323
330
2EB
100
AcDbEntity
  8
FORMAT
  6
CONTINUOUS
100
AcDbLine
 10
33.696573
 20
11.113492
 30
0.0
 11
33.5
 21
11.0
 31
0.0
  0
HATCH
  5
324
330
2EB
100
AcDbEntity
  8
FORMAT
  6
CONTINUOUS
100
AcDbHatch
 10
0.0
 20
0.0
 30
0.0
210
0.0
220
0.0
230
1.0
  2
ARROW_RIGHT
 70
     1
 71
     0
 91
        1
 92
        1
 93
        3
 72
     1
 10
33.5
 20
10.99999999999999
 11
33.696573
 21
10.88650899999999
 72
     1
 10
33.696573
 20
10.88650899999999
 11
33.696573
 21
11.11349199999999
 72
     1
 10
33.696573
 20
11.11349199999999
 11
33.5
 21
10.99999999999999
 97
        0
 75
     0
 76
     1
 98
        1
 10
0.25
 20
0.0
  0
LWPOLYLINE
  5
325
330
2EB
100
AcDbEntity
  8
FORMAT
  6
PHANTOM
 48
10.0
100
AcDbPolyline
 90
        2
 70
     0
 43
0.001
 10
34.0
 20
0.0
 10
34.0
 20
22.0
  0
LINE
  5
326
330
2EB
100
AcDbEntity
  8
FORMAT
  6
CONTINUOUS
100
AcDbLine
 10
16.88650799999999
 20
21.696573
 30
0.0
 11
17.0
 21
21.49999999999999
 31
0.0
  0
LINE
  5
327
330
2EB
100
AcDbEntity
  8
FORMAT
  6
CONTINUOUS
100
AcDbLine
 10
17.0
 20
21.49999999999999
 30
0.0
 11
17.0
 21
22.0
 31
0.0
  0
TEXT
  5
328
330
2EB
100
AcDbEntity
  8
FORMAT
  6
CONTINUOUS
100
AcDbText
 10
14.74889154160982
 20
21.59999999999999
 30
0.0
 40
0.25
  1
D
  7
ARIAL
 72
     1
 11
14.875
 21
21.59999999999999
 31
0.0
100
AcDbText
  0
LINE
  5
329
330
2EB
100
AcDbEntity
  8
FORMAT
  6
CONTINUOUS
100
AcDbLine
 10
12.75
 20
21.49999999999999
 30
0.0
 11
12.75
 21
22.0
 31
0.0
  0
TEXT
  5
32A
330
2EB
100
AcDbEntity
  8
FORMAT
  6
CONTINUOUS
100
AcDbText
 10
10.49889154160982
 20
21.59999999999999
 30
0.0
 40
0.25
  1
C
  7
ARIAL
 72
     1
 11
10.625
 21
21.59999999999999
 31
0.0
100
AcDbText
  0
LINE
  5
32B
330
2EB
100
AcDbEntity
  8
FORMAT
  6
CONTINUOUS
100
AcDbLine
 10
8.5
 20
21.49999999999999
 30
0.0
 11
8.5
 21
22.0
 31
0.0
  0
LINE
  5
32C
330
2EB
100
AcDbEntity
  8
FORMAT
  6
CONTINUOUS
100
AcDbLine
 10
4.25
 20
21.49999999999999
 30
0.0
 11
4.25
 21
22.0
 31
0.0
  0
TEXT
  5
32D
330
2EB
100
AcDbEntity
  8
FORMAT
  6
CONTINUOUS
100
AcDbText
 10
2.008526603001364
 20
21.59999999999999
 30
0.0
 40
0.25
  1
A
  7
ARIAL
 72
     1
 11
2.125
 21
21.59999999999999
 31
0.0
100
AcDbText
  0
TEXT
  5
32E
330
2EB
100
AcDbEntity
  8
FORMAT
  6
CONTINUOUS
100
AcDbText
 10
0.1057639836289194
 20
19.125
 30
0.0
 40
0.25
  1
1
  7
ARIAL
 72
     2
 11
0.2999999999999971
 21
19.125
 31
0.0
100
AcDbText
  0
LINE
  5
32F
330
2EB
100
AcDbEntity
  8
FORMAT
  6
CONTINUOUS
100
AcDbLine
 10
0.0
 20
16.5
 30
0.0
 11
0.5
 21
16.5
 31
0.0
  0
TEXT
  5
330
330
2EB
100
AcDbEntity
  8
FORMAT
  6
CONTINUOUS
100
AcDbText
 10
0.1057639836289194
 20
13.625
 30
0.0
 40
0.25
  1
2
  7
ARIAL
 72
     2
 11
0.2999999999999971
 21
13.625
 31
0.0
100
AcDbText
  0
TEXT
  5
331
330
2EB
100
AcDbEntity
  8
FORMAT
  6
CONTINUOUS
100
AcDbText
 10
6.258526603001364
 20
21.59999999999999
 30
0.0
 40
0.25
  1
B
  7
ARIAL
 72
     1
 11
6.375
 21
21.59999999999999
 31
0.0
100
AcDbText
  0
LINE
  5
332
330
2EB
100
AcDbEntity
  8
FORMAT
  6
CONTINUOUS
100
AcDbLine
 10
17.0
 20
0.5
 30
0.0
 11
16.88650899999998
 21
0.3034269999999992
 31
0.0
  0
LINE
  5
333
330
2EB
100
AcDbEntity
  8
FORMAT
  6
CONTINUOUS
100
AcDbLine
 10
17.0
 20
0.0
 30
0.0
 11
17.0
 21
0.5
 31
0.0
  0
LINE
  5
334
330
2EB
100
AcDbEntity
  8
FORMAT
  6
CONTINUOUS
100
AcDbLine
 10
12.75
 20
0.0
 30
0.0
 11
12.75
 21
0.5
 31
0.0
  0
LINE
  5
335
330
2EB
100
AcDbEntity
  8
FORMAT
  6
CONTINUOUS
100
AcDbLine
 10
8.5
 20
0.0
 30
0.0
 11
8.5
 21
0.5
 31
0.0
  0
LINE
  5
336
330
2EB
100
AcDbEntity
  8
FORMAT
  6
CONTINUOUS
100
AcDbLine
 10
0.3034269999999992
 20
10.88650799999999
 30
0.0
 11
0.5
 21
11.0
 31
0.0
  0
LINE
  5
337
330
2EB
100
AcDbEntity
  8
FORMAT
  6
CONTINUOUS
100
AcDbLine
 10
0.0
 20
11.0
 30
0.0
 11
0.5
 21
11.0
 31
0.0
  0
TEXT
  5
338
330
2EB
100
AcDbEntity
  8
FORMAT
  6
CONTINUOUS
100
AcDbText
 10
0.1057639836289194
 20
8.125
 30
0.0
 40
0.25
  1
3
  7
ARIAL
 72
     2
 11
0.2999999999999971
 21
8.125
 31
0.0
100
AcDbText
  0
LINE
  5
339
330
2EB
100
AcDbEntity
  8
FORMAT
  6
CONTINUOUS
100
AcDbLine
 10
0.0
 20
5.5
 30
0.0
 11
0.5
 21
5.5
 31
0.0
  0
LINE
  5
33A
330
2EB
100
AcDbEntity
  8
FORMAT
  6
CONTINUOUS
100
AcDbLine
 10
4.25
 20
0.0
 30
0.0
 11
4.25
 21
0.5
 31
0.0
  0
TEXT
  5
33B
330
2EB
100
AcDbEntity
  8
FORMAT
  6
CONTINUOUS
100
AcDbText
 10
0.1057639836289194
 20
2.625
 30
0.0
 40
0.25
  1
4
  7
ARIAL
 72
     2
 11
0.2999999999999971
 21
2.625
 31
0.0
100
AcDbText
  0
LINE
  5
33C
330
2EB
100
AcDbEntity
  8
FORMAT
  6
CONTINUOUS
100
AcDbLine
 10
0.5
 20
11.0
 30
0.0
 11
0.3034269999999992
 21
11.11349099999999
 31
0.0
  0
LINE
  5
33D
330
2EB
100
AcDbEntity
  8
FORMAT
  6
CONTINUOUS
100
AcDbLine
 10
0.3034269999999992
 20
11.11349099999999
 30
0.0
 11
0.3034269999999992
 21
10.88650799999999
 31
0.0
  0
LWPOLYLINE
  5
33E
330
2EB
100
AcDbEntity
  8
FORMAT
  6
PHANTOM
 48
10.0
100
AcDbPolyline
 90
        2
 70
     0
 43
0.001
 10
0.0
 20
22.0
 10
0.0
 20
0.0
  0
HATCH
  5
33F
330
2EB
100
AcDbEntity
  8
FORMAT
  6
CONTINUOUS
100
AcDbHatch
 10
0.0
 20
0.0
 30
0.0
210
0.0
220
0.0
230
1.0
  2
ARROW_LEFT
 70
     1
 71
     0
 91
        1
 92
        1
 93
        3
 72
     1
 10
0.3034269999999992
 20
10.88650799999999
 11
0.4999999999999992
 21
10.99999999999999
 72
     1
 10
0.5
 20
10.99999999999999
 11
0.3034270000000001
 21
11.11349099999999
 72
     1
 10
0.3034269999999992
 20
11.11349099999999
 11
0.3034269999999992
 21
10.88650799999999
 97
        0
 75
     0
 76
     1
 98
        1
 10
-0.25
 20
0.0
  0
LINE
  5
340
330
2EB
100
AcDbEntity
  8
FORMAT
  6
CONTINUOUS
100
AcDbLine
 10
17.11349099999999
 20
21.696573
 30
0.0
 11
16.88650799999999
 21
21.696573
 31
0.0
  0
LINE
  5
341
330
2EB
100
AcDbEntity
  8
FORMAT
  6
CONTINUOUS
100
AcDbLine
 10
17.0
 20
21.49999999999999
 30
0.0
 11
17.11349099999999
 21
21.696573
 31
0.0
  0
LINE
  5
342
330
2EB
100
AcDbEntity
  8
FORMAT
  6
CONTINUOUS
100
AcDbLine
 10
17.11349199999999
 20
0.3034269999999992
 30
0.0
 11
17.0
 21
0.5
 31
0.0
  0
LINE
  5
343
330
2EB
100
AcDbEntity
  8
FORMAT
  6
CONTINUOUS
100
AcDbLine
 10
16.88650899999998
 20
0.3034269999999992
 30
0.0
 11
17.11349199999999
 21
0.3034269999999992
 31
0.0
  0
LWPOLYLINE
  5
344
330
2EB
100
AcDbEntity
  8
FORMAT
  6
PHANTOM
 48
10.0
100
AcDbPolyline
 90
        2
 70
     0
 43
0.001
 10
0.0
 20
0.0
 10
34.0
 20
0.0
  0
HATCH
  5
345
330
2EB
100
AcDbEntity
  8
FORMAT
  6
CONTINUOUS
100
AcDbHatch
 10
0.0
 20
0.0
 30
0.0
210
0.0
220
0.0
230
1.0
  2
ARROW_BOTTOM
 70
     1
 71
     0
 91
        1
 92
        1
 93
        3
 72
     1
 10
17.11349199999999
 20
0.3034269999999992
 11
16.99999999999999
 21
0.5
 72
     1
 10
17.0
 20
0.5
 11
16.886509
 21
0.3034269999999992
 72
     1
 10
16.88650899999998
 20
0.3034269999999992
 11
17.11349199999999
 21
0.3034269999999992
 97
        0
 75
     0
 76
     1
 98
        1
 10
0.0
 20
0.0
  0
HATCH
  5
346
330
2EB
100
AcDbEntity
  8
FORMAT
  6
CONTINUOUS
100
AcDbHatch
 10
0.0
 20
0.0
 30
0.0
210
0.0
220
0.0
230
1.0
  2
ARROW_TOP
 70
     1
 71
     0
 91
        1
 92
        1
 93
        3
 72
     1
 10
17.11349099999999
 20
21.696573
 11
16.88650799999999
 21
21.696573
 72
     1
 10
16.88650799999999
 20
21.696573
 11
16.99999999999999
 21
21.49999999999999
 72
     1
 10
17.0
 20
21.49999999999999
 11
17.113491
 21
21.696573
 97
        0
 75
     0
 76
     1
 98
        1
 10
0.0
 20
0.0
  0
LWPOLYLINE
  5
347
330
2EB
100
AcDbEntity
  8
FORMAT
  6
PHANTOM
 48
10.0
100
AcDbPolyline
 90
        2
 70
     0
 43
0.001
 10
34.0
 20
22.0
 10
0.0
 20
22.0
  0
TEXT
  5
348
330
2EB
100
AcDbEntity
  8
TXT
100
AcDbText
 10
13.25165097349319
 20
0.7815415536662798
 30
0.0
 40
0.2
  1
PER EU DIRECTIVE 2002/95/EC
  7
ARIAL
100
AcDbText
  0
TEXT
  5
349
330
2EB
100
AcDbEntity
  8
TXT
100
AcDbText
 10
13.25165097349319
 20
1.131541553666281
 30
0.0
 40
0.2
  1
SPECIFIED SHALL BE RoHS COMPLIANT
  7
ARIAL
100
AcDbText
  0
TEXT
  5
34A
330
2EB
100
AcDbEntity
  8
TXT
100
AcDbText
 10
13.25165097349319
 20
1.481541553666282
 30
0.0
 40
0.2
  1
UNLESS OTHERWISE STATED, THE ARTICLE
  7
ARIAL
100
AcDbText
  0
LWPOLYLINE
  5
34B
102
{ACAD_REACTORS
330
350
102
}
330
2EB
100
AcDbEntity
  8
FORMAT
100
AcDbPolyline
 90
       10
 70
     1
 43
0.0
 10
28.84812546490569
 20
2.560038189765117
 10
29.00159362169353
 20
2.6889965139272
 10
29.11376411899891
 20
2.560038189765117
 10
29.32737967356207
 20
2.560038189765117
 10
29.13999480838106
 20
2.775467725762407
 42
0.0105244554857435
 10
28.88886932108983
 20
2.773755392477088
 10
28.66271243457582
 20
2.58371718720382
 10
28.69329665119762
 20
2.76722248693467
 42
0.0083241925565687
 10
28.52763063088184
 20
2.75943994238878
 10
28.49439700544456
 20
2.560038189765117
  0
LWPOLYLINE
  5
34C
102
{ACAD_REACTORS
330
350
102
}
330
2EB
100
AcDbEntity
  8
FORMAT
100
AcDbPolyline
 90
        7
 70
     1
 43
0.0
 10
27.85379733476327
 20
2.669165529635449
 10
27.89252030058969
 20
2.560038189765117
 10
28.22439509774364
 20
2.560038189765117
 10
28.2534481466875
 20
2.734356483428371
 42
0.0085307115550227
 10
28.08505320817211
 20
2.711324292315012
 10
28.06284416794594
 20
2.577987260808255
 10
28.01571075607803
 20
2.699450484025899
 42
0.014633201278307
  0
LWPOLYLINE
  5
34D
102
{ACAD_REACTORS
330
350
102
}
330
2EB
100
AcDbEntity
  8
FORMAT
100
AcDbPolyline
 90
        4
 70
     1
 43
0.0
 10
27.82625138631124
 20
2.746301120733491
 10
27.82647137730056
 20
2.746087929262984
 10
27.78730301109048
 20
2.857448970448498
 10
27.71638256267897
 20
2.746087929262984
  0
LWPOLYLINE
  5
34E
102
{ACAD_REACTORS
330
350
102
}
330
2EB
100
AcDbEntity
  8
FORMAT
100
AcDbPolyline
 90
        4
 70
     1
 43
0.0
 10
27.89524244557755
 20
3.009898395795563
 10
27.99604627712901
 20
2.75012602185323
 42
0.0660149720166298
 10
27.42096358594918
 20
2.560038189765119
 10
27.72221440253551
 20
3.009898395795563
  0
LWPOLYLINE
  5
34F
102
{ACAD_REACTORS
330
350
102
}
330
2EB
100
AcDbEntity
  8
FORMAT
100
AcDbPolyline
 90
       13
 70
     1
 43
0.0
 10
29.38348614891178
 20
3.009898395795563
 10
29.19279654184188
 20
2.849663121732444
 42
0.0022906596071181
 10
28.86759586955777
 20
2.843048835812439
 10
28.73192948971407
 20
2.999019518033357
 10
28.70471702376885
 20
2.835744722362004
 42
0.0274655559228494
 10
28.09477463227537
 20
2.769689076148374
 10
28.13478466086577
 20
3.009898395795563
 10
28.27250800784915
 20
3.009898395795563
 10
28.40846516441128
 20
2.86109542429461
 10
28.59422335947938
 20
3.009898395795563
 10
28.93608238153996
 20
3.009898395795563
 10
29.03481323325339
 20
2.896391141339901
 10
29.16989368840465
 20
3.009898395795563
  0
HATCH
  5
350
330
2EB
100
AcDbEntity
  8
FORMAT
100
AcDbHatch
 10
0.0
 20
0.0
 30
0.0
210
0.0
220
0.0
230
1.0
  2
SOLID
 70
     1
 71
     1
 91
        5
 92
        1
 93
        4
 72
     1
 10
27.89524244557755
 20
3.009898395795563
 11
27.99604627712901
 21
2.75012602185323
 72
     2
 10
28.42523413703466
 20
0.4867236379588187
 40
2.303734483509177
 50
100.7369884767685
 51
115.8445848643794
 73
     1
 72
     1
 10
27.42096358594918
 20
2.560038189765119
 11
27.72221440253551
 21
3.009898395795563
 72
     1
 10
27.72221440253551
 20
3.009898395795563
 11
27.89524244557755
 21
3.009898395795563
 97
        1
330
34E
 92
       16
 93
        4
 72
     1
 10
27.82625138631124
 20
2.746301120733491
 11
27.82647137730056
 21
2.746087929262984
 72
     1
 10
27.82647137730056
 20
2.746087929262984
 11
27.78730301109048
 21
2.857448970448498
 72
     1
 10
27.78730301109048
 20
2.857448970448498
 11
27.71638256267897
 21
2.746087929262984
 72
     1
 10
27.71638256267897
 20
2.746087929262984
 11
27.82625138631124
 21
2.746301120733491
 97
        1
330
34D
 92
        1
 93
        7
 72
     1
 10
27.85379733476327
 20
2.669165529635449
 11
27.89252030058969
 21
2.560038189765117
 72
     1
 10
27.89252030058969
 20
2.560038189765117
 11
28.22439509774364
 21
2.560038189765117
 72
     1
 10
28.22439509774364
 20
2.560038189765117
 11
28.2534481466875
 21
2.734356483428371
 72
     2
 10
28.84418016139653
 20
-2.211762160162989
 40
4.98127031485787
 50
96.81077116038439
 51
98.7658188097698
 73
     1
 72
     1
 10
28.08505320817211
 20
2.711324292315012
 11
28.06284416794594
 21
2.577987260808255
 72
     1
 10
28.06284416794594
 20
2.577987260808255
 11
28.01571075607803
 21
2.699450484025899
 72
     2
 10
28.4520446382265
 20
-0.0812992519853255
 40
2.814774653686729
 50
98.91769894924955
 51
102.2711423007092
 73
     1
 97
        1
330
34C
 92
        1
 93
       13
 72
     1
 10
29.38348614891178
 20
3.009898395795563
 11
29.19279654184188
 21
2.849663121732444
 72
     2
 10
29.75206810599112
 20
-32.64549153385557
 40
35.49956040159622
 50
90.90269359832781
 51
91.4276731912744
 73
     1
 72
     1
 10
28.86759586955777
 20
2.843048835812439
 11
28.73192948971407
 21
2.999019518033357
 72
     1
 10
28.73192948971407
 20
2.999019518033357
 11
28.70471702376885
 21
2.835744722362004
 72
     2
 10
29.00055122292874
 20
-2.744979632338445
 40
5.588559939424407
 50
93.03440911951204
 51
99.32746877910854
 73
     1
 72
     1
 10
28.09477463227537
 20
2.769689076148374
 11
28.13478466086577
 21
3.009898395795563
 72
     1
 10
28.13478466086577
 20
3.009898395795563
 11
28.27250800784915
 21
3.009898395795563
 72
     1
 10
28.27250800784915
 20
3.009898395795563
 11
28.40846516441128
 21
2.86109542429461
 72
     1
 10
28.40846516441128
 20
2.86109542429461
 11
28.59422335947938
 21
3.009898395795563
 72
     1
 10
28.59422335947938
 20
3.009898395795563
 11
28.93608238153996
 21
3.009898395795563
 72
     1
 10
28.93608238153996
 20
3.009898395795563
 11
29.03481323325339
 21
2.896391141339901
 72
     1
 10
29.03481323325339
 20
2.896391141339901
 11
29.16989368840465
 21
3.009898395795563
 72
     1
 10
29.16989368840465
 20
3.009898395795563
 11
29.38348614891178
 21
3.009898395795563
 97
        1
330
34F
 92
        1
 93
       10
 72
     1
 10
28.84812546490569
 20
2.560038189765117
 11
29.00159362169353
 21
2.6889965139272
 72
     1
 10
29.00159362169353
 20
2.6889965139272
 11
29.11376411899891
 21
2.560038189765117
 72
     1
 10
29.11376411899891
 20
2.560038189765117
 11
29.32737967356207
 21
2.560038189765117
 72
     1
 10
29.32737967356207
 20
2.560038189765117
 11
29.13999480838106
 21
2.775467725762407
 72
     2
 10
29.05510266338243
 20
-3.190012262200435
 40
5.966083988938442
 50
89.18470377236852
 51
91.59664224690866
 73
     1
 72
     1
 10
28.88886932108983
 20
2.773755392477088
 11
28.66271243457582
 21
2.58371718720382
 72
     1
 10
28.66271243457582
 20
2.58371718720382
 11
28.69329665119762
 21
2.76722248693467
 72
     2
 10
28.84418016139635
 20
-2.211762160162928
 40
4.981270314857797
 50
91.73576423011793
 51
93.6434845729463
 73
     1
 72
     1
 10
28.52763063088184
 20
2.75943994238878
 11
28.49439700544456
 21
2.560038189765117
 72
     1
 10
28.49439700544456
 20
2.560038189765117
 11
28.84812546490569
 21
2.560038189765117
 97
        1
330
34B
 75
     0
 76
     1
 98
        1
 10
27.40349142259076
 20
2.321955963782295
  0
INSERT
  5
351
330
2EB
100
AcDbEntity
  8
TB-TXT
100
AcDbBlockReference
 66
     1
  2
REV-BLOCK
 10
33.5
 20
20.80009599999999
 30
0.0
 41
0.969696969696969
 42
0.969696969696969
 43
0.969696969696969
  0
ATTRIB
  5
352
330
351
100
AcDbEntity
  8
TB-TXT
100
AcDbText
 10
26.17291762927964
 20
20.52214553638333
 30
0.0
 40
0.16
  1
???
  7
ARIAL
 72
     1
 11
26.35938420499587
 21
20.60214553638333
 31
0.0
100
AcDbAttribute
  2
REV
 70
     0
 74
     2
  0
ATTRIB
  5
353
330
351
100
AcDbEntity
  8
TB-TXT
100
AcDbText
 10
26.69157265819915
 20
20.53722017915365
 30
0.0
 40
0.16
  1
????
  7
ARIAL
100
AcDbAttribute
  2
ECN
 70
     0
  0
ATTRIB
  5
354
330
351
100
AcDbEntity
  8
TB-TXT
100
AcDbText
 10
27.36529819403024
 20
20.53955040620385
 30
0.0
 40
0.16
  1
????
  7
ARIAL
100
AcDbAttribute
  2
DESCRIPTION
 70
     0
  0
ATTRIB
  5
355
330
351
100
AcDbEntity
  8
TB-TXT
100
AcDbText
 10
31.39701244812438
 20
20.52214553638333
 30
0.0
 40
0.16
  1
????
  7
ARIAL
 72
     1
 11
31.64563454907936
 21
20.60214553638333
 31
0.0
100
AcDbAttribute
  2
REV-DATE
 70
     0
 74
     2
  0
ATTRIB
  5
356
330
351
100
AcDbEntity
  8
TB-TXT
100
AcDbText
 10
32.57173465967746
 20
20.52214553638333
 30
0.0
 40
0.16
  1
????
  7
ARIAL
 72
     1
 11
32.82035676063244
 21
20.60214553638333
 31
0.0
100
AcDbAttribute
  2
APPR
 70
     0
 74
     2
  0
SEQEND
  5
357
330
351
100
AcDbEntity
  8
TB-TXT
  0
INSERT
  5
358
330
2EB
100
AcDbEntity
  8
TB-TXT
100
AcDbBlockReference
 66
     1
  2
TITLE-BLOCK
 10
32.60259009549838
 20
0.4871808286051192
 30
0.0
 41
0.9696969696969773
 42
0.9696969696969773
 43
0.9696969696969773
  0
ATTRIB
  5
359
330
358
100
AcDbEntity
  8
TB-TXT
100
AcDbText
 10
27.31573458917869
 20
2.159556522670953
 30
0.0
 40
0.17
  1
TITLE- LINE 1 ??
  7
ARIAL
100
AcDbAttribute
  2
LINE1
 70
     0
  0
ATTRIB
  5
35A
330
358
100
AcDbEntity
  8
TB-TXT
100
AcDbText
 10
27.31573458917869
 20
1.908421630896071
 30
0.0
 40
0.17
  1
TITLE- LINE 2 ??
  7
ARIAL
100
AcDbAttribute
  2
LINE2
 70
     0
  0
ATTRIB
  5
35B
330
358
100
AcDbEntity
  8
TB-TXT
100
AcDbText
 10
27.31573458917869
 20
1.657286739121175
 30
0.0
 40
0.17
  1
TITLE- LINE 3 ??
  7
ARIAL
100
AcDbAttribute
  2
LINE3
 70
     0
  0
ATTRIB
  5
35C
330
358
100
AcDbEntity
  8
TB-TXT
100
AcDbText
 10
27.31573458917869
 20
1.406151847346279
 30
0.0
 40
0.17
  1
TITLE- LINE 4 ??
  7
ARIAL
100
AcDbAttribute
  2
LINE4
 70
     0
  0
ATTRIB
  5
35D
330
358
100
AcDbEntity
  8
TB-TXT
100
AcDbText
 10
28.67240744538594
 20
0.9393484331170611
 30
0.0
 40
0.17
  1
DRAWING NUMBER??
  7
ARIAL
100
AcDbAttribute
  2
DWG#
 70
     0
  0
ATTRIB
  5
35E
330
358
100
AcDbEntity
  8
TB-TXT
100
AcDbText
 10
29.67184955913904
 20
0.6131212011589185
 30
0.0
 40
0.1163636363636373
  1
FILE NO. ??
  7
ARIAL
100
AcDbAttribute
  2
FILE#
 70
     0
  0
ATTRIB
  5
35F
330
358
100
AcDbEntity
  8
TB-TXT
100
AcDbText
 10
33.10621402677758
 20
0.8957424961106962
 30
0.0
 40
0.17
  1
??
  7
ARIAL
 72
     4
 11
33.23829451790992
 21
0.9821920186209283
 31
0.0
100
AcDbAttribute
  2
REV
 70
     0
  0
ATTRIB
  5
360
330
358
100
AcDbEntity
  8
TB-TXT
100
AcDbText
 10
27.7341555078267
 20
0.5791391671473889
 30
0.0
 40
0.17
  1
??
  7
ARIAL
100
AcDbAttribute
  2
SCALE
 70
     0
  0
ATTRIB
  5
361
330
358
100
AcDbEntity
  8
TB-TXT
100
AcDbText
 10
32.56139344279876
 20
0.585935475765524
 30
0.0
 40
0.17
  1
? OF ?
  7
ARIAL
100
AcDbAttribute
  2
SHT#
 70
     0
  0
SEQEND
  5
362
330
358
100
AcDbEntity
  8
TB-TXT
  0
TEXT
  5
363
330
2EB
100
AcDbEntity
  8
FORMAT
100
AcDbText
 10
29.37565033606138
 20
2.561556359369892
 30
0.0
 40
0.0583271326082317
  1
TM
  7
ARIAL
 11
29.37565033606138
 21
2.590719925674008
 31
0.0
100
AcDbText
 73
     2
  0
TEXT
  5
364
330
2EB
100
AcDbEntity
  8
FORMAT
  6
BYBLOCK
100
AcDbText
 10
31.43486788649962
 20
2.911254421449086
 30
0.0
 40
0.1035906873199564
  1
AMX LLC
 41
1.011836867459718
  7
ARIAL
100
AcDbText
  0
TEXT
  5
365
330
2EB
100
AcDbEntity
  8
FORMAT
  6
BYBLOCK
100
AcDbText
 10
31.43486788649962
 20
2.733670985046202
 30
0.0
 40
0.1035906873199564
  1
3000 RESEARCH DRIVE
 41
1.011836867459718
  7
ARIAL
100
AcDbText
  0
TEXT
  5
366
330
2EB
100
AcDbEntity
  8
FORMAT
  6
BYBLOCK
100
AcDbText
 10
31.4299650373904
 20
2.556087548643318
 30
0.0
 40
0.1035906873199564
  1
RICHARDSON, TX 75082
 41
1.018884921437547
  7
ARIAL
100
AcDbText
  0
LWPOLYLINE
  5
367
330
2EB
100
AcDbEntity
  8
FORMAT
100
AcDbPolyline
 90
        2
 70
     0
 43
0.0192
 10
32.19495213158492
 20
20.24009599999999
 10
32.19495213158492
 20
21.14083199999999
  0
TEXT
  5
368
330
2EB
100
AcDbEntity
  8
FORMAT
100
AcDbText
 10
32.36793583690554
 20
20.92767073851941
 30
0.0
 40
0.1152
  1
APPROVED
  7
ARIAL
 72
     1
 11
32.81498413158493
 21
20.92767073851941
 31
0.0
100
AcDbText
  0
LWPOLYLINE
  5
369
330
2EB
100
AcDbEntity
  8
FORMAT
100
AcDbPolyline
 90
        2
 70
     0
 43
0.0192
 10
31.07495213158492
 20
20.24009599999999
 10
31.07495213158492
 20
21.14083199999999
  0
TEXT
  5
36A
330
2EB
100
AcDbEntity
  8
FORMAT
100
AcDbText
 10
29.2080590200652
 20
21.23746077739912
 30
0.0
 40
0.1536
  1
REVISIONS
  7
ARIAL
 72
     1
 11
29.79233623698198
 21
21.23746077739912
 31
0.0
100
AcDbText
  0
LWPOLYLINE
  5
36B
330
2EB
100
AcDbEntity
  8
FORMAT
100
AcDbPolyline
 90
        2
 70
     0
 43
0.0192
 10
27.25043331858677
 20
20.24009599999999
 10
27.25043331858677
 20
21.14083199999999
  0
LWPOLYLINE
  5
36C
330
2EB
100
AcDbEntity
  8
FORMAT
100
AcDbPolyline
 90
        2
 70
     0
 43
0.0192
 10
26.62956753654293
 20
20.24009599999999
 10
26.62956753654293
 20
21.14083199999999
  0
TEXT
  5
36D
330
2EB
100
AcDbEntity
  8
FORMAT
100
AcDbText
 10
26.74304974983577
 20
20.92767073851941
 30
0.0
 40
0.1152
  1
ECN
  7
ARIAL
 72
     1
 11
26.91294224642513
 21
20.92767073851941
 31
0.0
100
AcDbText
  0
TEXT
  5
36E
330
2EB
100
AcDbEntity
  8
FORMAT
100
AcDbText
 10
26.18748958612499
 20
20.92767073851941
 30
0.0
 40
0.1152
  1
REV
  7
ARIAL
 72
     1
 11
26.35294224642513
 21
20.92767073851941
 31
0.0
100
AcDbText
  0
LWPOLYLINE
  5
36F
330
2EB
100
AcDbEntity
  8
FORMAT
100
AcDbPolyline
 90
        2
 70
     0
 43
0.0256
 10
26.06956753654294
 20
21.49999999999999
 10
26.06956753654294
 20
20.24009599999999
  0
TEXT
  5
370
330
2EB
100
AcDbEntity
  8
FORMAT
100
AcDbText
 10
28.60366222122361
 20
20.92767073851941
 30
0.0
 40
0.1152
  1
DESCRIPTION
  7
ARIAL
 72
     1
 11
29.1535732717011
 21
20.92767073851941
 31
0.0
100
AcDbText
  0
TEXT
  5
371
330
2EB
100
AcDbEntity
  8
FORMAT
100
AcDbText
 10
31.40037894741029
 20
20.92767073851941
 30
0.0
 40
0.1152
  1
DATE
  7
ARIAL
 72
     1
 11
31.61498413158492
 21
20.92767073851941
 31
0.0
100
AcDbText
  0
LWPOLYLINE
  5
372
330
2EB
100
AcDbEntity
  8
FORMAT
100
AcDbPolyline
 90
        2
 70
     0
 43
0.0192
 10
26.06956753654294
 20
21.14083199999999
 10
33.5
 20
21.14083199999999
  0
LWPOLYLINE
  5
373
330
2EB
100
AcDbEntity
  8
FORMAT
100
AcDbPolyline
 90
        2
 70
     0
 43
0.0192
 10
26.06956753654294
 20
20.80009599999999
 10
33.5
 20
20.80009599999999
  0
TEXT
  5
374
330
2EB
100
AcDbEntity
  8
FORMAT
100
AcDbText
 10
33.0763005219085
 20
1.112168497683782
 30
0.0
 40
0.1088
  1
REV.
  7
ARIAL
 72
     1
 11
33.25367569244056
 21
1.112168497683782
 31
0.0
100
AcDbText
  0
TEXT
  5
375
330
2EB
100
AcDbEntity
  8
FORMAT
100
AcDbText
 10
31.85237387102683
 20
0.6672081632976301
 30
0.0
 40
0.1163636363636364
  1
SHEET
  7
ARIAL
100
AcDbText
  0
TEXT
  5
376
330
2EB
100
AcDbEntity
  8
FORMAT
100
AcDbText
 10
27.68095276043268
 20
1.112168497683782
 30
0.0
 40
0.1088
  1
DWG. NO.
  7
ARIAL
100
AcDbText
  0
TEXT
  5
377
330
2EB
100
AcDbEntity
  8
FORMAT
100
AcDbText
 10
27.18997948867459
 20
1.112168497683782
 30
0.0
 40
0.1088
  1
SIZE
  7
ARIAL
100
AcDbText
  0
LWPOLYLINE
  5
378
330
2EB
100
AcDbEntity
  8
FORMAT
100
AcDbPolyline
 90
        2
 70
     0
 43
0.0128
 10
25.63662467048089
 20
0.8009602925574199
 10
25.78320002298025
 20
0.8009602925574199
  0
LWPOLYLINE
  5
379
330
2EB
100
AcDbEntity
  8
FORMAT
100
AcDbPolyline
 90
        2
 70
     1
 43
0.0128
 10
25.7476715218181
 20
0.8009602925574199
 42
0.9999999999999998
 10
25.4116715218181
 20
0.8009602925574199
 42
1.0
  0
LWPOLYLINE
  5
37A
330
2EB
100
AcDbEntity
  8
FORMAT
100
AcDbPolyline
 90
        2
 70
     1
 43
0.0128
 10
25.6564715218181
 20
0.8009602925574199
 42
0.9999999999999998
 10
25.50287152181811
 20
0.8009602925574199
 42
1.0
  0
LWPOLYLINE
  5
37B
330
2EB
100
AcDbEntity
  8
FORMAT
100
AcDbPolyline
 90
        2
 70
     0
 43
0.0128
 10
25.57967152181811
 20
1.023234780957793
 10
25.57967152181811
 20
0.8579134412198783
  0
LWPOLYLINE
  5
37C
330
2EB
100
AcDbEntity
  8
FORMAT
100
AcDbPolyline
 90
        2
 70
     0
 43
0.0128
 10
25.55471837315534
 20
0.8009602925574199
 10
25.60462467048087
 20
0.8009602925574199
  0
LWPOLYLINE
  5
37D
330
2EB
100
AcDbEntity
  8
FORMAT
100
AcDbPolyline
 90
        2
 70
     0
 43
0.0128
 10
25.57967152181811
 20
0.7440071438953453
 10
25.57967152181811
 20
0.5836946164949382
  0
LWPOLYLINE
  5
37E
330
2EB
100
AcDbEntity
  8
FORMAT
100
AcDbPolyline
 90
        2
 70
     0
 43
0.0128
 10
25.57967152181811
 20
0.8259134412194555
 10
25.57967152181811
 20
0.7760071438963081
  0
LWPOLYLINE
  5
37F
330
2EB
100
AcDbEntity
  8
FORMAT
100
AcDbPolyline
 90
        2
 70
     0
 43
0.0128
 10
25.3654010850568
 20
0.8009602925574199
 10
25.52271837315531
 20
0.8009602925574199
  0
LWPOLYLINE
  5
380
330
2EB
100
AcDbEntity
  8
FORMAT
  6
CENTER
100
AcDbPolyline
 90
        2
 70
     0
 43
0.0128
 10
25.81066408562731
 20
0.8009602925574199
 10
26.43894105695028
 20
0.8009602925574199
  0
LWPOLYLINE
  5
381
330
2EB
100
AcDbEntity
  8
FORMAT
100
AcDbPolyline
 90
        4
 70
     1
 43
0.0128
 10
26.0118528121386
 20
0.8777602925574115
 10
26.35745281213861
 20
0.9689602925574121
 10
26.3574528121386
 20
0.6372473945541799
 10
26.0118528121386
 20
0.7241602925574142
  0
TEXT
  5
382
330
2EB
100
AcDbEntity
  8
FORMAT
100
AcDbText
 10
19.75495393651598
 20
0.6510078903925703
 30
0.0
 40
0.131328
  1
written permission.
  7
ARIAL
100
AcDbText
  0
TEXT
  5
383
330
2EB
100
AcDbEntity
  8
FORMAT
100
AcDbText
 10
19.74984773187751
 20
1.96876701726844
 30
0.0
 40
0.131328
  1
shall be confidential except
  7
ARIAL
100
AcDbText
  0
TEXT
  5
384
330
2EB
100
AcDbEntity
  8
FORMAT
100
AcDbText
 10
19.7415165558884
 20
2.85100570758221
 30
0.0
 40
0.131328
  1
NOTICE:   This drawing is the 
  7
ARIAL
100
AcDbText
  0
TEXT
  5
385
330
2EB
100
AcDbEntity
  8
FORMAT
100
AcDbText
 10
19.74339778917627
 20
2.629886144144286
 30
0.0
 40
0.131328
  1
property of AMX LLC.
  7
ARIAL
100
AcDbText
  0
TEXT
  5
386
330
2EB
100
AcDbEntity
  8
FORMAT
100
AcDbText
 10
19.75226646039044
 20
2.18988658070635
 30
0.0
 40
0.131328
  1
that is not generally known 
  7
ARIAL
100
AcDbText
  0
TEXT
  5
387
330
2EB
100
AcDbEntity
  8
FORMAT
100
AcDbText
 10
19.75226646039044
 20
1.747647453830502
 30
0.0
 40
0.131328
  1
to the extent the information
  7
ARIAL
100
AcDbText
  0
TEXT
  5
388
330
2EB
100
AcDbEntity
  8
FORMAT
100
AcDbText
 10
19.74339778917627
 20
1.528767453830504
 30
0.0
 40
0.131328
  1
has been previously established.
  7
ARIAL
100
AcDbText
  0
TEXT
  5
389
330
2EB
100
AcDbEntity
  8
FORMAT
100
AcDbText
 10
19.75119146994023
 20
1.309887453830505
 30
0.0
 40
0.131328
  1
This drawing may not be copied,
  7
ARIAL
100
AcDbText
  0
TEXT
  5
38A
330
2EB
100
AcDbEntity
  8
FORMAT
100
AcDbText
 10
19.75378936352825
 20
0.869887890392583
 30
0.0
 40
0.131328
  1
for manufacture or sale without
  7
ARIAL
100
AcDbText
  0
TEXT
  5
38B
330
2EB
100
AcDbEntity
  8
FORMAT
100
AcDbText
 10
19.74357695425132
 20
1.091007453830492
 30
0.0
 40
0.131328
  1
reproduced, or used as the basis
  7
ARIAL
100
AcDbText
  0
TEXT
  5
38C
330
2EB
100
AcDbEntity
  8
FORMAT
100
AcDbText
 10
19.74330820663874
 20
2.408766580706362
 30
0.0
 40
0.131328
  1
All information contained herein
  7
ARIAL
100
AcDbText
  0
LWPOLYLINE
  5
38D
330
2EB
100
AcDbEntity
  8
FORMAT
100
AcDbPolyline
 90
        4
 70
     1
 43
0.0290909090909091
 10
0.5
 20
0.5
 10
33.5
 20
0.5
 10
33.5
 20
21.49999999999999
 10
0.5
 20
21.49999999999999
  0
ENDBLK
  5
38F
330
2EB
100
AcDbEntity
  8
0
100
AcDbBlockEnd
  0
BLOCK
  5
517
330
39B
100
AcDbEntity
  8
0
100
AcDbBlockBegin
  2
95-5968-43
 70
     0
 10
0.0
 20
0.0
 30
0.0
  3
95-5968-43
  1

  0
CIRCLE
  5
39C
330
39B
100
AcDbEntity
  8
PART
  6
CONTINUOUS
100
AcDbCircle
 10
17.21364967025506
 20
9.368523768228044
 30
0.0
 40
0.0470999999991566
  0
CIRCLE
  5
39D
330
39B
100
AcDbEntity
  8
PART
  6
CONTINUOUS
100
AcDbCircle
 10
17.21364967025506
 20
9.368523768228044
 30
0.0
 40
0.0689999999990079
  0
CIRCLE
  5
39E
330
39B
100
AcDbEntity
  8
PART
  6
CONTINUOUS
100
AcDbCircle
 10
17.21364967025506
 20
9.368523768228044
 30
0.0
 40
0.1059999999999999
  0
CIRCLE
  5
39F
330
39B
100
AcDbEntity
  8
PART
  6
CONTINUOUS
100
AcDbCircle
 10
11.52072967025506
 20
12.55750376822804
 30
0.0
 40
0.0470999999991566
  0
CIRCLE
  5
3A0
330
39B
100
AcDbEntity
  8
PART
  6
CONTINUOUS
100
AcDbCircle
 10
11.52072967025506
 20
12.55750376822804
 30
0.0
 40
0.0689999999990079
  0
CIRCLE
  5
3A1
330
39B
100
AcDbEntity
  8
PART
  6
CONTINUOUS
100
AcDbCircle
 10
11.52072967025506
 20
12.55750376822804
 30
0.0
 40
0.1059999999999999
  0
LINE
  5
3A2
330
39B
100
AcDbEntity
  8
PART
  6
CONTINUOUS
100
AcDbLine
 10
5.817189667251368
 20
8.353013785837228
 30
0.0
 11
5.817189667251368
 21
8.533013799795039
 31
0.0
  0
LINE
  5
3A3
330
39B
100
AcDbEntity
  8
PART
  6
CONTINUOUS
100
AcDbLine
 10
4.867189601733191
 20
8.353013785837228
 30
0.0
 11
5.817189667251368
 21
8.353013785837228
 31
0.0
  0
LINE
  5
3A4
330
39B
100
AcDbEntity
  8
PART
  6
CONTINUOUS
100
AcDbLine
 10
4.867189601733191
 20
13.57301375061886
 30
0.0
 11
4.867189601733191
 21
8.353013785837228
 31
0.0
  0
LINE
  5
3A5
330
39B
100
AcDbEntity
  8
PART
  6
CONTINUOUS
100
AcDbLine
 10
5.817189667251368
 20
13.57301375061886
 30
0.0
 11
4.867189601733191
 21
13.57301375061886
 31
0.0
  0
LINE
  5
3A6
330
39B
100
AcDbEntity
  8
PART
  6
CONTINUOUS
100
AcDbLine
 10
5.817189667251368
 20
13.39301373666105
 30
0.0
 11
5.817189667251368
 21
13.57301375061886
 31
0.0
  0
LINE
  5
3A7
330
39B
100
AcDbEntity
  8
PART
  6
CONTINUOUS
100
AcDbLine
 10
5.867189516315511
 20
13.39301373666105
 30
0.0
 11
5.817189667251368
 21
13.39301373666105
 31
0.0
  0
LINE
  5
3A8
330
39B
100
AcDbEntity
  8
PART
  6
CONTINUOUS
100
AcDbLine
 10
22.86718982419462
 20
13.39301373666105
 30
0.0
 11
5.867189516315511
 21
13.39301373666105
 31
0.0
  0
LINE
  5
3A9
330
39B
100
AcDbEntity
  8
PART
  6
CONTINUOUS
100
AcDbLine
 10
22.91718967325877
 20
13.39301373666105
 30
0.0
 11
22.86718982419462
 21
13.39301373666105
 31
0.0
  0
LINE
  5
3AA
330
39B
100
AcDbEntity
  8
PART
  6
CONTINUOUS
100
AcDbLine
 10
22.91718967325877
 20
13.57301375061886
 30
0.0
 11
22.91718967325877
 21
13.39301373666105
 31
0.0
  0
LINE
  5
3AB
330
39B
100
AcDbEntity
  8
PART
  6
CONTINUOUS
100
AcDbLine
 10
23.86718973877694
 20
13.57301375061886
 30
0.0
 11
22.91718967325877
 21
13.57301375061886
 31
0.0
  0
LINE
  5
3AC
330
39B
100
AcDbEntity
  8
PART
  6
CONTINUOUS
100
AcDbLine
 10
23.86718973877694
 20
8.353013785837228
 30
0.0
 11
23.86718973877694
 21
13.57301375061886
 31
0.0
  0
LINE
  5
3AD
330
39B
100
AcDbEntity
  8
PART
  6
CONTINUOUS
100
AcDbLine
 10
22.91718967325877
 20
8.353013785837228
 30
0.0
 11
23.86718973877694
 21
8.353013785837228
 31
0.0
  0
LINE
  5
3AE
330
39B
100
AcDbEntity
  8
PART
  6
CONTINUOUS
100
AcDbLine
 10
22.91718967325877
 20
8.533013799795039
 30
0.0
 11
22.91718967325877
 21
8.353013785837228
 31
0.0
  0
LINE
  5
3AF
330
39B
100
AcDbEntity
  8
PART
  6
CONTINUOUS
100
AcDbLine
 10
22.86718982419462
 20
8.533013799795039
 30
0.0
 11
22.91718967325877
 21
8.533013799795039
 31
0.0
  0
LINE
  5
3B0
330
39B
100
AcDbEntity
  8
PART
  6
CONTINUOUS
100
AcDbLine
 10
5.867189516315511
 20
8.533013799795039
 30
0.0
 11
22.86718982419462
 21
8.533013799795039
 31
0.0
  0
LINE
  5
3B1
330
39B
100
AcDbEntity
  8
PART
  6
CONTINUOUS
100
AcDbLine
 10
5.817189667251368
 20
8.533013799795039
 30
0.0
 11
5.867189516315511
 21
8.533013799795039
 31
0.0
  0
LINE
  5
3B2
330
39B
100
AcDbEntity
  8
PART
  6
CONTINUOUS
100
AcDbLine
 10
23.46868986228152
 20
11.94851379698095
 30
0.0
 11
23.59368948494188
 21
11.94851379698095
 31
0.0
  0
ARC
  5
3B3
330
39B
100
AcDbEntity
  8
PART
  6
CONTINUOUS
100
AcDbCircle
 10
23.59368967025506
 20
12.08901376822804
 30
0.0
 40
0.1405000000000012
100
AcDbArc
 50
270.0000000000008
 51
90.0
  0
LINE
  5
3B4
330
39B
100
AcDbEntity
  8
PART
  6
CONTINUOUS
100
AcDbLine
 10
23.59368948494188
 20
12.22951376417868
 30
0.0
 11
23.46868986228152
 21
12.22951376417868
 31
0.0
  0
ARC
  5
3B5
330
39B
100
AcDbEntity
  8
PART
  6
CONTINUOUS
100
AcDbCircle
 10
23.46868967025506
 20
12.08901376822804
 30
0.0
 40
0.1405000000000012
100
AcDbArc
 50
90.0
 51
270.0000000000008
  0
LINE
  5
3B6
330
39B
100
AcDbEntity
  8
PART
  6
CONTINUOUS
100
AcDbLine
 10
23.46868986228152
 20
9.697513734059095
 30
0.0
 11
23.59368948494188
 21
9.697513734059095
 31
0.0
  0
ARC
  5
3B7
330
39B
100
AcDbEntity
  8
PART
  6
CONTINUOUS
100
AcDbCircle
 10
23.59368967025506
 20
9.838013768228044
 30
0.0
 40
0.1405000000000012
100
AcDbArc
 50
270.0000000000008
 51
90.0
  0
LINE
  5
3B8
330
39B
100
AcDbEntity
  8
PART
  6
CONTINUOUS
100
AcDbLine
 10
23.59368948494188
 20
9.978513774589314
 30
0.0
 11
23.46868986228152
 21
9.978513774589314
 31
0.0
  0
ARC
  5
3B9
330
39B
100
AcDbEntity
  8
PART
  6
CONTINUOUS
100
AcDbCircle
 10
23.46868967025506
 20
9.838013768228044
 30
0.0
 40
0.1405000000000012
100
AcDbArc
 50
90.0
 51
270.0000000000008
  0
ARC
  5
3BA
330
39B
100
AcDbEntity
  8
PART
  6
CONTINUOUS
100
AcDbCircle
 10
5.140689670255067
 20
12.08901376822804
 30
0.0
 40
0.1405000000000012
100
AcDbArc
 50
90.0
 51
270.0000000000008
  0
LINE
  5
3BB
330
39B
100
AcDbEntity
  8
PART
  6
CONTINUOUS
100
AcDbLine
 10
5.140689855568254
 20
11.94851379698095
 30
0.0
 11
5.265689478228613
 21
11.94851379698095
 31
0.0
  0
ARC
  5
3BC
330
39B
100
AcDbEntity
  8
PART
  6
CONTINUOUS
100
AcDbCircle
 10
5.265689670255068
 20
12.08901376822804
 30
0.0
 40
0.1405000000000012
100
AcDbArc
 50
270.0000000000008
 51
90.0
  0
LINE
  5
3BD
330
39B
100
AcDbEntity
  8
PART
  6
CONTINUOUS
100
AcDbLine
 10
5.265689478228613
 20
12.22951376417868
 30
0.0
 11
5.140689855568254
 21
12.22951376417868
 31
0.0
  0
ARC
  5
3BE
330
39B
100
AcDbEntity
  8
PART
  6
CONTINUOUS
100
AcDbCircle
 10
5.140689670255067
 20
9.838013768228044
 30
0.0
 40
0.1405000000000012
100
AcDbArc
 50
90.0
 51
270.0000000000008
  0
LINE
  5
3BF
330
39B
100
AcDbEntity
  8
PART
  6
CONTINUOUS
100
AcDbLine
 10
5.140689855568254
 20
9.697513734059095
 30
0.0
 11
5.265689478228613
 21
9.697513734059095
 31
0.0
  0
ARC
  5
3C0
330
39B
100
AcDbEntity
  8
PART
  6
CONTINUOUS
100
AcDbCircle
 10
5.265689670255068
 20
9.838013768228044
 30
0.0
 40
0.1405000000000012
100
AcDbArc
 50
270.0000000000008
 51
90.0
  0
LINE
  5
3C1
330
39B
100
AcDbEntity
  8
PART
  6
CONTINUOUS
100
AcDbLine
 10
5.265689478228613
 20
9.978513774589314
 30
0.0
 11
5.140689855568254
 21
9.978513774589314
 31
0.0
  0
LINE
  5
3C2
330
39B
100
AcDbEntity
  8
PART
  6
CONTINUOUS
100
AcDbLine
 10
17.84218974009106
 20
13.00301382863993
 30
0.0
 11
10.89218960041907
 21
13.00301382863993
 31
0.0
  0
LINE
  5
3C3
330
39B
100
AcDbEntity
  8
PART
  6
CONTINUOUS
100
AcDbLine
 10
10.89218960041907
 20
13.00301382863993
 30
0.0
 11
10.89218960041907
 21
12.91301374832854
 31
0.0
  0
LINE
  5
3C4
330
39B
100
AcDbEntity
  8
PART
  6
CONTINUOUS
100
AcDbLine
 10
10.89218960041907
 20
9.013013788127548
 30
0.0
 11
10.89218960041907
 21
12.91301374832854
 31
0.0
  0
LINE
  5
3C5
330
39B
100
AcDbEntity
  8
PART
  6
CONTINUOUS
100
AcDbLine
 10
10.89218960041907
 20
8.923013707816156
 30
0.0
 11
17.84218974009106
 21
8.923013707816156
 31
0.0
  0
LINE
  5
3C6
330
39B
100
AcDbEntity
  8
PART
  6
CONTINUOUS
100
AcDbLine
 10
17.84218974009106
 20
8.923013707816156
 30
0.0
 11
17.84218974009106
 21
9.013013788127548
 31
0.0
  0
LINE
  5
3C7
330
39B
100
AcDbEntity
  8
PART
  6
CONTINUOUS
100
AcDbLine
 10
17.84218974009106
 20
12.91301374832854
 30
0.0
 11
17.84218974009106
 21
9.013013788127548
 31
0.0
  0
LINE
  5
3C8
330
39B
100
AcDbEntity
  8
PART
  6
CONTINUOUS
100
AcDbLine
 10
10.89218960041907
 20
9.013013788127548
 30
0.0
 11
10.89218960041907
 21
8.923013707816156
 31
0.0
  0
LINE
  5
3C9
330
39B
100
AcDbEntity
  8
PART
  6
CONTINUOUS
100
AcDbLine
 10
17.84218974009106
 20
12.91301374832854
 30
0.0
 11
17.84218974009106
 21
13.00301382863993
 31
0.0
  0
LINE
  5
3CA
330
39B
100
AcDbEntity
  8
PART
  6
CONTINUOUS
100
AcDbLine
 10
5.867189516315511
 20
13.39301373666105
 30
0.0
 11
5.867189516315511
 21
13.57301375061886
 31
0.0
  0
LINE
  5
3CB
330
39B
100
AcDbEntity
  8
PART
  6
CONTINUOUS
100
AcDbLine
 10
22.86718982419462
 20
13.57301375061886
 30
0.0
 11
5.867189516315511
 21
13.57301375061886
 31
0.0
  0
LINE
  5
3CC
330
39B
100
AcDbEntity
  8
PART
  6
CONTINUOUS
100
AcDbLine
 10
22.86718982419462
 20
13.39301373666105
 30
0.0
 11
22.86718982419462
 21
13.57301375061886
 31
0.0
  0
LINE
  5
3CD
330
39B
100
AcDbEntity
  8
PART
  6
CONTINUOUS
100
AcDbLine
 10
17.66218957946827
 20
9.013013788127548
 30
0.0
 11
17.84218974009106
 21
9.013013788127548
 31
0.0
  0
LINE
  5
3CE
330
39B
100
AcDbEntity
  8
PART
  6
CONTINUOUS
100
AcDbLine
 10
17.66218957946827
 20
12.91301374832854
 30
0.0
 11
17.66218957946827
 21
9.013013788127548
 31
0.0
  0
LINE
  5
3CF
330
39B
100
AcDbEntity
  8
PART
  6
CONTINUOUS
100
AcDbLine
 10
17.84218974009106
 20
12.91301374832854
 30
0.0
 11
17.66218957946827
 21
12.91301374832854
 31
0.0
  0
LINE
  5
3D0
330
39B
100
AcDbEntity
  8
PART
  6
CONTINUOUS
100
AcDbLine
 10
11.07218976104185
 20
12.91301374832854
 30
0.0
 11
10.89218960041907
 21
12.91301374832854
 31
0.0
  0
LINE
  5
3D1
330
39B
100
AcDbEntity
  8
PART
  6
CONTINUOUS
100
AcDbLine
 10
11.07218976104185
 20
9.013013788127548
 30
0.0
 11
11.07218976104185
 21
12.91301374832854
 31
0.0
  0
LINE
  5
3D2
330
39B
100
AcDbEntity
  8
PART
  6
CONTINUOUS
100
AcDbLine
 10
10.89218960041907
 20
9.013013788127548
 30
0.0
 11
11.07218976104185
 21
9.013013788127548
 31
0.0
  0
LINE
  5
3D3
330
39B
100
AcDbEntity
  8
PART
  6
CONTINUOUS
100
AcDbLine
 10
5.867189516315511
 20
8.353013785837228
 30
0.0
 11
22.86718982419462
 21
8.353013785837228
 31
0.0
  0
LINE
  5
3D4
330
39B
100
AcDbEntity
  8
PART
  6
CONTINUOUS
100
AcDbLine
 10
5.867189516315511
 20
8.353013785837228
 30
0.0
 11
5.867189516315511
 21
8.533013799795039
 31
0.0
  0
LINE
  5
3D5
330
39B
100
AcDbEntity
  8
PART
  6
CONTINUOUS
100
AcDbLine
 10
22.86718982419462
 20
8.353013785837228
 30
0.0
 11
22.86718982419462
 21
8.533013799795039
 31
0.0
  0
LINE
  5
3D6
330
39B
100
AcDbEntity
  8
PART
  6
CONTINUOUS
100
AcDbLine
 10
11.1621895480233
 20
12.91301374832854
 30
0.0
 11
11.1621895480233
 21
9.013013788127548
 31
0.0
  0
LINE
  5
3D7
330
39B
100
AcDbEntity
  8
PART
  6
CONTINUOUS
100
AcDbLine
 10
11.07218976104185
 20
9.013013788127548
 30
0.0
 11
11.1621895480233
 21
9.013013788127548
 31
0.0
  0
LINE
  5
3D8
330
39B
100
AcDbEntity
  8
PART
  6
CONTINUOUS
100
AcDbLine
 10
11.1621895480233
 20
12.91301374832854
 30
0.0
 11
11.07218976104185
 21
12.91301374832854
 31
0.0
  0
LINE
  5
3D9
330
39B
100
AcDbEntity
  8
PART
  6
CONTINUOUS
100
AcDbLine
 10
17.57218979248682
 20
9.013013788127548
 30
0.0
 11
17.57218979248682
 21
12.91301374832854
 31
0.0
  0
LINE
  5
3DA
330
39B
100
AcDbEntity
  8
PART
  6
CONTINUOUS
100
AcDbLine
 10
17.66218957946827
 20
12.91301374832854
 30
0.0
 11
17.57218979248682
 21
12.91301374832854
 31
0.0
  0
LINE
  5
3DB
330
39B
100
AcDbEntity
  8
PART
  6
CONTINUOUS
100
AcDbLine
 10
17.57218979248682
 20
9.013013788127548
 30
0.0
 11
17.66218957946827
 21
9.013013788127548
 31
0.0
  0
LINE
  5
3DC
330
39B
100
AcDbEntity
  8
PART
  6
CONTINUOUS
100
AcDbLine
 10
16.9121897901965
 20
12.91301374832854
 30
0.0
 11
16.9121897901965
 21
9.013013788127548
 31
0.0
  0
LINE
  5
3DD
330
39B
100
AcDbEntity
  8
PART
  6
CONTINUOUS
100
AcDbLine
 10
17.57218979248682
 20
12.91301374832854
 30
0.0
 11
16.9121897901965
 21
12.91301374832854
 31
0.0
  0
LINE
  5
3DE
330
39B
100
AcDbEntity
  8
PART
  6
CONTINUOUS
100
AcDbLine
 10
16.9121897901965
 20
9.013013788127548
 30
0.0
 11
17.57218979248682
 21
9.013013788127548
 31
0.0
  0
LINE
  5
3DF
330
39B
100
AcDbEntity
  8
PART
  6
CONTINUOUS
100
AcDbLine
 10
11.82218955031362
 20
9.013013788127548
 30
0.0
 11
11.82218955031362
 21
12.91301374832854
 31
0.0
  0
LINE
  5
3E0
330
39B
100
AcDbEntity
  8
PART
  6
CONTINUOUS
100
AcDbLine
 10
11.1621895480233
 20
9.013013788127548
 30
0.0
 11
11.82218955031362
 21
9.013013788127548
 31
0.0
  0
LINE
  5
3E1
330
39B
100
AcDbEntity
  8
PART
  6
CONTINUOUS
100
AcDbLine
 10
11.82218955031362
 20
12.91301374832854
 30
0.0
 11
11.1621895480233
 21
12.91301374832854
 31
0.0
  0
LINE
  5
3E2
330
39B
100
AcDbEntity
  8
PART
100
AcDbLine
 10
5.000189670255067
 20
12.08901376822804
 30
0.0
 11
5.406189670255068
 21
12.08901376822804
 31
0.0
  0
LINE
  5
3E3
330
39B
100
AcDbEntity
  8
PART
100
AcDbLine
 10
5.203189670255068
 20
12.22951376822804
 30
0.0
 11
5.203189670255067
 21
11.94851376822804
 31
0.0
  0
LINE
  5
3E4
330
39B
100
AcDbEntity
  8
PART
100
AcDbLine
 10
5.000189670255067
 20
9.838013768228044
 30
0.0
 11
5.406189670255068
 21
9.838013768228044
 31
0.0
  0
LINE
  5
3E5
330
39B
100
AcDbEntity
  8
PART
100
AcDbLine
 10
5.203189670255068
 20
9.978513768228046
 30
0.0
 11
5.203189670255067
 21
9.697513768228045
 31
0.0
  0
LINE
  5
3E6
330
39B
100
AcDbEntity
  8
PART
100
AcDbLine
 10
23.32818967025506
 20
12.08901376822804
 30
0.0
 11
23.73418967025507
 21
12.08901376822804
 31
0.0
  0
LINE
  5
3E7
330
39B
100
AcDbEntity
  8
PART
100
AcDbLine
 10
23.32818967025506
 20
9.838013768228044
 30
0.0
 11
23.73418967025507
 21
9.838013768228044
 31
0.0
  0
LINE
  5
3E8
330
39B
100
AcDbEntity
  8
PART
100
AcDbLine
 10
23.53118967025506
 20
12.22951376822804
 30
0.0
 11
23.53118967025506
 21
11.94851376822804
 31
0.0
  0
LINE
  5
3E9
330
39B
100
AcDbEntity
  8
PART
100
AcDbLine
 10
23.53118967025506
 20
9.978513768228046
 30
0.0
 11
23.53118967025506
 21
9.697513768228045
 31
0.0
  0
LINE
  5
3EA
330
39B
100
AcDbEntity
  8
PART
  6
CONTINUOUS
100
AcDbLine
 10
17.10764961222796
 20
18.24372263561338
 30
0.0
 11
17.10764961222796
 21
18.03684259884255
 31
0.0
  0
LINE
  5
3EB
330
39B
100
AcDbEntity
  8
PART
  6
CONTINUOUS
100
AcDbLine
 10
17.31964972318459
 20
18.03684259884255
 30
0.0
 11
17.31964972318459
 21
18.24372263561338
 31
0.0
  0
LINE
  5
3EC
330
39B
100
AcDbEntity
  8
PART
  6
CONTINUOUS
100
AcDbLine
 10
17.10764961222796
 20
18.25884262094602
 30
0.0
 11
17.10764961222796
 21
18.2543226998272
 31
0.0
  0
LINE
  5
3ED
330
39B
100
AcDbEntity
  8
PART
  6
CONTINUOUS
100
AcDbLine
 10
17.31964972318459
 20
18.2543226998272
 30
0.0
 11
17.31964972318459
 21
18.25884262094602
 31
0.0
  0
LINE
  5
3EE
330
39B
100
AcDbEntity
  8
PART
  6
CONTINUOUS
100
AcDbLine
 10
17.11294979099984
 20
18.2543226998272
 30
0.0
 11
17.11294979099984
 21
18.24372263561338
 31
0.0
  0
LINE
  5
3EF
330
39B
100
AcDbEntity
  8
PART
  6
CONTINUOUS
100
AcDbLine
 10
17.31434954441271
 20
18.24372263561338
 30
0.0
 11
17.31434954441271
 21
18.2543226998272
 31
0.0
  0
LINE
  5
3F0
330
39B
100
AcDbEntity
  8
PART
  6
CONTINUOUS
100
AcDbLine
 10
11.41472961732554
 20
18.24372263561338
 30
0.0
 11
11.41472961732554
 21
18.03684259884255
 31
0.0
  0
LINE
  5
3F1
330
39B
100
AcDbEntity
  8
PART
  6
CONTINUOUS
100
AcDbLine
 10
11.62672972828217
 20
18.03684259884255
 30
0.0
 11
11.62672972828217
 21
18.24372263561338
 31
0.0
  0
LINE
  5
3F2
330
39B
100
AcDbEntity
  8
PART
  6
CONTINUOUS
100
AcDbLine
 10
11.41472961732554
 20
18.25884262094602
 30
0.0
 11
11.41472961732554
 21
18.2543226998272
 31
0.0
  0
LINE
  5
3F3
330
39B
100
AcDbEntity
  8
PART
  6
CONTINUOUS
100
AcDbLine
 10
11.62672972828217
 20
18.2543226998272
 30
0.0
 11
11.62672972828217
 21
18.25884262094602
 31
0.0
  0
LINE
  5
3F4
330
39B
100
AcDbEntity
  8
PART
  6
CONTINUOUS
100
AcDbLine
 10
11.42002979609742
 20
18.2543226998272
 30
0.0
 11
11.42002979609742
 21
18.24372263561338
 31
0.0
  0
LINE
  5
3F5
330
39B
100
AcDbEntity
  8
PART
  6
CONTINUOUS
100
AcDbLine
 10
11.62142954951028
 20
18.24372263561338
 30
0.0
 11
11.62142954951028
 21
18.2543226998272
 31
0.0
  0
LINE
  5
3F6
330
39B
100
AcDbEntity
  8
PART
  6
CONTINUOUS
100
AcDbLine
 10
17.10764961222796
 20
18.03684259884255
 30
0.0
 11
17.31964972318459
 21
18.03684259884255
 31
0.0
  0
LINE
  5
3F7
330
39B
100
AcDbEntity
  8
PART
  6
CONTINUOUS
100
AcDbLine
 10
17.31964972318459
 20
18.24372263561338
 30
0.0
 11
17.10764961222796
 21
18.24372263561338
 31
0.0
  0
LINE
  5
3F8
330
39B
100
AcDbEntity
  8
PART
  6
CONTINUOUS
100
AcDbLine
 10
17.10764961222796
 20
18.2543226998272
 30
0.0
 11
17.31964972318459
 21
18.2543226998272
 31
0.0
  0
LINE
  5
3F9
330
39B
100
AcDbEntity
  8
PART
  6
CONTINUOUS
100
AcDbLine
 10
11.41472961732554
 20
18.03684259884255
 30
0.0
 11
11.62672972828217
 21
18.03684259884255
 31
0.0
  0
LINE
  5
3FA
330
39B
100
AcDbEntity
  8
PART
  6
CONTINUOUS
100
AcDbLine
 10
11.62672972828217
 20
18.24372263561338
 30
0.0
 11
11.41472961732554
 21
18.24372263561338
 31
0.0
  0
LINE
  5
3FB
330
39B
100
AcDbEntity
  8
PART
  6
CONTINUOUS
100
AcDbLine
 10
11.41472961732554
 20
18.2543226998272
 30
0.0
 11
11.62672972828217
 21
18.2543226998272
 31
0.0
  0
LINE
  5
3FC
330
39B
100
AcDbEntity
  8
PART
  6
CONTINUOUS
100
AcDbLine
 10
5.867189516315511
 20
16.41584263977241
 30
0.0
 11
5.867189516315511
 21
16.73584263810512
 31
0.0
  0
LINE
  5
3FD
330
39B
100
AcDbEntity
  8
PART
  6
CONTINUOUS
100
AcDbLine
 10
5.867189516315511
 20
16.73584263810512
 30
0.0
 11
22.86718982419462
 21
16.73584263810512
 31
0.0
  0
LINE
  5
3FE
330
39B
100
AcDbEntity
  8
PART
  6
CONTINUOUS
100
AcDbLine
 10
22.86718982419462
 20
16.41584263977241
 30
0.0
 11
22.86718982419462
 21
16.73584263810512
 31
0.0
  0
LINE
  5
3FF
330
39B
100
AcDbEntity
  8
PART
  6
CONTINUOUS
100
AcDbLine
 10
22.86718982419462
 20
16.41584263977241
 30
0.0
 11
5.867189516315511
 21
16.41584263977241
 31
0.0
  0
LINE
  5
400
330
39B
100
AcDbEntity
  8
PART
  6
CONTINUOUS
100
AcDbLine
 10
22.86718982419462
 20
16.23584264414771
 30
0.0
 11
5.867189516315511
 21
16.23584264414771
 31
0.0
  0
LINE
  5
401
330
39B
100
AcDbEntity
  8
PART
  6
CONTINUOUS
100
AcDbLine
 10
5.867189516315511
 20
16.23584264414771
 30
0.0
 11
5.867189516315511
 21
16.41584263977241
 31
0.0
  0
LINE
  5
402
330
39B
100
AcDbEntity
  8
PART
  6
CONTINUOUS
100
AcDbLine
 10
22.86718982419462
 20
16.23584264414771
 30
0.0
 11
22.86718982419462
 21
16.41584263977241
 31
0.0
  0
LINE
  5
403
330
39B
100
AcDbEntity
  8
PART
  6
CONTINUOUS
100
AcDbLine
 10
5.817189667251368
 20
16.23584264414771
 30
0.0
 11
4.867189601733191
 21
16.23584264414771
 31
0.0
  0
LINE
  5
404
330
39B
100
AcDbEntity
  8
PART
  6
CONTINUOUS
100
AcDbLine
 10
4.867189601733191
 20
16.32584264196006
 30
0.0
 11
4.867189601733191
 21
16.23584264414771
 31
0.0
  0
LINE
  5
405
330
39B
100
AcDbEntity
  8
PART
  6
CONTINUOUS
100
AcDbLine
 10
5.817189667251368
 20
16.32584264196006
 30
0.0
 11
4.867189601733191
 21
16.32584264196006
 31
0.0
  0
LINE
  5
406
330
39B
100
AcDbEntity
  8
PART
  6
CONTINUOUS
100
AcDbLine
 10
5.817189667251368
 20
16.32584264196006
 30
0.0
 11
5.817189667251368
 21
16.23584264414771
 31
0.0
  0
LINE
  5
407
330
39B
100
AcDbEntity
  8
PART
  6
CONTINUOUS
100
AcDbLine
 10
23.86718973877694
 20
16.23584264414771
 30
0.0
 11
22.91718967325877
 21
16.23584264414771
 31
0.0
  0
LINE
  5
408
330
39B
100
AcDbEntity
  8
PART
  6
CONTINUOUS
100
AcDbLine
 10
23.86718973877694
 20
16.32584264196006
 30
0.0
 11
23.86718973877694
 21
16.23584264414771
 31
0.0
  0
LINE
  5
409
330
39B
100
AcDbEntity
  8
PART
  6
CONTINUOUS
100
AcDbLine
 10
23.86718973877694
 20
16.32584264196006
 30
0.0
 11
22.91718967325877
 21
16.32584264196006
 31
0.0
  0
LINE
  5
40A
330
39B
100
AcDbEntity
  8
PART
  6
CONTINUOUS
100
AcDbLine
 10
22.91718967325877
 20
16.32584264196006
 30
0.0
 11
22.91718967325877
 21
16.23584264414771
 31
0.0
  0
LINE
  5
40B
330
39B
100
AcDbEntity
  8
PART
  6
CONTINUOUS
100
AcDbLine
 10
22.91718967325877
 20
16.23584264414771
 30
0.0
 11
22.86718982419462
 21
16.23584264414771
 31
0.0
  0
LINE
  5
40C
330
39B
100
AcDbEntity
  8
PART
  6
CONTINUOUS
100
AcDbLine
 10
22.86718982419462
 20
16.32584264196006
 30
0.0
 11
22.91718967325877
 21
16.32584264196006
 31
0.0
  0
LINE
  5
40D
330
39B
100
AcDbEntity
  8
PART
  6
CONTINUOUS
100
AcDbLine
 10
5.867189516315511
 20
16.23584264414771
 30
0.0
 11
5.817189667251368
 21
16.23584264414771
 31
0.0
  0
LINE
  5
40E
330
39B
100
AcDbEntity
  8
PART
  6
CONTINUOUS
100
AcDbLine
 10
5.817189667251368
 20
16.32584264196006
 30
0.0
 11
5.867189516315511
 21
16.32584264196006
 31
0.0
  0
LINE
  5
40F
330
39B
100
AcDbEntity
  8
PART
  6
CONTINUOUS
100
AcDbLine
 10
17.66218957946827
 20
16.73584263810512
 30
0.0
 11
17.66218957946827
 21
18.1688426872996
 31
0.0
  0
ARC
  5
410
330
39B
100
AcDbEntity
  8
PART
  6
CONTINUOUS
100
AcDbCircle
 10
17.57218967025506
 20
18.16884264414771
 30
0.0
 40
0.0899999999999999
100
AcDbArc
 50
0.0
 51
90.0
  0
LINE
  5
411
330
39B
100
AcDbEntity
  8
PART
  6
CONTINUOUS
100
AcDbLine
 10
17.57218979248682
 20
18.25884262094602
 30
0.0
 11
16.9121897901965
 21
18.25884262094602
 31
0.0
  0
LINE
  5
412
330
39B
100
AcDbEntity
  8
PART
  6
CONTINUOUS
100
AcDbLine
 10
16.9121897901965
 20
18.25884262094602
 30
0.0
 11
16.9121897901965
 21
18.34884270125741
 31
0.0
  0
LINE
  5
413
330
39B
100
AcDbEntity
  8
PART
  6
CONTINUOUS
100
AcDbLine
 10
16.9121897901965
 20
18.34884270125741
 30
0.0
 11
17.57218979248682
 21
18.34884270125741
 31
0.0
  0
ARC
  5
414
330
39B
100
AcDbEntity
  8
PART
  6
CONTINUOUS
100
AcDbCircle
 10
17.57218967025506
 20
18.16884264414771
 30
0.0
 40
0.1799999999999997
100
AcDbArc
 50
0.0
 51
90.0
  0
LINE
  5
415
330
39B
100
AcDbEntity
  8
PART
  6
CONTINUOUS
100
AcDbLine
 10
17.75218965977966
 20
16.73584263810512
 30
0.0
 11
17.75218965977966
 21
18.1688426872996
 31
0.0
  0
LINE
  5
416
330
39B
100
AcDbEntity
  8
PART
  6
CONTINUOUS
100
AcDbLine
 10
10.98218968073046
 20
18.1688426872996
 30
0.0
 11
10.98218968073046
 21
16.73584263810512
 31
0.0
  0
ARC
  5
417
330
39B
100
AcDbEntity
  8
PART
  6
CONTINUOUS
100
AcDbCircle
 10
11.16218967025506
 20
18.16884264414771
 30
0.0
 40
0.1799999999999997
100
AcDbArc
 50
90.0
 51
180.0
  0
LINE
  5
418
330
39B
100
AcDbEntity
  8
PART
  6
CONTINUOUS
100
AcDbLine
 10
11.1621895480233
 20
18.34884270125741
 30
0.0
 11
11.82218955031362
 21
18.34884270125741
 31
0.0
  0
LINE
  5
419
330
39B
100
AcDbEntity
  8
PART
  6
CONTINUOUS
100
AcDbLine
 10
11.82218955031362
 20
18.34884270125741
 30
0.0
 11
11.82218955031362
 21
18.25884262094602
 31
0.0
  0
LINE
  5
41A
330
39B
100
AcDbEntity
  8
PART
  6
CONTINUOUS
100
AcDbLine
 10
11.82218955031362
 20
18.25884262094602
 30
0.0
 11
11.1621895480233
 21
18.25884262094602
 31
0.0
  0
ARC
  5
41B
330
39B
100
AcDbEntity
  8
PART
  6
CONTINUOUS
100
AcDbCircle
 10
11.16218967025506
 20
18.16884264414771
 30
0.0
 40
0.0899999999999999
100
AcDbArc
 50
90.0
 51
180.0
  0
LINE
  5
41C
330
39B
100
AcDbEntity
  8
PART
  6
CONTINUOUS
100
AcDbLine
 10
11.07218976104185
 20
18.1688426872996
 30
0.0
 11
11.07218976104185
 21
16.73584263810512
 31
0.0
  0
LINE
  5
41D
330
39B
100
AcDbEntity
  8
PART
  6
CONTINUOUS
100
AcDbLine
 10
28.6120659002313
 20
13.57301375061886
 30
0.0
 11
28.52206590241896
 21
13.57301375061886
 31
0.0
  0
LINE
  5
41E
330
39B
100
AcDbEntity
  8
PART
  6
CONTINUOUS
100
AcDbLine
 10
28.6120659002313
 20
8.353013785837228
 30
0.0
 11
28.52206590241896
 21
8.353013785837228
 31
0.0
  0
LINE
  5
41F
330
39B
100
AcDbEntity
  8
PART
  6
CONTINUOUS
100
AcDbLine
 10
28.52206590241896
 20
8.353013785837228
 30
0.0
 11
28.52206590241896
 21
13.57301375061886
 31
0.0
  0
LINE
  5
420
330
39B
100
AcDbEntity
  8
PART
  6
CONTINUOUS
100
AcDbLine
 10
28.6120659002313
 20
8.353013785837228
 30
0.0
 11
28.6120659002313
 21
13.57301375061886
 31
0.0
  0
LINE
  5
421
330
39B
100
AcDbEntity
  8
PART
  6
CONTINUOUS
100
AcDbLine
 10
29.02206589637636
 20
8.353013785837228
 30
0.0
 11
29.02206589637636
 21
8.44301386614862
 31
0.0
  0
LINE
  5
422
330
39B
100
AcDbEntity
  8
PART
  6
CONTINUOUS
100
AcDbLine
 10
29.02206589637636
 20
8.353013785837228
 30
0.0
 11
28.70206589804365
 21
8.353013785837228
 31
0.0
  0
ARC
  5
423
330
39B
100
AcDbEntity
  8
PART
  6
CONTINUOUS
100
AcDbCircle
 10
28.70206590241896
 20
8.533013768228045
 30
0.0
 40
0.1800000000000016
100
AcDbArc
 50
239.9999999999998
 51
270.0000000000008
  0
ARC
  5
424
330
39B
100
AcDbEntity
  8
PART
  6
CONTINUOUS
100
AcDbCircle
 10
28.70206590241896
 20
8.533013768228045
 30
0.0
 40
0.0900000000000034
100
AcDbArc
 50
180.0
 51
270.0000000000008
  0
LINE
  5
425
330
39B
100
AcDbEntity
  8
PART
  6
CONTINUOUS
100
AcDbLine
 10
29.02206589637636
 20
8.44301386614862
 30
0.0
 11
28.70206589804365
 21
8.44301386614862
 31
0.0
  0
ARC
  5
426
330
39B
100
AcDbEntity
  8
PART
  6
CONTINUOUS
100
AcDbCircle
 10
28.70206590241896
 20
13.39301376822804
 30
0.0
 40
0.1800000000000031
100
AcDbArc
 50
90.0
 51
120.0000000000006
  0
ARC
  5
427
330
39B
100
AcDbEntity
  8
PART
  6
CONTINUOUS
100
AcDbCircle
 10
28.70206590241896
 20
13.39301376822804
 30
0.0
 40
0.0900000000000034
100
AcDbArc
 50
90.0
 51
180.0
  0
LINE
  5
428
330
39B
100
AcDbEntity
  8
PART
  6
CONTINUOUS
100
AcDbLine
 10
28.70206589804365
 20
13.48301367030747
 30
0.0
 11
29.02206589637636
 21
13.48301367030747
 31
0.0
  0
LINE
  5
429
330
39B
100
AcDbEntity
  8
PART
  6
CONTINUOUS
100
AcDbLine
 10
29.02206589637636
 20
13.57301375061886
 30
0.0
 11
29.02206589637636
 21
13.48301367030747
 31
0.0
  0
LINE
  5
42A
330
39B
100
AcDbEntity
  8
PART
  6
CONTINUOUS
100
AcDbLine
 10
28.70206589804365
 20
13.57301375061886
 30
0.0
 11
29.02206589637636
 21
13.57301375061886
 31
0.0
  0
LINE
  5
42B
330
39B
100
AcDbEntity
  8
PART
  6
CONTINUOUS
100
AcDbLine
 10
28.70206589804365
 20
12.91301374832854
 30
0.0
 11
28.70206589804365
 21
9.013013788127548
 31
0.0
  0
LINE
  5
42C
330
39B
100
AcDbEntity
  8
PART
  6
CONTINUOUS
100
AcDbLine
 10
28.70206589804365
 20
9.013013788127548
 30
0.0
 11
28.6120659002313
 21
9.013013788127548
 31
0.0
  0
LINE
  5
42D
330
39B
100
AcDbEntity
  8
PART
  6
CONTINUOUS
100
AcDbLine
 10
28.6120659002313
 20
12.91301374832854
 30
0.0
 11
28.70206589804365
 21
12.91301374832854
 31
0.0
  0
LINE
  5
42E
330
39B
100
AcDbEntity
  8
PART
  6
CONTINUOUS
100
AcDbLine
 10
30.63506595952866
 20
9.013013788127548
 30
0.0
 11
30.63506595952866
 21
12.91301374832854
 31
0.0
  0
LINE
  5
42F
330
39B
100
AcDbEntity
  8
PART
  6
CONTINUOUS
100
AcDbLine
 10
30.45506594557084
 20
12.91301374832854
 30
0.0
 11
30.45506594557084
 21
9.013013788127548
 31
0.0
  0
LINE
  5
430
330
39B
100
AcDbEntity
  8
PART
  6
CONTINUOUS
100
AcDbLine
 10
30.45506594557084
 20
9.013013788127548
 30
0.0
 11
30.63506595952866
 21
9.013013788127548
 31
0.0
  0
LINE
  5
431
330
39B
100
AcDbEntity
  8
PART
  6
CONTINUOUS
100
AcDbLine
 10
30.63506595952866
 20
12.91301374832854
 30
0.0
 11
30.45506594557084
 21
12.91301374832854
 31
0.0
  0
LINE
  5
432
330
39B
100
AcDbEntity
  8
PART
  6
CONTINUOUS
100
AcDbLine
 10
30.45506594557084
 20
9.013013788127548
 30
0.0
 11
28.70206589804365
 21
9.013013788127548
 31
0.0
  0
LINE
  5
433
330
39B
100
AcDbEntity
  8
PART
  6
CONTINUOUS
100
AcDbLine
 10
28.70206589804365
 20
12.91301374832854
 30
0.0
 11
30.45506594557084
 21
12.91301374832854
 31
0.0
  0
TEXT
  5
434
330
39B
100
AcDbEntity
  8
FORMAT
100
AcDbText
 10
27.2922243621056
 20
0.8984635216691145
 30
0.0
 40
0.16
  1
D
  7
ARIAL
100
AcDbText
  0
TEXT
  5
435
330
39B
100
AcDbEntity
  8
FORMAT
  6
CONTINUOUS
100
AcDbText
 10
31.74889154160982
 20
0.1499999999999986
 30
0.0
 40
0.25
  1
H
  7
ARIAL
 72
     1
 11
31.875
 21
0.1499999999999986
 31
0.0
100
AcDbText
  0
TEXT
  5
436
330
39B
100
AcDbEntity
  8
FORMAT
  6
CONTINUOUS
100
AcDbText
 10
27.48917121418827
 20
0.1499999999999986
 30
0.0
 40
0.25
  1
G
  7
ARIAL
 72
     1
 11
27.625
 21
0.1499999999999986
 31
0.0
100
AcDbText
  0
TEXT
  5
437
330
39B
100
AcDbEntity
  8
FORMAT
  6
CONTINUOUS
100
AcDbText
 10
23.26833219645293
 20
0.1499999999999986
 30
0.0
 40
0.25
  1
F
  7
ARIAL
 72
     1
 11
23.37499999999999
 21
0.1499999999999986
 31
0.0
100
AcDbText
  0
TEXT
  5
438
330
39B
100
AcDbEntity
  8
FORMAT
  6
CONTINUOUS
100
AcDbText
 10
19.00852660300136
 20
0.1499999999999986
 30
0.0
 40
0.25
  1
E
  7
ARIAL
 72
     1
 11
19.125
 21
0.1499999999999986
 31
0.0
100
AcDbText
  0
TEXT
  5
439
330
39B
100
AcDbEntity
  8
FORMAT
  6
CONTINUOUS
100
AcDbText
 10
14.74889154160982
 20
0.1499999999999986
 30
0.0
 40
0.25
  1
D
  7
ARIAL
 72
     1
 11
14.875
 21
0.1499999999999986
 31
0.0
100
AcDbText
  0
TEXT
  5
43A
330
39B
100
AcDbEntity
  8
FORMAT
  6
CONTINUOUS
100
AcDbText
 10
6.258526603001364
 20
0.1499999999999986
 30
0.0
 40
0.25
  1
B
  7
ARIAL
 72
     1
 11
6.375
 21
0.1499999999999986
 31
0.0
100
AcDbText
  0
TEXT
  5
43B
330
39B
100
AcDbEntity
  8
FORMAT
  6
CONTINUOUS
100
AcDbText
 10
10.49889154160982
 20
0.1499999999999986
 30
0.0
 40
0.25
  1
C
  7
ARIAL
 72
     1
 11
10.625
 21
0.1499999999999986
 31
0.0
100
AcDbText
  0
TEXT
  5
43C
330
39B
100
AcDbEntity
  8
FORMAT
  6
CONTINUOUS
100
AcDbText
 10
2.008526603001364
 20
0.1499999999999986
 30
0.0
 40
0.25
  1
A
  7
ARIAL
 72
     1
 11
2.125
 21
0.1499999999999986
 31
0.0
100
AcDbText
  0
TEXT
  5
43D
330
39B
100
AcDbEntity
  8
FORMAT
  6
CONTINUOUS
100
AcDbText
 10
33.62586108649741
 20
19.125
 30
0.0
 40
0.25
  1
1
  7
ARIAL
 72
     2
 11
33.82009710286848
 21
19.125
 31
0.0
100
AcDbText
  0
TEXT
  5
43E
330
39B
100
AcDbEntity
  8
FORMAT
  6
CONTINUOUS
100
AcDbText
 10
33.62586108649741
 20
13.625
 30
0.0
 40
0.25
  1
2
  7
ARIAL
 72
     2
 11
33.82009710286848
 21
13.625
 31
0.0
100
AcDbText
  0
TEXT
  5
43F
330
39B
100
AcDbEntity
  8
FORMAT
  6
CONTINUOUS
100
AcDbText
 10
33.62586108649741
 20
8.125
 30
0.0
 40
0.25
  1
3
  7
ARIAL
 72
     2
 11
33.82009710286848
 21
8.125
 31
0.0
100
AcDbText
  0
TEXT
  5
440
330
39B
100
AcDbEntity
  8
FORMAT
  6
CONTINUOUS
100
AcDbText
 10
33.62586108649741
 20
2.625
 30
0.0
 40
0.25
  1
4
  7
ARIAL
 72
     2
 11
33.82009710286848
 21
2.625
 31
0.0
100
AcDbText
  0
TEXT
  5
441
330
39B
100
AcDbEntity
  8
FORMAT
  6
CONTINUOUS
100
AcDbText
 10
27.48917121418827
 20
21.59999999999999
 30
0.0
 40
0.25
  1
G
  7
ARIAL
 72
     1
 11
27.625
 21
21.59999999999999
 31
0.0
100
AcDbText
  0
TEXT
  5
442
330
39B
100
AcDbEntity
  8
FORMAT
100
AcDbText
 10
28.46644392275831
 20
0.6672081632976301
 30
0.0
 40
0.1088
  1
ACAD FILE NO.
  7
ARIAL
100
AcDbText
  0
LWPOLYLINE
  5
443
330
39B
100
AcDbEntity
  8
FORMAT
100
AcDbPolyline
 90
        2
 70
     0
 43
0.02
 10
27.61703378072079
 20
1.272892106623777
 10
27.61703378072079
 20
0.8236485696487072
  0
LWPOLYLINE
  5
444
330
39B
100
AcDbEntity
  8
FORMAT
100
AcDbPolyline
 90
        2
 70
     0
 43
0.02
 10
28.42063372699124
 20
0.8236485696487072
 10
28.42063372699124
 20
0.5
  0
LWPOLYLINE
  5
445
330
39B
100
AcDbEntity
  8
FORMAT
100
AcDbPolyline
 90
        2
 70
     0
 43
0.02
 10
31.81895966809327
 20
0.8236485696487072
 10
31.81895966809327
 20
0.5
  0
LWPOLYLINE
  5
446
330
39B
100
AcDbEntity
  8
FORMAT
100
AcDbPolyline
 90
        2
 70
     0
 43
0.02
 10
32.94931437403055
 20
1.272892106623777
 10
32.94931437403055
 20
0.8236485696487072
  0
LWPOLYLINE
  5
447
330
39B
100
AcDbEntity
  8
FORMAT
100
AcDbPolyline
 90
        2
 70
     0
 43
0.02
 10
27.12431506274814
 20
0.8236485696487072
 10
33.5
 20
0.8236485696487072
  0
LWPOLYLINE
  5
448
330
39B
100
AcDbEntity
  8
FORMAT
100
AcDbPolyline
 90
        2
 70
     0
 43
0.02
 10
27.12431506274814
 20
1.272892106623777
 10
33.5
 20
1.272892106623777
  0
LWPOLYLINE
  5
449
330
39B
100
AcDbEntity
  8
FORMAT
100
AcDbPolyline
 90
        2
 70
     0
 43
0.02
 10
27.12431506274814
 20
2.441891417892239
 10
33.5
 20
2.441891417892239
  0
LWPOLYLINE
  5
44A
330
39B
100
AcDbEntity
  8
FORMAT
100
AcDbPolyline
 90
        2
 70
     0
 43
0.02
 10
22.60089726348933
 20
1.055516201635839
 10
27.12431293507279
 20
1.055507487567172
  0
LWPOLYLINE
  5
44B
330
39B
100
AcDbEntity
  8
FORMAT
100
AcDbPolyline
 90
        2
 70
     0
 43
0.02
 10
22.60089513581397
 20
3.113332721452977
 10
22.60089726348933
 20
0.5
  0
LWPOLYLINE
  5
44C
330
39B
100
AcDbEntity
  8
FORMAT
100
AcDbPolyline
 90
        2
 70
     0
 43
0.02
 10
27.12431506274814
 20
3.113341435521647
 10
27.12431506274814
 20
0.5
  0
LWPOLYLINE
  5
44D
330
39B
100
AcDbEntity
  8
FORMAT
100
AcDbPolyline
 90
        3
 70
     0
 43
0.02
 10
19.55365650994497
 20
0.5
 10
19.55365654839636
 20
3.113341420836697
 10
33.5
 20
3.113341435521647
  0
TEXT
  5
44E
330
39B
100
AcDbEntity
  8
FORMAT
100
AcDbText
 10
27.17012525851521
 20
0.6672081632976301
 30
0.0
 40
0.1088
  1
SCALE
  7
ARIAL
100
AcDbText
  0
TEXT
  5
44F
330
39B
100
AcDbEntity
  8
FORMAT
  6
CONTINUOUS
100
AcDbText
 10
31.74889154160982
 20
21.59999999999999
 30
0.0
 40
0.25
  1
H
  7
ARIAL
 72
     1
 11
31.875
 21
21.59999999999999
 31
0.0
100
AcDbText
  0
LINE
  5
450
330
39B
100
AcDbEntity
  8
FORMAT
  6
CONTINUOUS
100
AcDbLine
 10
29.75
 20
21.49999999999999
 30
0.0
 11
29.75
 21
22.0
 31
0.0
  0
LINE
  5
451
330
39B
100
AcDbEntity
  8
FORMAT
  6
CONTINUOUS
100
AcDbLine
 10
33.5
 20
16.5
 30
0.0
 11
34.0
 21
16.5
 31
0.0
  0
LINE
  5
452
330
39B
100
AcDbEntity
  8
FORMAT
  6
CONTINUOUS
100
AcDbLine
 10
25.5
 20
21.49999999999999
 30
0.0
 11
25.5
 21
22.0
 31
0.0
  0
TEXT
  5
453
330
39B
100
AcDbEntity
  8
FORMAT
  6
CONTINUOUS
100
AcDbText
 10
23.26833219645293
 20
21.59999999999999
 30
0.0
 40
0.25
  1
F
  7
ARIAL
 72
     1
 11
23.37499999999999
 21
21.59999999999999
 31
0.0
100
AcDbText
  0
LINE
  5
454
330
39B
100
AcDbEntity
  8
FORMAT
  6
CONTINUOUS
100
AcDbLine
 10
21.25
 20
21.49999999999999
 30
0.0
 11
21.25
 21
22.0
 31
0.0
  0
TEXT
  5
455
330
39B
100
AcDbEntity
  8
FORMAT
  6
CONTINUOUS
100
AcDbText
 10
19.00852660300136
 20
21.59999999999999
 30
0.0
 40
0.25
  1
E
  7
ARIAL
 72
     1
 11
19.125
 21
21.59999999999999
 31
0.0
100
AcDbText
  0
LINE
  5
456
330
39B
100
AcDbEntity
  8
FORMAT
  6
CONTINUOUS
100
AcDbLine
 10
33.5
 20
11.0
 30
0.0
 11
33.696573
 21
10.88650899999999
 31
0.0
  0
LINE
  5
457
330
39B
100
AcDbEntity
  8
FORMAT
  6
CONTINUOUS
100
AcDbLine
 10
33.5
 20
11.0
 30
0.0
 11
34.0
 21
11.0
 31
0.0
  0
LINE
  5
458
330
39B
100
AcDbEntity
  8
FORMAT
  6
CONTINUOUS
100
AcDbLine
 10
33.5
 20
5.5
 30
0.0
 11
34.0
 21
5.5
 31
0.0
  0
LINE
  5
459
330
39B
100
AcDbEntity
  8
FORMAT
  6
CONTINUOUS
100
AcDbLine
 10
29.75
 20
0.0
 30
0.0
 11
29.75
 21
0.5
 31
0.0
  0
TEXT
  5
45A
330
39B
100
AcDbEntity
  8
FORMAT
  6
CONTINUOUS
100
AcDbText
 10
26.57169898372832
 20
2.051152953348244
 30
0.0
 40
0.12
  1
0.005
  7
ARIAL
 72
     2
 11
26.99120785139544
 21
2.051152953348244
 31
0.0
100
AcDbText
  0
TEXT
  5
45B
330
39B
100
AcDbEntity
  8
FORMAT
  6
CONTINUOUS
100
AcDbText
 10
26.5491223910726
 20
2.236977562228064
 30
0.0
 40
0.12
  1
0.01
  7
ARIAL
 72
     2
 11
26.8753979708816
 21
2.236977562228064
 31
0.0
100
AcDbText
  0
TEXT
  5
45C
330
39B
100
AcDbEntity
  8
FORMAT
  6
CONTINUOUS
100
AcDbText
 10
26.56637366390401
 20
1.865328344468428
 30
0.0
 40
0.12
  1
0.5%%d
 51
1.0
  7
ARIAL
 72
     2
 11
26.86645551929283
 21
1.865328344468428
 31
0.0
100
AcDbText
  0
TEXT
  5
45D
330
39B
100
AcDbEntity
  8
FORMAT
  6
CONTINUOUS
100
AcDbText
 10
25.84954095233039
 20
2.051152953348244
 30
0.0
 40
0.12
  1
.XXX = %%p
  7
ARIAL
 72
     2
 11
26.51461598643681
 21
2.051152953348244
 31
0.0
100
AcDbText
  0
TEXT
  5
45E
330
39B
100
AcDbEntity
  8
FORMAT
  6
CONTINUOUS
100
AcDbText
 10
25.96135541344908
 20
2.236977562228064
 30
0.0
 40
0.12
  1
.XX = %%p
  7
ARIAL
 72
     2
 11
26.51461598643681
 21
2.236977562228064
 31
0.0
100
AcDbText
  0
TEXT
  5
45F
330
39B
100
AcDbEntity
  8
FORMAT
  6
CONTINUOUS
100
AcDbText
 10
25.6027469550589
 20
1.865328344468428
 30
0.0
 40
0.12
  1
ANGLES:  %%p
  7
ARIAL
 72
     2
 11
26.51461598643681
 21
1.865328344468428
 31
0.0
100
AcDbText
  0
TEXT
  5
460
330
39B
100
AcDbEntity
  8
FORMAT
  6
CONTINUOUS
100
AcDbText
 10
26.54694158954057
 20
2.422802171107882
 30
0.0
 40
0.12
  1
0.1
  7
ARIAL
 72
     2
 11
26.77998388149146
 21
2.422802171107882
 31
0.0
100
AcDbText
  0
TEXT
  5
461
330
39B
100
AcDbEntity
  8
FORMAT
  6
CONTINUOUS
100
AcDbText
 10
23.23123432193724
 20
1.12281556394616
 30
0.0
 40
0.186
  1
DO NOT SCALE DRAWING
  7
ARIAL
 72
     1
 11
24.86260403544338
 21
1.12281556394616
 31
0.0
100
AcDbText
  0
TEXT
  5
462
330
39B
100
AcDbEntity
  8
FORMAT
  6
CONTINUOUS
100
AcDbText
 10
23.66571454021828
 20
1.398362308673736
 30
0.0
 40
0.12
  1
ALL DIMENSIONS IN INCHES. 
  7
ARIAL
 72
     1
 11
24.86260403544338
 21
1.398362308673736
 31
0.0
100
AcDbText
  0
TEXT
  5
463
330
39B
100
AcDbEntity
  8
FORMAT
  6
CONTINUOUS
100
AcDbText
 10
22.84782049927794
 20
1.598364381162374
 30
0.0
 40
0.12
  1
SURFACE FLATNESS .003 TIR PER LINEAR INCH  
  7
ARIAL
 72
     2
 11
26.84416429191095
 21
1.598364381162374
 31
0.0
100
AcDbText
  0
TEXT
  5
464
330
39B
100
AcDbEntity
  8
FORMAT
  6
CONTINUOUS
100
AcDbText
 10
22.6639747858911
 20
2.422802171107882
 30
0.0
 40
0.12
  1
TOLERANCE ON DECIMAL DIMENSIONS:   .X = %%p
  7
ARIAL
 72
     2
 11
26.51461598643681
 21
2.422802171107882
 31
0.0
100
AcDbText
  0
TEXT
  5
465
330
39B
100
AcDbEntity
  8
FORMAT
  6
CONTINUOUS
100
AcDbText
 10
22.75440355659141
 20
2.741378395140287
 30
0.0
 40
0.1899233025254706
  1
%%uUNLESS OTHERWISE SPECIFIED
  7
ARIAL
 72
     1
 11
24.86260403544338
 21
2.741378395140287
 31
0.0
100
AcDbText
  0
TEXT
  5
466
330
39B
100
AcDbEntity
  8
FORMAT
  6
CONTINUOUS
100
AcDbText
 10
23.21154877296527
 20
0.8019109791499126
 30
0.0
 40
0.124
  1
          THIRD ANGLE
  7
ARIAL
100
AcDbText
  0
LINE
  5
467
330
39B
100
AcDbEntity
  8
FORMAT
  6
CONTINUOUS
100
AcDbLine
 10
25.5
 20
0.0
 30
0.0
 11
25.5
 21
0.5
 31
0.0
  0
TEXT
  5
468
330
39B
100
AcDbEntity
  8
FORMAT
  6
CONTINUOUS
100
AcDbText
 10
23.21154877296527
 20
0.6043942372759084
 30
0.0
 40
0.124
  1
          PROJECTION 
  7
ARIAL
100
AcDbText
  0
LINE
  5
469
330
39B
100
AcDbEntity
  8
FORMAT
  6
CONTINUOUS
100
AcDbLine
 10
21.25
 20
0.0
 30
0.0
 11
21.25
 21
0.5
 31
0.0
  0
LINE
  5
46A
330
39B
100
AcDbEntity
  8
FORMAT
  6
CONTINUOUS
100
AcDbLine
 10
33.696573
 20
10.88650899999999
 30
0.0
 11
33.696573
 21
11.113492
 31
0.0
  0
LINE
  5
46B
330
39B
100
AcDbEntity
  8
FORMAT
  6
CONTINUOUS
100
AcDbLine
 10
33.696573
 20
11.113492
 30
0.0
 11
33.5
 21
11.0
 31
0.0
  0
HATCH
  5
46C
330
39B
100
AcDbEntity
  8
FORMAT
  6
CONTINUOUS
100
AcDbHatch
 10
0.0
 20
0.0
 30
0.0
210
0.0
220
0.0
230
1.0
  2
ARROW_RIGHT
 70
     1
 71
     0
 91
        1
 92
        1
 93
        3
 72
     1
 10
33.5
 20
10.99999999999999
 11
33.696573
 21
10.88650899999999
 72
     1
 10
33.696573
 20
10.88650899999999
 11
33.696573
 21
11.11349199999999
 72
     1
 10
33.696573
 20
11.11349199999999
 11
33.5
 21
10.99999999999999
 97
        0
 75
     0
 76
     1
 98
        1
 10
0.25
 20
0.0
  0
LWPOLYLINE
  5
46D
330
39B
100
AcDbEntity
  8
FORMAT
  6
PHANTOM
 48
10.0
100
AcDbPolyline
 90
        2
 70
     0
 43
0.001
 10
34.0
 20
0.0
 10
34.0
 20
22.0
  0
LINE
  5
46E
330
39B
100
AcDbEntity
  8
FORMAT
  6
CONTINUOUS
100
AcDbLine
 10
16.88650799999999
 20
21.696573
 30
0.0
 11
17.0
 21
21.49999999999999
 31
0.0
  0
LINE
  5
46F
330
39B
100
AcDbEntity
  8
FORMAT
  6
CONTINUOUS
100
AcDbLine
 10
17.0
 20
21.49999999999999
 30
0.0
 11
17.0
 21
22.0
 31
0.0
  0
TEXT
  5
470
330
39B
100
AcDbEntity
  8
FORMAT
  6
CONTINUOUS
100
AcDbText
 10
14.74889154160982
 20
21.59999999999999
 30
0.0
 40
0.25
  1
D
  7
ARIAL
 72
     1
 11
14.875
 21
21.59999999999999
 31
0.0
100
AcDbText
  0
LINE
  5
471
330
39B
100
AcDbEntity
  8
FORMAT
  6
CONTINUOUS
100
AcDbLine
 10
12.75
 20
21.49999999999999
 30
0.0
 11
12.75
 21
22.0
 31
0.0
  0
TEXT
  5
472
330
39B
100
AcDbEntity
  8
FORMAT
  6
CONTINUOUS
100
AcDbText
 10
10.49889154160982
 20
21.59999999999999
 30
0.0
 40
0.25
  1
C
  7
ARIAL
 72
     1
 11
10.625
 21
21.59999999999999
 31
0.0
100
AcDbText
  0
LINE
  5
473
330
39B
100
AcDbEntity
  8
FORMAT
  6
CONTINUOUS
100
AcDbLine
 10
8.5
 20
21.49999999999999
 30
0.0
 11
8.5
 21
22.0
 31
0.0
  0
LINE
  5
474
330
39B
100
AcDbEntity
  8
FORMAT
  6
CONTINUOUS
100
AcDbLine
 10
4.25
 20
21.49999999999999
 30
0.0
 11
4.25
 21
22.0
 31
0.0
  0
TEXT
  5
475
330
39B
100
AcDbEntity
  8
FORMAT
  6
CONTINUOUS
100
AcDbText
 10
2.008526603001364
 20
21.59999999999999
 30
0.0
 40
0.25
  1
A
  7
ARIAL
 72
     1
 11
2.125
 21
21.59999999999999
 31
0.0
100
AcDbText
  0
TEXT
  5
476
330
39B
100
AcDbEntity
  8
FORMAT
  6
CONTINUOUS
100
AcDbText
 10
0.1057639836289194
 20
19.125
 30
0.0
 40
0.25
  1
1
  7
ARIAL
 72
     2
 11
0.2999999999999971
 21
19.125
 31
0.0
100
AcDbText
  0
LINE
  5
477
330
39B
100
AcDbEntity
  8
FORMAT
  6
CONTINUOUS
100
AcDbLine
 10
0.0
 20
16.5
 30
0.0
 11
0.5
 21
16.5
 31
0.0
  0
TEXT
  5
478
330
39B
100
AcDbEntity
  8
FORMAT
  6
CONTINUOUS
100
AcDbText
 10
0.1057639836289194
 20
13.625
 30
0.0
 40
0.25
  1
2
  7
ARIAL
 72
     2
 11
0.2999999999999971
 21
13.625
 31
0.0
100
AcDbText
  0
TEXT
  5
479
330
39B
100
AcDbEntity
  8
FORMAT
  6
CONTINUOUS
100
AcDbText
 10
6.258526603001364
 20
21.59999999999999
 30
0.0
 40
0.25
  1
B
  7
ARIAL
 72
     1
 11
6.375
 21
21.59999999999999
 31
0.0
100
AcDbText
  0
LINE
  5
47A
330
39B
100
AcDbEntity
  8
FORMAT
  6
CONTINUOUS
100
AcDbLine
 10
17.0
 20
0.5
 30
0.0
 11
16.88650899999998
 21
0.3034269999999992
 31
0.0
  0
LINE
  5
47B
330
39B
100
AcDbEntity
  8
FORMAT
  6
CONTINUOUS
100
AcDbLine
 10
17.0
 20
0.0
 30
0.0
 11
17.0
 21
0.5
 31
0.0
  0
LINE
  5
47C
330
39B
100
AcDbEntity
  8
FORMAT
  6
CONTINUOUS
100
AcDbLine
 10
12.75
 20
0.0
 30
0.0
 11
12.75
 21
0.5
 31
0.0
  0
LINE
  5
47D
330
39B
100
AcDbEntity
  8
FORMAT
  6
CONTINUOUS
100
AcDbLine
 10
8.5
 20
0.0
 30
0.0
 11
8.5
 21
0.5
 31
0.0
  0
LINE
  5
47E
330
39B
100
AcDbEntity
  8
FORMAT
  6
CONTINUOUS
100
AcDbLine
 10
0.3034269999999992
 20
10.88650799999999
 30
0.0
 11
0.5
 21
11.0
 31
0.0
  0
LINE
  5
47F
330
39B
100
AcDbEntity
  8
FORMAT
  6
CONTINUOUS
100
AcDbLine
 10
0.0
 20
11.0
 30
0.0
 11
0.5
 21
11.0
 31
0.0
  0
TEXT
  5
480
330
39B
100
AcDbEntity
  8
FORMAT
  6
CONTINUOUS
100
AcDbText
 10
0.1057639836289194
 20
8.125
 30
0.0
 40
0.25
  1
3
  7
ARIAL
 72
     2
 11
0.2999999999999971
 21
8.125
 31
0.0
100
AcDbText
  0
LINE
  5
481
330
39B
100
AcDbEntity
  8
FORMAT
  6
CONTINUOUS
100
AcDbLine
 10
0.0
 20
5.5
 30
0.0
 11
0.5
 21
5.5
 31
0.0
  0
LINE
  5
482
330
39B
100
AcDbEntity
  8
FORMAT
  6
CONTINUOUS
100
AcDbLine
 10
4.25
 20
0.0
 30
0.0
 11
4.25
 21
0.5
 31
0.0
  0
TEXT
  5
483
330
39B
100
AcDbEntity
  8
FORMAT
  6
CONTINUOUS
100
AcDbText
 10
0.1057639836289194
 20
2.625
 30
0.0
 40
0.25
  1
4
  7
ARIAL
 72
     2
 11
0.2999999999999971
 21
2.625
 31
0.0
100
AcDbText
  0
LINE
  5
484
330
39B
100
AcDbEntity
  8
FORMAT
  6
CONTINUOUS
100
AcDbLine
 10
0.5
 20
11.0
 30
0.0
 11
0.3034269999999992
 21
11.11349099999999
 31
0.0
  0
LINE
  5
485
330
39B
100
AcDbEntity
  8
FORMAT
  6
CONTINUOUS
100
AcDbLine
 10
0.3034269999999992
 20
11.11349099999999
 30
0.0
 11
0.3034269999999992
 21
10.88650799999999
 31
0.0
  0
LWPOLYLINE
  5
486
330
39B
100
AcDbEntity
  8
FORMAT
  6
PHANTOM
 48
10.0
100
AcDbPolyline
 90
        2
 70
     0
 43
0.001
 10
0.0
 20
22.0
 10
0.0
 20
0.0
  0
HATCH
  5
487
330
39B
100
AcDbEntity
  8
FORMAT
  6
CONTINUOUS
100
AcDbHatch
 10
0.0
 20
0.0
 30
0.0
210
0.0
220
0.0
230
1.0
  2
ARROW_LEFT
 70
     1
 71
     0
 91
        1
 92
        1
 93
        3
 72
     1
 10
0.3034269999999992
 20
10.88650799999999
 11
0.4999999999999992
 21
10.99999999999999
 72
     1
 10
0.5
 20
10.99999999999999
 11
0.3034270000000001
 21
11.11349099999999
 72
     1
 10
0.3034269999999992
 20
11.11349099999999
 11
0.3034269999999992
 21
10.88650799999999
 97
        0
 75
     0
 76
     1
 98
        1
 10
-0.25
 20
0.0
  0
LINE
  5
488
330
39B
100
AcDbEntity
  8
FORMAT
  6
CONTINUOUS
100
AcDbLine
 10
17.11349099999999
 20
21.696573
 30
0.0
 11
16.88650799999999
 21
21.696573
 31
0.0
  0
LINE
  5
489
330
39B
100
AcDbEntity
  8
FORMAT
  6
CONTINUOUS
100
AcDbLine
 10
17.0
 20
21.49999999999999
 30
0.0
 11
17.11349099999999
 21
21.696573
 31
0.0
  0
LINE
  5
48A
330
39B
100
AcDbEntity
  8
FORMAT
  6
CONTINUOUS
100
AcDbLine
 10
17.11349199999999
 20
0.3034269999999992
 30
0.0
 11
17.0
 21
0.5
 31
0.0
  0
LINE
  5
48B
330
39B
100
AcDbEntity
  8
FORMAT
  6
CONTINUOUS
100
AcDbLine
 10
16.88650899999998
 20
0.3034269999999992
 30
0.0
 11
17.11349199999999
 21
0.3034269999999992
 31
0.0
  0
LWPOLYLINE
  5
48C
330
39B
100
AcDbEntity
  8
FORMAT
  6
PHANTOM
 48
10.0
100
AcDbPolyline
 90
        2
 70
     0
 43
0.001
 10
0.0
 20
0.0
 10
34.0
 20
0.0
  0
HATCH
  5
48D
330
39B
100
AcDbEntity
  8
FORMAT
  6
CONTINUOUS
100
AcDbHatch
 10
0.0
 20
0.0
 30
0.0
210
0.0
220
0.0
230
1.0
  2
ARROW_BOTTOM
 70
     1
 71
     0
 91
        1
 92
        1
 93
        3
 72
     1
 10
17.11349199999999
 20
0.3034269999999992
 11
16.99999999999999
 21
0.5
 72
     1
 10
17.0
 20
0.5
 11
16.886509
 21
0.3034269999999992
 72
     1
 10
16.88650899999998
 20
0.3034269999999992
 11
17.11349199999999
 21
0.3034269999999992
 97
        0
 75
     0
 76
     1
 98
        1
 10
0.0
 20
0.0
  0
HATCH
  5
48E
330
39B
100
AcDbEntity
  8
FORMAT
  6
CONTINUOUS
100
AcDbHatch
 10
0.0
 20
0.0
 30
0.0
210
0.0
220
0.0
230
1.0
  2
ARROW_TOP
 70
     1
 71
     0
 91
        1
 92
        1
 93
        3
 72
     1
 10
17.11349099999999
 20
21.696573
 11
16.88650799999999
 21
21.696573
 72
     1
 10
16.88650799999999
 20
21.696573
 11
16.99999999999999
 21
21.49999999999999
 72
     1
 10
17.0
 20
21.49999999999999
 11
17.113491
 21
21.696573
 97
        0
 75
     0
 76
     1
 98
        1
 10
0.0
 20
0.0
  0
LWPOLYLINE
  5
48F
330
39B
100
AcDbEntity
  8
FORMAT
  6
PHANTOM
 48
10.0
100
AcDbPolyline
 90
        2
 70
     0
 43
0.001
 10
34.0
 20
22.0
 10
0.0
 20
22.0
  0
TEXT
  5
490
330
39B
100
AcDbEntity
  8
TXT
100
AcDbText
 10
13.25165097349319
 20
0.7815415536662798
 30
0.0
 40
0.2
  1
PER EU DIRECTIVE 2002/95/EC
  7
ARIAL
100
AcDbText
  0
TEXT
  5
491
330
39B
100
AcDbEntity
  8
TXT
100
AcDbText
 10
13.25165097349319
 20
1.131541553666281
 30
0.0
 40
0.2
  1
SPECIFIED SHALL BE RoHS COMPLIANT
  7
ARIAL
100
AcDbText
  0
TEXT
  5
492
330
39B
100
AcDbEntity
  8
TXT
100
AcDbText
 10
13.25165097349319
 20
1.481541553666282
 30
0.0
 40
0.2
  1
UNLESS OTHERWISE STATED, THE ARTICLE
  7
ARIAL
100
AcDbText
  0
LWPOLYLINE
  5
493
102
{ACAD_REACTORS
330
498
102
}
330
39B
100
AcDbEntity
  8
FORMAT
100
AcDbPolyline
 90
       10
 70
     1
 43
0.0
 10
28.84812546490569
 20
2.560038189765117
 10
29.00159362169353
 20
2.6889965139272
 10
29.11376411899891
 20
2.560038189765117
 10
29.32737967356207
 20
2.560038189765117
 10
29.13999480838106
 20
2.775467725762407
 42
0.0105244554857435
 10
28.88886932108983
 20
2.773755392477088
 10
28.66271243457582
 20
2.58371718720382
 10
28.69329665119762
 20
2.76722248693467
 42
0.0083241925565687
 10
28.52763063088184
 20
2.75943994238878
 10
28.49439700544456
 20
2.560038189765117
  0
LWPOLYLINE
  5
494
102
{ACAD_REACTORS
330
498
102
}
330
39B
100
AcDbEntity
  8
FORMAT
100
AcDbPolyline
 90
        7
 70
     1
 43
0.0
 10
27.85379733476327
 20
2.669165529635449
 10
27.89252030058969
 20
2.560038189765117
 10
28.22439509774364
 20
2.560038189765117
 10
28.2534481466875
 20
2.734356483428371
 42
0.0085307115550227
 10
28.08505320817211
 20
2.711324292315012
 10
28.06284416794594
 20
2.577987260808255
 10
28.01571075607803
 20
2.699450484025899
 42
0.014633201278307
  0
LWPOLYLINE
  5
495
102
{ACAD_REACTORS
330
498
102
}
330
39B
100
AcDbEntity
  8
FORMAT
100
AcDbPolyline
 90
        4
 70
     1
 43
0.0
 10
27.82625138631124
 20
2.746301120733491
 10
27.82647137730056
 20
2.746087929262984
 10
27.78730301109048
 20
2.857448970448498
 10
27.71638256267897
 20
2.746087929262984
  0
LWPOLYLINE
  5
496
102
{ACAD_REACTORS
330
498
102
}
330
39B
100
AcDbEntity
  8
FORMAT
100
AcDbPolyline
 90
        4
 70
     1
 43
0.0
 10
27.89524244557755
 20
3.009898395795563
 10
27.99604627712901
 20
2.75012602185323
 42
0.0660149720166298
 10
27.42096358594918
 20
2.560038189765119
 10
27.72221440253551
 20
3.009898395795563
  0
LWPOLYLINE
  5
497
102
{ACAD_REACTORS
330
498
102
}
330
39B
100
AcDbEntity
  8
FORMAT
100
AcDbPolyline
 90
       13
 70
     1
 43
0.0
 10
29.38348614891178
 20
3.009898395795563
 10
29.19279654184188
 20
2.849663121732444
 42
0.0022906596071181
 10
28.86759586955777
 20
2.843048835812439
 10
28.73192948971407
 20
2.999019518033357
 10
28.70471702376885
 20
2.835744722362004
 42
0.0274655559228494
 10
28.09477463227537
 20
2.769689076148374
 10
28.13478466086577
 20
3.009898395795563
 10
28.27250800784915
 20
3.009898395795563
 10
28.40846516441128
 20
2.86109542429461
 10
28.59422335947938
 20
3.009898395795563
 10
28.93608238153996
 20
3.009898395795563
 10
29.03481323325339
 20
2.896391141339901
 10
29.16989368840465
 20
3.009898395795563
  0
HATCH
  5
498
330
39B
100
AcDbEntity
  8
FORMAT
100
AcDbHatch
 10
0.0
 20
0.0
 30
0.0
210
0.0
220
0.0
230
1.0
  2
SOLID
 70
     1
 71
     1
 91
        5
 92
        1
 93
        4
 72
     1
 10
27.89524244557755
 20
3.009898395795563
 11
27.99604627712901
 21
2.75012602185323
 72
     2
 10
28.42523413703466
 20
0.4867236379588187
 40
2.303734483509177
 50
100.7369884767685
 51
115.8445848643794
 73
     1
 72
     1
 10
27.42096358594918
 20
2.560038189765119
 11
27.72221440253551
 21
3.009898395795563
 72
     1
 10
27.72221440253551
 20
3.009898395795563
 11
27.89524244557755
 21
3.009898395795563
 97
        1
330
496
 92
       16
 93
        4
 72
     1
 10
27.82625138631124
 20
2.746301120733491
 11
27.82647137730056
 21
2.746087929262984
 72
     1
 10
27.82647137730056
 20
2.746087929262984
 11
27.78730301109048
 21
2.857448970448498
 72
     1
 10
27.78730301109048
 20
2.857448970448498
 11
27.71638256267897
 21
2.746087929262984
 72
     1
 10
27.71638256267897
 20
2.746087929262984
 11
27.82625138631124
 21
2.746301120733491
 97
        1
330
495
 92
        1
 93
        7
 72
     1
 10
27.85379733476327
 20
2.669165529635449
 11
27.89252030058969
 21
2.560038189765117
 72
     1
 10
27.89252030058969
 20
2.560038189765117
 11
28.22439509774364
 21
2.560038189765117
 72
     1
 10
28.22439509774364
 20
2.560038189765117
 11
28.2534481466875
 21
2.734356483428371
 72
     2
 10
28.84418016139653
 20
-2.211762160162989
 40
4.98127031485787
 50
96.81077116038439
 51
98.7658188097698
 73
     1
 72
     1
 10
28.08505320817211
 20
2.711324292315012
 11
28.06284416794594
 21
2.577987260808255
 72
     1
 10
28.06284416794594
 20
2.577987260808255
 11
28.01571075607803
 21
2.699450484025899
 72
     2
 10
28.4520446382265
 20
-0.0812992519853255
 40
2.814774653686729
 50
98.91769894924955
 51
102.2711423007092
 73
     1
 97
        1
330
494
 92
        1
 93
       13
 72
     1
 10
29.38348614891178
 20
3.009898395795563
 11
29.19279654184188
 21
2.849663121732444
 72
     2
 10
29.75206810599112
 20
-32.64549153385557
 40
35.49956040159622
 50
90.90269359832781
 51
91.4276731912744
 73
     1
 72
     1
 10
28.86759586955777
 20
2.843048835812439
 11
28.73192948971407
 21
2.999019518033357
 72
     1
 10
28.73192948971407
 20
2.999019518033357
 11
28.70471702376885
 21
2.835744722362004
 72
     2
 10
29.00055122292874
 20
-2.744979632338445
 40
5.588559939424407
 50
93.03440911951204
 51
99.32746877910854
 73
     1
 72
     1
 10
28.09477463227537
 20
2.769689076148374
 11
28.13478466086577
 21
3.009898395795563
 72
     1
 10
28.13478466086577
 20
3.009898395795563
 11
28.27250800784915
 21
3.009898395795563
 72
     1
 10
28.27250800784915
 20
3.009898395795563
 11
28.40846516441128
 21
2.86109542429461
 72
     1
 10
28.40846516441128
 20
2.86109542429461
 11
28.59422335947938
 21
3.009898395795563
 72
     1
 10
28.59422335947938
 20
3.009898395795563
 11
28.93608238153996
 21
3.009898395795563
 72
     1
 10
28.93608238153996
 20
3.009898395795563
 11
29.03481323325339
 21
2.896391141339901
 72
     1
 10
29.03481323325339
 20
2.896391141339901
 11
29.16989368840465
 21
3.009898395795563
 72
     1
 10
29.16989368840465
 20
3.009898395795563
 11
29.38348614891178
 21
3.009898395795563
 97
        1
330
497
 92
        1
 93
       10
 72
     1
 10
28.84812546490569
 20
2.560038189765117
 11
29.00159362169353
 21
2.6889965139272
 72
     1
 10
29.00159362169353
 20
2.6889965139272
 11
29.11376411899891
 21
2.560038189765117
 72
     1
 10
29.11376411899891
 20
2.560038189765117
 11
29.32737967356207
 21
2.560038189765117
 72
     1
 10
29.32737967356207
 20
2.560038189765117
 11
29.13999480838106
 21
2.775467725762407
 72
     2
 10
29.05510266338243
 20
-3.190012262200435
 40
5.966083988938442
 50
89.18470377236852
 51
91.59664224690866
 73
     1
 72
     1
 10
28.88886932108983
 20
2.773755392477088
 11
28.66271243457582
 21
2.58371718720382
 72
     1
 10
28.66271243457582
 20
2.58371718720382
 11
28.69329665119762
 21
2.76722248693467
 72
     2
 10
28.84418016139635
 20
-2.211762160162928
 40
4.981270314857797
 50
91.73576423011793
 51
93.6434845729463
 73
     1
 72
     1
 10
28.52763063088184
 20
2.75943994238878
 11
28.49439700544456
 21
2.560038189765117
 72
     1
 10
28.49439700544456
 20
2.560038189765117
 11
28.84812546490569
 21
2.560038189765117
 97
        1
330
493
 75
     0
 76
     1
 98
        1
 10
27.40349142259076
 20
2.321955963782295
  0
INSERT
  5
499
330
39B
100
AcDbEntity
  8
TB-TXT
100
AcDbBlockReference
 66
     1
  2
TITLE-BLOCK
 10
32.60259009549838
 20
0.4871808286051192
 30
0.0
 41
0.9696969696969773
 42
0.9696969696969773
 43
0.9696969696969773
  0
ATTRIB
  5
49A
330
499
100
AcDbEntity
  8
TB-TXT
100
AcDbText
 10
27.31573458917869
 20
2.159556522670953
 30
0.0
 40
0.17
  1
PICTORIAL, RACK PANEL
  7
ARIAL
100
AcDbAttribute
  2
LINE1
 70
     0
  0
ATTRIB
  5
49B
330
499
100
AcDbEntity
  8
TB-TXT
100
AcDbText
 10
27.31573458917869
 20
1.908421630896071
 30
0.0
 40
0.17
  1
MXD-1000-P, 10.1" MODERO WALL TOUCH PANEL
  7
ARIAL
100
AcDbAttribute
  2
LINE2
 70
     0
  0
ATTRIB
  5
49C
330
499
100
AcDbEntity
  8
TB-TXT
100
AcDbText
 10
27.31573458917869
 20
1.657286739121175
 30
0.0
 40
0.17
  1
 
  7
ARIAL
100
AcDbAttribute
  2
LINE3
 70
     0
  0
ATTRIB
  5
49D
330
499
100
AcDbEntity
  8
TB-TXT
100
AcDbText
 10
27.31573458917869
 20
1.406151847346279
 30
0.0
 40
0.17
  1
 
  7
ARIAL
100
AcDbAttribute
  2
LINE4
 70
     0
  0
ATTRIB
  5
49E
330
499
100
AcDbEntity
  8
TB-TXT
100
AcDbText
 10
28.67240744538594
 20
0.9393484331170611
 30
0.0
 40
0.17
  1
95-5968-43
  7
ARIAL
100
AcDbAttribute
  2
DWG#
 70
     0
  0
ATTRIB
  5
49F
330
499
100
AcDbEntity
  8
TB-TXT
100
AcDbText
 10
29.67184955913904
 20
0.6131212011589185
 30
0.0
 40
0.1163636363636373
  1
 
  7
ARIAL
100
AcDbAttribute
  2
FILE#
 70
     0
  0
ATTRIB
  5
4A0
330
499
100
AcDbEntity
  8
TB-TXT
100
AcDbText
 10
33.15909260795084
 20
0.8971920186209283
 30
0.0
 40
0.17
  1
A
  7
ARIAL
 72
     4
 11
33.23829451790992
 21
0.9821920186209283
 31
0.0
100
AcDbAttribute
  2
REV
 70
     0
  0
ATTRIB
  5
4A1
330
499
100
AcDbEntity
  8
TB-TXT
100
AcDbText
 10
27.7341555078267
 20
0.5791391671473889
 30
0.0
 40
0.17
  1
1/1
  7
ARIAL
100
AcDbAttribute
  2
SCALE
 70
     0
  0
ATTRIB
  5
4A2
330
499
100
AcDbEntity
  8
TB-TXT
100
AcDbText
 10
32.56139344279876
 20
0.585935475765524
 30
0.0
 40
0.17
  1
1 OF 1
  7
ARIAL
100
AcDbAttribute
  2
SHT#
 70
     0
  0
SEQEND
  5
4A3
330
499
100
AcDbEntity
  8
TB-TXT
  0
TEXT
  5
4A4
330
39B
100
AcDbEntity
  8
FORMAT
100
AcDbText
 10
29.37565033606138
 20
2.561556359369892
 30
0.0
 40
0.0583271326082317
  1
TM
  7
ARIAL
 11
29.37565033606138
 21
2.590719925674008
 31
0.0
100
AcDbText
 73
     2
  0
TEXT
  5
4A5
330
39B
100
AcDbEntity
  8
FORMAT
  6
BYBLOCK
100
AcDbText
 10
31.43486788649962
 20
2.911254421449086
 30
0.0
 40
0.1035906873199564
  1
AMX LLC
 41
1.011836867459718
  7
ARIAL
100
AcDbText
  0
TEXT
  5
4A6
330
39B
100
AcDbEntity
  8
FORMAT
  6
BYBLOCK
100
AcDbText
 10
31.43486788649962
 20
2.733670985046202
 30
0.0
 40
0.1035906873199564
  1
3000 RESEARCH DRIVE
 41
1.011836867459718
  7
ARIAL
100
AcDbText
  0
TEXT
  5
4A7
330
39B
100
AcDbEntity
  8
FORMAT
  6
BYBLOCK
100
AcDbText
 10
31.4299650373904
 20
2.556087548643318
 30
0.0
 40
0.1035906873199564
  1
RICHARDSON, TX 75082
 41
1.018884921437547
  7
ARIAL
100
AcDbText
  0
TEXT
  5
4A8
330
39B
100
AcDbEntity
  8
FORMAT
100
AcDbText
 10
33.0763005219085
 20
1.112168497683782
 30
0.0
 40
0.1088
  1
REV.
  7
ARIAL
 72
     1
 11
33.25367569244056
 21
1.112168497683782
 31
0.0
100
AcDbText
  0
TEXT
  5
4A9
330
39B
100
AcDbEntity
  8
FORMAT
100
AcDbText
 10
31.85237387102683
 20
0.6672081632976301
 30
0.0
 40
0.1163636363636364
  1
SHEET
  7
ARIAL
100
AcDbText
  0
TEXT
  5
4AA
330
39B
100
AcDbEntity
  8
FORMAT
100
AcDbText
 10
27.68095276043268
 20
1.112168497683782
 30
0.0
 40
0.1088
  1
DWG. NO.
  7
ARIAL
100
AcDbText
  0
TEXT
  5
4AB
330
39B
100
AcDbEntity
  8
FORMAT
100
AcDbText
 10
27.18997948867459
 20
1.112168497683782
 30
0.0
 40
0.1088
  1
SIZE
  7
ARIAL
100
AcDbText
  0
LWPOLYLINE
  5
4AC
330
39B
100
AcDbEntity
  8
FORMAT
100
AcDbPolyline
 90
        2
 70
     0
 43
0.0128
 10
25.63662467048089
 20
0.8009602925574199
 10
25.78320002298025
 20
0.8009602925574199
  0
LWPOLYLINE
  5
4AD
330
39B
100
AcDbEntity
  8
FORMAT
100
AcDbPolyline
 90
        2
 70
     1
 43
0.0128
 10
25.7476715218181
 20
0.8009602925574199
 42
0.9999999999999998
 10
25.4116715218181
 20
0.8009602925574199
 42
1.0
  0
LWPOLYLINE
  5
4AE
330
39B
100
AcDbEntity
  8
FORMAT
100
AcDbPolyline
 90
        2
 70
     1
 43
0.0128
 10
25.6564715218181
 20
0.8009602925574199
 42
0.9999999999999998
 10
25.50287152181811
 20
0.8009602925574199
 42
1.0
  0
LWPOLYLINE
  5
4AF
330
39B
100
AcDbEntity
  8
FORMAT
100
AcDbPolyline
 90
        2
 70
     0
 43
0.0128
 10
25.57967152181811
 20
1.023234780957793
 10
25.57967152181811
 20
0.8579134412198783
  0
LWPOLYLINE
  5
4B0
330
39B
100
AcDbEntity
  8
FORMAT
100
AcDbPolyline
 90
        2
 70
     0
 43
0.0128
 10
25.55471837315534
 20
0.8009602925574199
 10
25.60462467048087
 20
0.8009602925574199
  0
LWPOLYLINE
  5
4B1
330
39B
100
AcDbEntity
  8
FORMAT
100
AcDbPolyline
 90
        2
 70
     0
 43
0.0128
 10
25.57967152181811
 20
0.7440071438953453
 10
25.57967152181811
 20
0.5836946164949382
  0
LWPOLYLINE
  5
4B2
330
39B
100
AcDbEntity
  8
FORMAT
100
AcDbPolyline
 90
        2
 70
     0
 43
0.0128
 10
25.57967152181811
 20
0.8259134412194555
 10
25.57967152181811
 20
0.7760071438963081
  0
LWPOLYLINE
  5
4B3
330
39B
100
AcDbEntity
  8
FORMAT
100
AcDbPolyline
 90
        2
 70
     0
 43
0.0128
 10
25.3654010850568
 20
0.8009602925574199
 10
25.52271837315531
 20
0.8009602925574199
  0
LWPOLYLINE
  5
4B4
330
39B
100
AcDbEntity
  8
FORMAT
  6
CENTER
100
AcDbPolyline
 90
        2
 70
     0
 43
0.0128
 10
25.81066408562731
 20
0.8009602925574199
 10
26.43894105695028
 20
0.8009602925574199
  0
LWPOLYLINE
  5
4B5
330
39B
100
AcDbEntity
  8
FORMAT
100
AcDbPolyline
 90
        4
 70
     1
 43
0.0128
 10
26.0118528121386
 20
0.8777602925574115
 10
26.35745281213861
 20
0.9689602925574121
 10
26.3574528121386
 20
0.6372473945541799
 10
26.0118528121386
 20
0.7241602925574142
  0
TEXT
  5
4B6
330
39B
100
AcDbEntity
  8
FORMAT
100
AcDbText
 10
19.75495393651598
 20
0.6510078903925703
 30
0.0
 40
0.131328
  1
written permission.
  7
ARIAL
100
AcDbText
  0
TEXT
  5
4B7
330
39B
100
AcDbEntity
  8
FORMAT
100
AcDbText
 10
19.74984773187751
 20
1.96876701726844
 30
0.0
 40
0.131328
  1
shall be confidential except
  7
ARIAL
100
AcDbText
  0
TEXT
  5
4B8
330
39B
100
AcDbEntity
  8
FORMAT
100
AcDbText
 10
19.7415165558884
 20
2.85100570758221
 30
0.0
 40
0.131328
  1
NOTICE:   This drawing is the 
  7
ARIAL
100
AcDbText
  0
TEXT
  5
4B9
330
39B
100
AcDbEntity
  8
FORMAT
100
AcDbText
 10
19.74339778917627
 20
2.629886144144286
 30
0.0
 40
0.131328
  1
property of AMX LLC.
  7
ARIAL
100
AcDbText
  0
TEXT
  5
4BA
330
39B
100
AcDbEntity
  8
FORMAT
100
AcDbText
 10
19.75226646039044
 20
2.18988658070635
 30
0.0
 40
0.131328
  1
that is not generally known 
  7
ARIAL
100
AcDbText
  0
TEXT
  5
4BB
330
39B
100
AcDbEntity
  8
FORMAT
100
AcDbText
 10
19.75226646039044
 20
1.747647453830502
 30
0.0
 40
0.131328
  1
to the extent the information
  7
ARIAL
100
AcDbText
  0
TEXT
  5
4BC
330
39B
100
AcDbEntity
  8
FORMAT
100
AcDbText
 10
19.74339778917627
 20
1.528767453830504
 30
0.0
 40
0.131328
  1
has been previously established.
  7
ARIAL
100
AcDbText
  0
TEXT
  5
4BD
330
39B
100
AcDbEntity
  8
FORMAT
100
AcDbText
 10
19.75119146994023
 20
1.309887453830505
 30
0.0
 40
0.131328
  1
This drawing may not be copied,
  7
ARIAL
100
AcDbText
  0
TEXT
  5
4BE
330
39B
100
AcDbEntity
  8
FORMAT
100
AcDbText
 10
19.75378936352825
 20
0.869887890392583
 30
0.0
 40
0.131328
  1
for manufacture or sale without
  7
ARIAL
100
AcDbText
  0
TEXT
  5
4BF
330
39B
100
AcDbEntity
  8
FORMAT
100
AcDbText
 10
19.74357695425132
 20
1.091007453830492
 30
0.0
 40
0.131328
  1
reproduced, or used as the basis
  7
ARIAL
100
AcDbText
  0
TEXT
  5
4C0
330
39B
100
AcDbEntity
  8
FORMAT
100
AcDbText
 10
19.74330820663874
 20
2.408766580706362
 30
0.0
 40
0.131328
  1
All information contained herein
  7
ARIAL
100
AcDbText
  0
LWPOLYLINE
  5
4C1
330
39B
100
AcDbEntity
  8
FORMAT
100
AcDbPolyline
 90
        4
 70
     1
 43
0.0290909090909091
 10
0.5
 20
0.5
 10
33.5
 20
0.5
 10
33.5
 20
21.49999999999999
 10
0.5
 20
21.49999999999999
  0
LINE
  5
4C2
330
39B
100
AcDbEntity
  8
FORMAT
 62
     0
100
AcDbLine
 10
21.49259637407903
 20
21.5
 30
0.0
 11
21.49259637407903
 21
20.41710025474266
 31
0.0
  0
LINE
  5
4C3
330
39B
100
AcDbEntity
  8
FORMAT
 62
     0
100
AcDbLine
 10
21.49259637407903
 20
20.41710025474266
 30
0.0
 11
33.5
 21
20.41710025474266
 31
0.0
  0
LINE
  5
4C4
330
39B
100
AcDbEntity
  8
FORMAT
 62
     0
100
AcDbLine
 10
33.5
 20
20.41710025474266
 30
0.0
 11
33.5
 21
21.5
 31
0.0
  0
LINE
  5
4C5
330
39B
100
AcDbEntity
  8
FORMAT
 62
     0
100
AcDbLine
 10
33.5
 20
21.5
 30
0.0
 11
21.49259637407903
 21
21.5
 31
0.0
  0
LINE
  5
4C6
330
39B
100
AcDbEntity
  8
FORMAT
 62
     0
100
AcDbLine
 10
22.42792228571428
 20
21.1256
 30
0.0
 11
22.42792228571428
 21
20.41710025474265
 31
0.0
  0
LINE
  5
4C7
330
39B
100
AcDbEntity
  8
FORMAT
 62
     0
100
AcDbLine
 10
23.65060571428571
 20
21.1256
 30
0.0
 11
23.65060571428571
 21
20.41710025474265
 31
0.0
  0
LINE
  5
4C8
330
39B
100
AcDbEntity
  8
FORMAT
 62
     0
100
AcDbLine
 10
30.57914514285714
 20
21.1256
 30
0.0
 11
30.57914514285714
 21
20.41710025474265
 31
0.0
  0
LINE
  5
4C9
330
39B
100
AcDbEntity
  8
FORMAT
 62
     0
100
AcDbLine
 10
31.80182857142856
 20
21.1256
 30
0.0
 11
31.80182857142856
 21
20.41710025474265
 31
0.0
  0
LINE
  5
4CA
330
39B
100
AcDbEntity
  8
FORMAT
 62
     0
100
AcDbLine
 10
21.49259637407903
 20
20.75673454045694
 30
0.0
 11
33.5
 21
20.75673454045694
 31
0.0
  0
LINE
  5
4CB
330
39B
100
AcDbEntity
  8
FORMAT
 62
     0
100
AcDbLine
 10
21.49259637407903
 20
21.1256
 30
0.0
 11
33.5
 21
21.1256
 31
0.0
  0
MTEXT
  5
4CC
330
39B
100
AcDbEntity
  8
FORMAT
 62
     0
100
AcDbMText
 10
26.78375956501314
 20
21.37024209740905
 30
0.0
 40
0.1145833333333333
 41
0.0
 71
     1
 72
     1
  1
R  E  V  I  S  I  O  N  S
  7
SLDTEXTSTYLE6
1001
ACAD
1000
MTEXTBEGIN
1070
    73
1070
     1
1070
    44
1040
1.0
1070
    74
1070
     0
1000
MTEXTEND
  0
MTEXT
  5
4CD
330
39B
100
AcDbEntity
  8
FORMAT
 62
     0
100
AcDbMText
 10
21.85771303285356
 20
20.9829433450297
 30
0.0
 40
0.0833333333333333
 41
0.0
 71
     1
 72
     1
  1
REV
  7
SLDTEXTSTYLE4
1001
ACAD
1000
MTEXTBEGIN
1070
    73
1070
     1
1070
    44
1040
1.0
1070
    74
1070
     0
1000
MTEXTEND
  0
MTEXT
  5
4CE
330
39B
100
AcDbEntity
  8
FORMAT
 62
     0
100
AcDbMText
 10
22.92321461644571
 20
20.9829433450297
 30
0.0
 40
0.0833333333333333
 41
0.0
 71
     1
 72
     1
  1
ECN
  7
SLDTEXTSTYLE4
1001
ACAD
1000
MTEXTBEGIN
1070
    73
1070
     1
1070
    44
1040
1.0
1070
    74
1070
     0
1000
MTEXTEND
  0
MTEXT
  5
4CF
330
39B
100
AcDbEntity
  8
FORMAT
 62
     0
100
AcDbMText
 10
26.76603282843091
 20
20.9829433450297
 30
0.0
 40
0.0833333333333333
 41
0.0
 71
     1
 72
     1
  1
DESCRIPTION
  7
SLDTEXTSTYLE4
1001
ACAD
1000
MTEXTBEGIN
1070
    73
1070
     1
1070
    44
1040
1.0
1070
    74
1070
     0
1000
MTEXTEND
  0
MTEXT
  5
4D0
330
39B
100
AcDbEntity
  8
FORMAT
 62
     0
100
AcDbMText
 10
31.05453006856061
 20
20.9829433450297
 30
0.0
 40
0.0833333333333333
 41
0.0
 71
     1
 72
     1
  1
DATE
  7
SLDTEXTSTYLE4
1001
ACAD
1000
MTEXTBEGIN
1070
    73
1070
     1
1070
    44
1040
1.0
1070
    74
1070
     0
1000
MTEXTEND
  0
MTEXT
  5
4D1
330
39B
100
AcDbEntity
  8
FORMAT
 62
     0
100
AcDbMText
 10
32.35184020731022
 20
20.9829433450297
 30
0.0
 40
0.0833333333333333
 41
0.0
 71
     1
 72
     1
  1
APPROVED
  7
SLDTEXTSTYLE4
1001
ACAD
1000
MTEXTBEGIN
1070
    73
1070
     1
1070
    44
1040
1.0
1070
    74
1070
     0
1000
MTEXTEND
  0
MTEXT
  5
4D2
330
39B
100
AcDbEntity
  8
TB-TXT
100
AcDbMText
 10
21.88334266344455
 20
20.66823359756889
 30
0.0
 40
0.156
 41
0.0
 71
     1
 72
     1
  1
A
  7
SLDTEXTSTYLE4
1001
ACAD
1000
MTEXTBEGIN
1070
    73
1070
     1
1070
    44
1040
1.0
1070
    74
1070
     0
1000
MTEXTEND
  0
MTEXT
  5
4D3
330
39B
100
AcDbEntity
  8
TB-TXT
100
AcDbMText
 10
22.75109732225938
 20
20.66823359756889
 30
0.0
 40
0.156
 41
0.0
 71
     1
 72
     1
  1
20304
  7
SLDTEXTSTYLE4
1001
ACAD
1000
MTEXTBEGIN
1070
    73
1070
     1
1070
    44
1040
1.0
1070
    74
1070
     0
1000
MTEXTEND
  0
MTEXT
  5
4D4
330
39B
100
AcDbEntity
  8
TB-TXT
100
AcDbMText
 10
23.67029075365578
 20
20.66823359756889
 30
0.0
 40
0.156
 41
0.0
 71
     1
 72
     1
  1
RELEASE TO PRODUCTION
  7
SLDTEXTSTYLE4
1001
ACAD
1000
MTEXTBEGIN
1070
    73
1070
     1
1070
    44
1040
1.0
1070
    74
1070
     0
1000
MTEXTEND
  0
MTEXT
  5
4D5
330
39B
100
AcDbEntity
  8
TB-TXT
100
AcDbMText
 10
30.75368688976002
 20
20.66823359756889
 30
0.0
 40
0.156
 41
0.0
 71
     1
 72
     1
  1
12/12/12
  7
SLDTEXTSTYLE4
1001
ACAD
1000
MTEXTBEGIN
1070
    73
1070
     1
1070
    44
1040
1.0
1070
    74
1070
     0
1000
MTEXTEND
  0
MTEXT
  5
4D6
330
39B
100
AcDbEntity
  8
TB-TXT
100
AcDbMText
 10
32.22148093323167
 20
20.66823359756889
 30
0.0
 40
0.156
 41
0.0
 71
     1
 72
     1
  1
J.LUTHER
  7
SLDTEXTSTYLE4
1001
ACAD
1000
MTEXTBEGIN
1070
    73
1070
     1
1070
    44
1040
1.0
1070
    74
1070
     0
1000
MTEXTEND
  0
LINE
  5
4D7
330
39B
100
AcDbEntity
  8
DIM
 62
     1
100
AcDbLine
 10
4.804689670255068
 20
16.23584264414771
 30
0.0
 11
3.91528877976812
 21
16.23584264414771
 31
0.0
  0
LINE
  5
4D8
330
39B
100
AcDbEntity
  8
DIM
 62
     1
100
AcDbLine
 10
5.804689670255068
 20
16.7358426441477
 30
0.0
 11
3.91528877976812
 21
16.7358426441477
 31
0.0
  0
LINE
  5
4D9
330
39B
100
AcDbEntity
  8
DIM
 62
     1
100
AcDbLine
 10
4.014675926354458
 20
16.10584264414771
 30
0.0
 11
4.014675926354458
 21
15.97584264414771
 31
0.0
  0
LINE
  5
4DA
330
39B
100
AcDbEntity
  8
DIM
 62
     1
100
AcDbLine
 10
4.014675926354458
 20
16.8658426441477
 30
0.0
 11
4.014675926354459
 21
17.00890656594884
 31
0.0
  0
SOLID
  5
4DB
330
39B
100
AcDbEntity
  8
DIM
 62
     1
100
AcDbTrace
 10
3.993009259687792
 20
16.10584264414771
 30
0.0
 11
4.036342593021124
 21
16.10584264414771
 31
0.0
 12
4.014675926354458
 22
16.23584264414771
 32
0.0
 13
4.014675926354458
 23
16.23584264414771
 33
0.0
  0
SOLID
  5
4DC
330
39B
100
AcDbEntity
  8
DIM
 62
     1
100
AcDbTrace
 10
3.993009259687792
 20
16.8658426441477
 30
0.0
 11
4.036342593021124
 21
16.8658426441477
 31
0.0
 12
4.014675926354458
 22
16.7358426441477
 32
0.0
 13
4.014675926354458
 23
16.7358426441477
 33
0.0
  0
MTEXT
  5
4DD
330
39B
100
AcDbEntity
  8
DIM
 62
     1
100
AcDbMText
 10
3.973092507172993
 20
16.59339309141379
 30
0.0
 40
0.156
 41
0.0
 71
     5
 72
     1
  1
.500
  7
SLDTEXTSTYLE4
1001
ACAD
1000
MTEXTBEGIN
1070
    73
1070
     1
1070
    44
1040
1.0
1070
    74
1070
     0
1000
MTEXTEND
  0
MTEXT
  5
4DE
330
39B
100
AcDbEntity
  8
DIM
 62
     1
100
AcDbMText
 10
3.973092507172993
 20
16.38111983870272
 30
0.0
 40
0.156
 41
0.0
 71
     5
 72
     1
  1
(12.70)
  7
SLDTEXTSTYLE4
1001
ACAD
1000
MTEXTBEGIN
1070
    73
1070
     1
1070
    44
1040
1.0
1070
    74
1070
     0
1000
MTEXTEND
  0
LINE
  5
4DF
330
39B
100
AcDbEntity
  8
DIM
 62
     1
100
AcDbLine
 10
4.937689670255067
 20
12.08901376822804
 30
0.0
 11
3.369698878760131
 21
12.08901376822804
 31
0.0
  0
LINE
  5
4E0
330
39B
100
AcDbEntity
  8
DIM
 62
     1
100
AcDbLine
 10
4.804689670255068
 20
8.353013768228045
 30
0.0
 11
3.36969887876013
 21
8.353013768228047
 31
0.0
  0
LINE
  5
4E1
330
39B
100
AcDbEntity
  8
DIM
 62
     1
100
AcDbLine
 10
3.494003490456278
 20
11.95901376822804
 30
0.0
 11
3.494003490456277
 21
10.5963765716313
 31
0.0
  0
LINE
  5
4E2
330
39B
100
AcDbEntity
  8
DIM
 62
     1
100
AcDbLine
 10
3.494003490456277
 20
8.483013768228047
 30
0.0
 11
3.494003490456277
 21
9.996740024393766
 31
0.0
  0
SOLID
  5
4E3
330
39B
100
AcDbEntity
  8
DIM
 62
     1
100
AcDbTrace
 10
3.472336823789611
 20
11.95901376822804
 30
0.0
 11
3.515670157122944
 21
11.95901376822804
 31
0.0
 12
3.494003490456278
 22
12.08901376822804
 32
0.0
 13
3.494003490456278
 23
12.08901376822804
 33
0.0
  0
SOLID
  5
4E4
330
39B
100
AcDbEntity
  8
DIM
 62
     1
100
AcDbTrace
 10
3.47233682378961
 20
8.483013768228047
 30
0.0
 11
3.515670157122943
 21
8.483013768228047
 31
0.0
 12
3.494003490456277
 22
8.353013768228047
 32
0.0
 13
3.494003490456277
 23
8.353013768228047
 33
0.0
  0
MTEXT
  5
4E5
330
39B
100
AcDbEntity
  8
DIM
 62
     1
100
AcDbMText
 10
3.494003490456275
 20
10.42619306562524
 30
0.0
 40
0.156
 41
0.0
 71
     5
 72
     1
  1
3.736
  7
SLDTEXTSTYLE4
1001
ACAD
1000
MTEXTBEGIN
1070
    73
1070
     1
1070
    44
1040
1.0
1070
    74
1070
     0
1000
MTEXTEND
  0
LINE
  5
4E6
330
39B
100
AcDbEntity
  8
DIM
 62
     1
100
AcDbLine
 10
4.804689670255068
 20
8.353013768228045
 30
0.0
 11
2.613814645533006
 21
8.353013768228047
 31
0.0
  0
LINE
  5
4E7
330
39B
100
AcDbEntity
  8
DIM
 62
     1
100
AcDbLine
 10
4.804689670255068
 20
13.57301376822804
 30
0.0
 11
2.613814645533008
 21
13.57301376822804
 31
0.0
  0
LINE
  5
4E8
330
39B
100
AcDbEntity
  8
DIM
 62
     1
100
AcDbLine
 10
2.738119257229153
 20
8.483013768228047
 30
0.0
 11
2.738119257229153
 21
10.63899985231959
 31
0.0
  0
LINE
  5
4E9
330
39B
100
AcDbEntity
  8
DIM
 62
     1
100
AcDbLine
 10
2.738119257229154
 20
13.44301376822804
 30
0.0
 11
2.738119257229154
 21
11.1788049633795
 31
0.0
  0
SOLID
  5
4EA
330
39B
100
AcDbEntity
  8
DIM
 62
     1
100
AcDbTrace
 10
2.716452590562486
 20
8.483013768228047
 30
0.0
 11
2.759785923895819
 21
8.483013768228047
 31
0.0
 12
2.738119257229153
 22
8.353013768228047
 32
0.0
 13
2.738119257229153
 23
8.353013768228047
 33
0.0
  0
SOLID
  5
4EB
330
39B
100
AcDbEntity
  8
DIM
 62
     1
100
AcDbTrace
 10
2.716452590562488
 20
13.44301376822804
 30
0.0
 11
2.759785923895821
 21
13.44301376822804
 31
0.0
 12
2.738119257229154
 22
13.57301376822804
 32
0.0
 13
2.738119257229154
 23
13.57301376822804
 33
0.0
  0
MTEXT
  5
4EC
330
39B
100
AcDbEntity
  8
DIM
 62
     1
100
AcDbMText
 10
2.738119257229152
 20
11.04186117286473
 30
0.0
 40
0.156
 41
0.0
 71
     5
 72
     1
  1
5.220
  7
SLDTEXTSTYLE4
1001
ACAD
1000
MTEXTBEGIN
1070
    73
1070
     1
1070
    44
1040
1.0
1070
    74
1070
     0
1000
MTEXTEND
  0
LINE
  5
4ED
330
39B
100
AcDbEntity
  8
DIM
 62
     1
100
AcDbLine
 10
5.203189670255067
 20
9.635013768228045
 30
0.0
 11
5.203189670255067
 21
7.486867977769746
 31
0.0
  0
LINE
  5
4EE
330
39B
100
AcDbEntity
  8
DIM
 62
     1
100
AcDbLine
 10
4.867189670255068
 20
8.290513768228045
 30
0.0
 11
4.867189670255068
 21
7.486867977769746
 31
0.0
  0
LINE
  5
4EF
330
39B
100
AcDbEntity
  8
DIM
 62
     1
100
AcDbLine
 10
5.333189670255067
 20
7.486867977769746
 30
0.0
 11
5.463189670255067
 21
7.486867977769746
 31
0.0
  0
LINE
  5
4F0
330
39B
100
AcDbEntity
  8
DIM
 62
     1
100
AcDbLine
 10
4.737189670255069
 20
7.486867977769746
 30
0.0
 11
4.547047937971603
 21
7.486867977769746
 31
0.0
  0
SOLID
  5
4F1
330
39B
100
AcDbEntity
  8
DIM
 62
     1
100
AcDbTrace
 10
5.333189670255067
 20
7.508534644436412
 30
0.0
 11
5.333189670255067
 21
7.465201311103079
 31
0.0
 12
5.203189670255067
 22
7.486867977769746
 32
0.0
 13
5.203189670255067
 23
7.486867977769746
 33
0.0
  0
SOLID
  5
4F2
330
39B
100
AcDbEntity
  8
DIM
 62
     1
100
AcDbTrace
 10
4.737189670255069
 20
7.508534644436412
 30
0.0
 11
4.737189670255069
 21
7.465201311103079
 31
0.0
 12
4.867189670255068
 22
7.486867977769746
 32
0.0
 13
4.867189670255068
 23
7.486867977769746
 33
0.0
  0
MTEXT
  5
4F3
330
39B
100
AcDbEntity
  8
DIM
 62
     1
100
AcDbMText
 10
4.207214305951137
 20
7.615689269754978
 30
0.0
 40
0.156
 41
0.0
 71
     5
 72
     1
  1
.336
  7
SLDTEXTSTYLE4
1001
ACAD
1000
MTEXTBEGIN
1070
    73
1070
     1
1070
    44
1040
1.0
1070
    74
1070
     0
1000
MTEXTEND
  0
LINE
  5
4F4
330
39B
100
AcDbEntity
  8
DIM
 62
     1
100
AcDbLine
 10
4.937689670255067
 20
9.838013768228044
 30
0.0
 11
4.001047937971604
 21
9.838013768228044
 31
0.0
  0
LINE
  5
4F5
330
39B
100
AcDbEntity
  8
DIM
 62
     1
100
AcDbLine
 10
4.804689670255068
 20
8.353013768228045
 30
0.0
 11
4.001047937971604
 21
8.353013768228045
 31
0.0
  0
LINE
  5
4F6
330
39B
100
AcDbEntity
  8
DIM
 62
     1
100
AcDbLine
 10
4.12535254966775
 20
9.708013768228044
 30
0.0
 11
4.12535254966775
 21
9.2718879485433
 31
0.0
  0
LINE
  5
4F7
330
39B
100
AcDbEntity
  8
DIM
 62
     1
100
AcDbLine
 10
4.12535254966775
 20
8.483013768228046
 30
0.0
 11
4.12535254966775
 21
8.737729984513746
 31
0.0
  0
SOLID
  5
4F8
330
39B
100
AcDbEntity
  8
DIM
 62
     1
100
AcDbTrace
 10
4.103685883001084
 20
9.708013768228045
 30
0.0
 11
4.147019216334417
 21
9.708013768228044
 31
0.0
 12
4.12535254966775
 22
9.838013768228044
 32
0.0
 13
4.12535254966775
 23
9.838013768228044
 33
0.0
  0
SOLID
  5
4F9
330
39B
100
AcDbEntity
  8
DIM
 62
     1
100
AcDbTrace
 10
4.103685883001084
 20
8.483013768228047
 30
0.0
 11
4.147019216334417
 21
8.483013768228046
 31
0.0
 12
4.12535254966775
 22
8.353013768228045
 32
0.0
 13
4.12535254966775
 23
8.353013768228045
 33
0.0
  0
MTEXT
  5
4FA
330
39B
100
AcDbEntity
  8
DIM
 62
     1
100
AcDbMText
 10
4.125352549667749
 20
9.154887948543301
 30
0.0
 40
0.156
 41
0.0
 71
     5
 72
     1
  1
1.485
  7
SLDTEXTSTYLE4
1001
ACAD
1000
MTEXTBEGIN
1070
    73
1070
     1
1070
    44
1040
1.0
1070
    74
1070
     0
1000
MTEXTEND
  0
LINE
  5
4FB
330
39B
100
AcDbEntity
  8
DIM
 62
     1
100
AcDbLine
 10
4.867189670255068
 20
8.290513768228045
 30
0.0
 11
4.867189670255068
 21
6.069545143124086
 31
0.0
  0
LINE
  5
4FC
330
39B
100
AcDbEntity
  8
DIM
 62
     1
100
AcDbLine
 10
23.86718967025506
 20
8.290513768228045
 30
0.0
 11
23.86718967025506
 21
6.069545143124086
 31
0.0
  0
LINE
  5
4FD
330
39B
100
AcDbEntity
  8
DIM
 62
     1
100
AcDbLine
 10
4.997189670255068
 20
6.069545143124086
 30
0.0
 11
13.85866149586258
 21
6.069545143124086
 31
0.0
  0
LINE
  5
4FE
330
39B
100
AcDbEntity
  8
DIM
 62
     1
100
AcDbLine
 10
23.73718967025506
 20
6.069545143124086
 30
0.0
 11
14.70411947261607
 21
6.069545143124086
 31
0.0
  0
SOLID
  5
4FF
330
39B
100
AcDbEntity
  8
DIM
 62
     1
100
AcDbTrace
 10
4.997189670255068
 20
6.091211809790753
 30
0.0
 11
4.997189670255068
 21
6.04787847645742
 31
0.0
 12
4.867189670255068
 22
6.069545143124086
 32
0.0
 13
4.867189670255068
 23
6.069545143124086
 33
0.0
  0
SOLID
  5
500
330
39B
100
AcDbEntity
  8
DIM
 62
     1
100
AcDbTrace
 10
23.73718967025506
 20
6.091211809790753
 30
0.0
 11
23.73718967025506
 21
6.04787847645742
 31
0.0
 12
23.86718967025506
 22
6.069545143124086
 32
0.0
 13
23.86718967025506
 23
6.069545143124086
 33
0.0
  0
LINE
  5
501
330
39B
100
AcDbEntity
  8
DIM
 62
     1
100
AcDbLine
 10
23.53118967025506
 20
9.635013768228045
 30
0.0
 11
23.53118967025506
 21
7.014427032887861
 31
0.0
  0
LINE
  5
502
330
39B
100
AcDbEntity
  8
DIM
 62
     1
100
AcDbLine
 10
4.867189670255068
 20
8.290513768228045
 30
0.0
 11
4.867189670255068
 21
7.014427032887861
 31
0.0
  0
LINE
  5
503
330
39B
100
AcDbEntity
  8
DIM
 62
     1
100
AcDbLine
 10
23.40118967025506
 20
7.014427032887861
 30
0.0
 11
14.73336947261607
 21
7.014427032887861
 31
0.0
  0
LINE
  5
504
330
39B
100
AcDbEntity
  8
DIM
 62
     1
100
AcDbLine
 10
4.997189670255068
 20
7.014427032887861
 30
0.0
 11
13.82941149586258
 21
7.014427032887861
 31
0.0
  0
SOLID
  5
505
330
39B
100
AcDbEntity
  8
DIM
 62
     1
100
AcDbTrace
 10
23.40118967025506
 20
7.036093699554528
 30
0.0
 11
23.40118967025506
 21
6.992760366221195
 31
0.0
 12
23.53118967025506
 22
7.014427032887861
 32
0.0
 13
23.53118967025506
 23
7.014427032887861
 33
0.0
  0
SOLID
  5
506
330
39B
100
AcDbEntity
  8
DIM
 62
     1
100
AcDbTrace
 10
4.997189670255068
 20
7.036093699554528
 30
0.0
 11
4.997189670255068
 21
6.992760366221195
 31
0.0
 12
4.867189670255068
 22
7.014427032887861
 32
0.0
 13
4.867189670255068
 23
7.014427032887861
 33
0.0
  0
MTEXT
  5
507
330
39B
100
AcDbEntity
  8
DIM
 62
     1
100
AcDbMText
 10
2.738119257229152
 20
10.78088790193773
 30
0.0
 40
0.156
 41
0.0
 71
     5
 72
     1
  1
(132.59)
  7
SLDTEXTSTYLE4
1001
ACAD
1000
MTEXTBEGIN
1070
    73
1070
     1
1070
    44
1040
1.0
1070
    74
1070
     0
1000
MTEXTEND
  0
MTEXT
  5
508
330
39B
100
AcDbEntity
  8
DIM
 62
     1
100
AcDbMText
 10
3.494003490456275
 20
10.16521979469824
 30
0.0
 40
0.156
 41
0.0
 71
     5
 72
     1
  1
(94.89)
  7
SLDTEXTSTYLE4
1001
ACAD
1000
MTEXTBEGIN
1070
    73
1070
     1
1070
    44
1040
1.0
1070
    74
1070
     0
1000
MTEXTEND
  0
MTEXT
  5
509
330
39B
100
AcDbEntity
  8
DIM
 62
     1
100
AcDbMText
 10
4.125352549667749
 20
8.893914677616304
 30
0.0
 40
0.156
 41
0.0
 71
     5
 72
     1
  1
(37.72)
  7
SLDTEXTSTYLE4
1001
ACAD
1000
MTEXTBEGIN
1070
    73
1070
     1
1070
    44
1040
1.0
1070
    74
1070
     0
1000
MTEXTEND
  0
MTEXT
  5
50A
330
39B
100
AcDbEntity
  8
DIM
 62
     1
100
AcDbMText
 10
4.207214305951137
 20
7.358046750417896
 30
0.0
 40
0.156
 41
0.0
 71
     5
 72
     1
  1
(8.53)
  7
SLDTEXTSTYLE4
1001
ACAD
1000
MTEXTBEGIN
1070
    73
1070
     1
1070
    44
1040
1.0
1070
    74
1070
     0
1000
MTEXTEND
  0
TEXT
  5
50B
330
39B
100
AcDbEntity
  8
0
 62
     1
100
AcDbText
 10
13.97650954391259
 20
7.052411878542306
 30
0.0
 40
0.156
  1
18.664
 41
0.75
  7
SLDTEXTSTYLE4
100
AcDbText
  0
TEXT
  5
50C
330
39B
100
AcDbEntity
  8
0
 62
     1
100
AcDbText
 10
14.02077317940458
 20
6.107529988778531
 30
0.0
 40
0.156
  1
19.000
 41
0.75
  7
SLDTEXTSTYLE4
100
AcDbText
  0
TEXT
  5
50D
330
39B
100
AcDbEntity
  8
0
 62
     1
100
AcDbText
 10
13.88943056961483
 20
6.834633219786999
 30
0.0
 40
0.156
  1
(474.07)
 41
0.75
  7
SLDTEXTSTYLE4
100
AcDbText
  0
TEXT
  5
50E
330
39B
100
AcDbEntity
  8
0
 62
     1
100
AcDbText
 10
13.91868056961483
 20
5.889751330023224
 30
0.0
 40
0.156
  1
(482.60)
 41
0.75
  7
SLDTEXTSTYLE4
100
AcDbText
  0
LINE
  5
50F
330
39B
100
AcDbEntity
  8
DIM
 62
     1
100
AcDbLine
 10
28.52206590241893
 20
8.290513768228045
 30
0.0
 11
28.52206590241893
 21
7.640683760683757
 31
0.0
  0
LINE
  5
510
330
39B
100
AcDbEntity
  8
DIM
 62
     1
100
AcDbLine
 10
30.63506590241895
 20
8.950513768228045
 30
0.0
 11
30.63506590241895
 21
7.640683760683757
 31
0.0
  0
LINE
  5
511
330
39B
100
AcDbEntity
  8
DIM
 62
     1
100
AcDbLine
 10
28.65206590241892
 20
7.741191111136473
 30
0.0
 11
29.2850617054096
 21
7.741191111136473
 31
0.0
  0
LINE
  5
512
330
39B
100
AcDbEntity
  8
DIM
 62
     1
100
AcDbLine
 10
30.50506590241895
 20
7.741191111136473
 30
0.0
 11
29.98399753807945
 21
7.741191111136473
 31
0.0
  0
SOLID
  5
513
330
39B
100
AcDbEntity
  8
DIM
 62
     1
100
AcDbTrace
 10
28.65206590241892
 20
7.76285777780314
 30
0.0
 11
28.65206590241892
 21
7.719524444469807
 31
0.0
 12
28.52206590241893
 22
7.741191111136473
 32
0.0
 13
28.52206590241893
 23
7.741191111136473
 33
0.0
  0
SOLID
  5
514
330
39B
100
AcDbEntity
  8
DIM
 62
     1
100
AcDbTrace
 10
30.50506590241895
 20
7.76285777780314
 30
0.0
 11
30.50506590241895
 21
7.719524444469807
 31
0.0
 12
30.63506590241895
 22
7.741191111136473
 32
0.0
 13
30.63506590241895
 23
7.741191111136473
 33
0.0
  0
MTEXT
  5
515
330
39B
100
AcDbEntity
  8
DIM
 62
     1
100
AcDbMText
 10
29.63839625958734
 20
7.822370110048269
 30
0.0
 40
0.156
 41
0.0
 71
     5
 72
     1
  1
2.113
  7
SLDTEXTSTYLE4
1001
ACAD
1000
MTEXTBEGIN
1070
    73
1070
     1
1070
    44
1040
1.0
1070
    74
1070
     0
1000
MTEXTEND
  0
MTEXT
  5
516
330
39B
100
AcDbEntity
  8
DIM
 62
     1
100
AcDbMText
 10
29.63839625958734
 20
7.613624094379816
 30
0.0
 40
0.156
 41
0.0
 71
     5
 72
     1
  1
(53.67)
  7
SLDTEXTSTYLE4
1001
ACAD
1000
MTEXTBEGIN
1070
    73
1070
     1
1070
    44
1040
1.0
1070
    74
1070
     0
1000
MTEXTEND
  0
ENDBLK
  5
518
330
39B
100
AcDbEntity
  8
0
100
AcDbBlockEnd
  0
BLOCK
  5
6B2
330
6A7
100
AcDbEntity
  8
0
100
AcDbBlockBegin
  2
*D20
 70
     1
 10
0.0
 20
0.0
 30
0.0
  3
*D20
  1

  0
LINE
  5
6D2
330
6A7
100
AcDbEntity
  8
DIM
 62
     0
100
AcDbLine
 10
8.799643871436924
 20
19.43497426039338
 30
0.0
 11
4.43171739279584
 21
19.43497426039338
 31
0.0
  0
LINE
  5
6D3
330
6A7
100
AcDbEntity
  8
DIM
 62
     0
100
AcDbLine
 10
5.055667282173969
 20
17.3419743189073
 30
0.0
 11
4.431717392795839
 21
17.3419743189073
 31
0.0
  0
LINE
  5
6D4
330
6A7
100
AcDbEntity
  8
DIM
 62
     0
100
AcDbLine
 10
4.611717392795839
 20
19.25497426039338
 30
0.0
 11
4.611717392795839
 21
18.56847428965034
 31
0.0
  0
LINE
  5
6D5
330
6A7
100
AcDbEntity
  8
DIM
 62
     0
100
AcDbLine
 10
4.611717392795839
 20
17.5219743189073
 30
0.0
 11
4.611717392795839
 21
18.20847428965034
 31
0.0
  0
SOLID
  5
6D6
330
6A7
100
AcDbEntity
  8
DIM
 62
     0
100
AcDbTrace
 10
4.581717392795839
 20
19.25497426039338
 30
0.0
 11
4.64171739279584
 21
19.25497426039338
 31
0.0
 12
4.611717392795839
 22
19.43497426039338
 32
0.0
 13
4.611717392795839
 23
19.43497426039338
 33
0.0
  0
SOLID
  5
6D7
330
6A7
100
AcDbEntity
  8
DIM
 62
     0
100
AcDbTrace
 10
4.581717392795838
 20
17.5219743189073
 30
0.0
 11
4.641717392795839
 21
17.5219743189073
 31
0.0
 12
4.611717392795839
 22
17.3419743189073
 32
0.0
 13
4.611717392795839
 23
17.3419743189073
 33
0.0
  0
MTEXT
  5
6D8
330
6A7
100
AcDbEntity
  8
DIM
 62
     0
100
AcDbMText
 10
4.611717392795836
 20
18.38847428965034
 30
0.0
 40
0.18
 41
0.0
 71
     5
 72
     1
  1
\A1;2.0930 [53.16]
1001
ACAD
1000
MTEXTBEGIN
1070
    73
1070
     1
1070
    44
1040
1.0
1070
    74
1070
     0
1000
MTEXTEND
  0
POINT
  5
6D9
330
6A7
100
AcDbEntity
  8
DEFPOINTS
 62
     0
100
AcDbPoint
 10
8.862143871436924
 20
19.43497426039338
 30
0.0
  0
POINT
  5
6DA
330
6A7
100
AcDbEntity
  8
DEFPOINTS
 62
     0
100
AcDbPoint
 10
5.118167282173969
 20
17.3419743189073
 30
0.0
  0
POINT
  5
6DB
330
6A7
100
AcDbEntity
  8
DEFPOINTS
 62
     0
100
AcDbPoint
 10
4.611717392795839
 20
17.3419743189073
 30
0.0
  0
ENDBLK
  5
6B3
330
6A7
100
AcDbEntity
  8
0
100
AcDbBlockEnd
  0
ENDSEC
  0
SECTION
  2
ENTITIES
  0
CIRCLE
  5
153
330
1F
100
AcDbEntity
  8
PART
  6
CONTINUOUS
100
AcDbCircle
 10
21.99612002118445
 20
14.7285239020735
 30
0.0
 40
0.1059999999999981
  0
CIRCLE
  5
154
330
1F
100
AcDbEntity
  8
PART
  6
CONTINUOUS
100
AcDbCircle
 10
21.99612002118445
 20
14.7285239020735
 30
0.0
 40
0.0690000000012461
  0
CIRCLE
  5
155
330
1F
100
AcDbEntity
  8
PART
  6
CONTINUOUS
100
AcDbCircle
 10
21.99612002118445
 20
14.7285239020735
 30
0.0
 40
0.0470999999991548
  0
CIRCLE
  5
156
330
1F
100
AcDbEntity
  8
PART
  6
CONTINUOUS
100
AcDbCircle
 10
9.240214509371863
 20
9.964744374512877
 30
0.0
 40
0.0690000000012443
  0
CIRCLE
  5
157
330
1F
100
AcDbEntity
  8
PART
  6
CONTINUOUS
100
AcDbCircle
 10
9.240214509371863
 20
9.964744374512877
 30
0.0
 40
0.1060000000000008
  0
CIRCLE
  5
158
330
1F
100
AcDbEntity
  8
PART
  6
CONTINUOUS
100
AcDbCircle
 10
9.240214509371863
 20
9.964744374512877
 30
0.0
 40
0.0470999999991575
  0
CIRCLE
  5
159
330
1F
100
AcDbEntity
  8
PART
  6
CONTINUOUS
100
AcDbCircle
 10
21.99612002118445
 20
9.964744374512877
 30
0.0
 40
0.1059999999999981
  0
CIRCLE
  5
15A
330
1F
100
AcDbEntity
  8
PART
  6
CONTINUOUS
100
AcDbCircle
 10
21.99612002118445
 20
9.964744374512877
 30
0.0
 40
0.0690000000012443
  0
CIRCLE
  5
15B
330
1F
100
AcDbEntity
  8
PART
  6
CONTINUOUS
100
AcDbCircle
 10
21.99612002118445
 20
9.964744374512877
 30
0.0
 40
0.0470999999991548
  0
CIRCLE
  5
15C
330
1F
100
AcDbEntity
  8
PART
  6
CONTINUOUS
100
AcDbCircle
 10
9.240214509372073
 20
14.72852390207371
 30
0.0
 40
0.0690000000012461
  0
CIRCLE
  5
15D
330
1F
100
AcDbEntity
  8
PART
  6
CONTINUOUS
100
AcDbCircle
 10
9.240214509372073
 20
14.72852390207371
 30
0.0
 40
0.105999999999999
  0
CIRCLE
  5
15E
330
1F
100
AcDbEntity
  8
PART
  6
CONTINUOUS
100
AcDbCircle
 10
9.240214509372073
 20
14.72852390207371
 30
0.0
 40
0.0470999999991566
  0
LINE
  5
15F
330
1F
100
AcDbEntity
  8
PART
  6
CONTINUOUS
100
AcDbLine
 10
8.622143657273209
 20
15.09159471949446
 30
0.0
 11
8.787143511180815
 21
15.09159471949446
 31
0.0
  0
LINE
  5
160
330
1F
100
AcDbEntity
  8
PART
  6
CONTINUOUS
100
AcDbLine
 10
8.787143511180815
 20
15.09159471949446
 30
0.0
 11
8.787143511180815
 21
9.601673566198764
 31
0.0
  0
LINE
  5
161
330
1F
100
AcDbEntity
  8
PART
  6
CONTINUOUS
100
AcDbLine
 10
8.787143511180815
 20
9.601673566198764
 30
0.0
 11
8.622143657273209
 21
9.601673566198764
 31
0.0
  0
LINE
  5
162
330
1F
100
AcDbEntity
  8
PART
  6
CONTINUOUS
100
AcDbLine
 10
8.622143657273209
 20
9.601673566198764
 30
0.0
 11
8.622143657273209
 21
15.09159471949446
 31
0.0
  0
LINE
  5
163
330
1F
100
AcDbEntity
  8
PART
  6
CONTINUOUS
100
AcDbLine
 10
22.44919101937551
 20
15.18159479980585
 30
0.0
 11
22.44919101937551
 21
15.18069486353532
 31
0.0
  0
LINE
  5
164
330
1F
100
AcDbEntity
  8
PART
  6
CONTINUOUS
100
AcDbLine
 10
8.787143511180815
 20
15.18159479980585
 30
0.0
 11
22.44919101937551
 21
15.18159479980585
 31
0.0
  0
LINE
  5
165
330
1F
100
AcDbEntity
  8
PART
  6
CONTINUOUS
100
AcDbLine
 10
8.787143511180815
 20
15.18069486353532
 30
0.0
 11
8.787143511180815
 21
15.18159479980585
 31
0.0
  0
LINE
  5
166
330
1F
100
AcDbEntity
  8
PART
  6
CONTINUOUS
100
AcDbLine
 10
8.787143511180815
 20
15.18069486353532
 30
0.0
 11
8.533043513232343
 21
15.18069486353532
 31
0.0
  0
ARC
  5
167
330
1F
100
AcDbEntity
  8
PART
  6
CONTINUOUS
100
AcDbCircle
 10
8.533043643230932
 20
15.136144767975
 30
0.0
 40
0.044550000000001
100
AcDbArc
 50
90.0
 51
270.0000000000008
  0
LINE
  5
168
330
1F
100
AcDbEntity
  8
PART
  6
CONTINUOUS
100
AcDbLine
 10
8.533043513232343
 20
15.09159471949446
 30
0.0
 11
8.622143657273209
 21
15.09159471949446
 31
0.0
  0
ARC
  5
169
330
1F
100
AcDbEntity
  8
PART
  6
CONTINUOUS
100
AcDbCircle
 10
8.533043643230932
 20
9.557123508377706
 30
0.0
 40
0.044550000000001
100
AcDbArc
 50
90.0
 51
270.0000000000008
  0
LINE
  5
16A
330
1F
100
AcDbEntity
  8
PART
  6
CONTINUOUS
100
AcDbLine
 10
8.533043513232343
 20
9.512573568822869
 30
0.0
 11
8.787143511180815
 21
9.512573568822869
 31
0.0
  0
LINE
  5
16B
330
1F
100
AcDbEntity
  8
PART
  6
CONTINUOUS
100
AcDbLine
 10
8.787143511180815
 20
9.511673485887371
 30
0.0
 11
8.787143511180815
 21
9.512573568822869
 31
0.0
  0
LINE
  5
16C
330
1F
100
AcDbEntity
  8
PART
  6
CONTINUOUS
100
AcDbLine
 10
22.44919101937551
 20
9.511673485887371
 30
0.0
 11
8.787143511180815
 21
9.511673485887371
 31
0.0
  0
LINE
  5
16D
330
1F
100
AcDbEntity
  8
PART
  6
CONTINUOUS
100
AcDbLine
 10
22.44919101937551
 20
9.512573568822869
 30
0.0
 11
22.44919101937551
 21
9.511673485887371
 31
0.0
  0
LINE
  5
16E
330
1F
100
AcDbEntity
  8
PART
  6
CONTINUOUS
100
AcDbLine
 10
22.44919101937551
 20
9.512573568822869
 30
0.0
 11
22.70329101732398
 21
9.512573568822869
 31
0.0
  0
ARC
  5
16F
330
1F
100
AcDbEntity
  8
PART
  6
CONTINUOUS
100
AcDbCircle
 10
22.70329088732537
 20
9.557123508377708
 30
0.0
 40
0.044550000000001
100
AcDbArc
 50
270.0000000000008
 51
90.0
  0
LINE
  5
170
330
1F
100
AcDbEntity
  8
PART
  6
CONTINUOUS
100
AcDbLine
 10
22.70329101732398
 20
9.601673566198764
 30
0.0
 11
22.61419087328311
 21
9.601673566198764
 31
0.0
  0
LINE
  5
171
330
1F
100
AcDbEntity
  8
PART
  6
CONTINUOUS
100
AcDbLine
 10
22.61419087328311
 20
15.09159471949446
 30
0.0
 11
22.61419087328311
 21
9.601673566198764
 31
0.0
  0
LINE
  5
172
330
1F
100
AcDbEntity
  8
PART
  6
CONTINUOUS
100
AcDbLine
 10
22.61419087328311
 20
15.09159471949446
 30
0.0
 11
22.70329101732398
 21
15.09159471949446
 31
0.0
  0
ARC
  5
173
330
1F
100
AcDbEntity
  8
PART
  6
CONTINUOUS
100
AcDbCircle
 10
22.70329088732537
 20
15.136144767975
 30
0.0
 40
0.044550000000001
100
AcDbArc
 50
270.0000000000008
 51
90.0
  0
LINE
  5
174
330
1F
100
AcDbEntity
  8
PART
  6
CONTINUOUS
100
AcDbLine
 10
22.70329101732398
 20
15.18069486353532
 30
0.0
 11
22.44919101937551
 21
15.18069486353532
 31
0.0
  0
ARC
  5
175
330
1F
100
AcDbEntity
  8
PART
  6
CONTINUOUS
100
AcDbCircle
 10
5.218167265278164
 20
16.16595303593099
 30
0.0
 40
0.0999999999999997
100
AcDbArc
 50
90.0
 51
180.0
  0
LINE
  5
176
330
1F
100
AcDbEntity
  8
PART
  6
CONTINUOUS
100
AcDbLine
 10
26.01816755025407
 20
16.26595288654203
 30
0.0
 11
5.218166980302253
 21
16.26595288654203
 31
0.0
  0
ARC
  5
177
330
1F
100
AcDbEntity
  8
PART
  6
CONTINUOUS
100
AcDbCircle
 10
26.01816726527816
 20
16.16595303593099
 30
0.0
 40
0.1000000000000014
100
AcDbArc
 50
0.0
 51
90.0
  0
LINE
  5
178
330
1F
100
AcDbEntity
  8
PART
  6
CONTINUOUS
100
AcDbLine
 10
26.11816724838236
 20
5.896952883448227
 30
0.0
 11
26.11816724838236
 21
16.16595318841375
 31
0.0
  0
ARC
  5
179
330
1F
100
AcDbEntity
  8
PART
  6
CONTINUOUS
100
AcDbCircle
 10
26.01816726527816
 20
5.896953035930989
 30
0.0
 40
0.0999999999999997
100
AcDbArc
 50
270.0000000000008
 51
0.0000000000010178
  0
LINE
  5
17A
330
1F
100
AcDbEntity
  8
PART
  6
CONTINUOUS
100
AcDbLine
 10
5.218166980302253
 20
5.796953185319939
 30
0.0
 11
26.01816755025407
 21
5.796953185319939
 31
0.0
  0
ARC
  5
17B
330
1F
100
AcDbEntity
  8
PART
  6
CONTINUOUS
100
AcDbCircle
 10
5.218167265278164
 20
5.896953035930987
 30
0.0
 40
0.0999999999999997
100
AcDbArc
 50
180.0
 51
269.9999999999995
  0
LINE
  5
17C
330
1F
100
AcDbEntity
  8
PART
  6
CONTINUOUS
100
AcDbLine
 10
5.118167282173967
 20
16.16595318841375
 30
0.0
 11
5.118167282173967
 21
5.896952883448227
 31
0.0
  0
ARC
  5
17D
330
1F
100
AcDbEntity
  8
PART
  6
CONTINUOUS
100
AcDbCircle
 10
6.492667265278161
 20
12.53145303593099
 30
0.0
 40
0.192750000000002
100
AcDbArc
 50
270.0000000000008
 51
90.0
  0
LINE
  5
17E
330
1F
100
AcDbEntity
  8
PART
  6
CONTINUOUS
100
AcDbLine
 10
6.285667395113037
 20
12.72420309447119
 30
0.0
 11
6.492667403831269
 21
12.72420309447119
 31
0.0
  0
ARC
  5
17F
330
1F
100
AcDbEntity
  8
PART
  6
CONTINUOUS
100
AcDbCircle
 10
6.285667265278163
 20
12.53145303593099
 30
0.0
 40
0.192750000000002
100
AcDbArc
 50
89.99999999999909
 51
270.0000000000017
  0
LINE
  5
180
330
1F
100
AcDbEntity
  8
PART
  6
CONTINUOUS
100
AcDbLine
 10
6.492667403831269
 20
12.33870301446768
 30
0.0
 11
6.285667395113037
 21
12.33870301446768
 31
0.0
  0
ARC
  5
181
330
1F
100
AcDbEntity
  8
PART
  6
CONTINUOUS
100
AcDbCircle
 10
6.492667265278157
 20
14.78145303593098
 30
0.0
 40
0.192750000000002
100
AcDbArc
 50
270.0000000000021
 51
89.99999999999934
  0
LINE
  5
182
330
1F
100
AcDbEntity
  8
PART
  6
CONTINUOUS
100
AcDbLine
 10
6.285667395113037
 20
14.97420290228141
 30
0.0
 11
6.492667403831269
 21
14.97420290228141
 31
0.0
  0
ARC
  5
183
330
1F
100
AcDbEntity
  8
PART
  6
CONTINUOUS
100
AcDbCircle
 10
6.285667265278163
 20
14.78145303593098
 30
0.0
 40
0.192750000000002
100
AcDbArc
 50
89.99999999999934
 51
270.0000000000008
  0
LINE
  5
184
330
1F
100
AcDbEntity
  8
PART
  6
CONTINUOUS
100
AcDbLine
 10
6.492667403831269
 20
14.58870311560785
 30
0.0
 11
6.285667395113037
 21
14.58870311560785
 31
0.0
  0
ARC
  5
185
330
1F
100
AcDbEntity
  8
PART
  6
CONTINUOUS
100
AcDbCircle
 10
6.285667265278163
 20
9.531453035930988
 30
0.0
 40
0.192750000000002
100
AcDbArc
 50
90.0
 51
270.0000000000008
  0
LINE
  5
186
330
1F
100
AcDbEntity
  8
PART
  6
CONTINUOUS
100
AcDbLine
 10
6.492667403831269
 20
9.338702977390779
 30
0.0
 11
6.285667395113037
 21
9.338702977390779
 31
0.0
  0
ARC
  5
187
330
1F
100
AcDbEntity
  8
PART
  6
CONTINUOUS
100
AcDbCircle
 10
6.492667265278161
 20
9.531453035930988
 30
0.0
 40
0.192750000000002
100
AcDbArc
 50
270.0000000000008
 51
90.0
  0
LINE
  5
188
330
1F
100
AcDbEntity
  8
PART
  6
CONTINUOUS
100
AcDbLine
 10
6.285667395113037
 20
9.724203057394293
 30
0.0
 11
6.492667403831269
 21
9.724203057394293
 31
0.0
  0
ARC
  5
189
330
1F
100
AcDbEntity
  8
PART
  6
CONTINUOUS
100
AcDbCircle
 10
6.285667265278163
 20
7.281453035930987
 30
0.0
 40
0.192750000000002
100
AcDbArc
 50
90.0
 51
270.0000000000008
  0
LINE
  5
18A
330
1F
100
AcDbEntity
  8
PART
  6
CONTINUOUS
100
AcDbLine
 10
6.492667403831269
 20
7.088703169580558
 30
0.0
 11
6.285667395113037
 21
7.088703169580558
 31
0.0
  0
ARC
  5
18B
330
1F
100
AcDbEntity
  8
PART
  6
CONTINUOUS
100
AcDbCircle
 10
6.492667265278164
 20
7.281453035930987
 30
0.0
 40
0.192750000000002
100
AcDbArc
 50
270.0000000000008
 51
90.0
  0
LINE
  5
18C
330
1F
100
AcDbEntity
  8
PART
  6
CONTINUOUS
100
AcDbLine
 10
6.285667395113037
 20
7.474202956254128
 30
0.0
 11
6.492667403831269
 21
7.474202956254128
 31
0.0
  0
ARC
  5
18D
330
1F
100
AcDbEntity
  8
PART
  6
CONTINUOUS
100
AcDbCircle
 10
24.74366726527816
 20
12.53145303593099
 30
0.0
 40
0.192750000000002
100
AcDbArc
 50
90.0
 51
270.0000000000008
  0
LINE
  5
18E
330
1F
100
AcDbEntity
  8
PART
  6
CONTINUOUS
100
AcDbLine
 10
24.95066713544329
 20
12.33870301446768
 30
0.0
 11
24.74366712672505
 21
12.33870301446768
 31
0.0
  0
ARC
  5
18F
330
1F
100
AcDbEntity
  8
PART
  6
CONTINUOUS
100
AcDbCircle
 10
24.95066726527817
 20
12.53145303593099
 30
0.0
 40
0.192750000000002
100
AcDbArc
 50
269.9999999999997
 51
90.00000000000104
  0
LINE
  5
190
330
1F
100
AcDbEntity
  8
PART
  6
CONTINUOUS
100
AcDbLine
 10
24.74366712672505
 20
12.72420309447119
 30
0.0
 11
24.95066713544329
 21
12.72420309447119
 31
0.0
  0
ARC
  5
191
330
1F
100
AcDbEntity
  8
PART
  6
CONTINUOUS
100
AcDbCircle
 10
24.74366726527816
 20
14.78145303593098
 30
0.0
 40
0.192750000000002
100
AcDbArc
 50
90.00000000000104
 51
269.9999999999997
  0
LINE
  5
192
330
1F
100
AcDbEntity
  8
PART
  6
CONTINUOUS
100
AcDbLine
 10
24.95066713544329
 20
14.58870311560785
 30
0.0
 11
24.74366712672505
 21
14.58870311560785
 31
0.0
  0
ARC
  5
193
330
1F
100
AcDbEntity
  8
PART
  6
CONTINUOUS
100
AcDbCircle
 10
24.95066726527816
 20
14.78145303593098
 30
0.0
 40
0.192750000000002
100
AcDbArc
 50
270.0000000000008
 51
90.0
  0
LINE
  5
194
330
1F
100
AcDbEntity
  8
PART
  6
CONTINUOUS
100
AcDbLine
 10
24.74366712672505
 20
14.97420290228141
 30
0.0
 11
24.95066713544329
 21
14.97420290228141
 31
0.0
  0
ARC
  5
195
330
1F
100
AcDbEntity
  8
PART
  6
CONTINUOUS
100
AcDbCircle
 10
24.95066726527816
 20
9.531453035930988
 30
0.0
 40
0.192750000000002
100
AcDbArc
 50
270.0000000000008
 51
90.0
  0
LINE
  5
196
330
1F
100
AcDbEntity
  8
PART
  6
CONTINUOUS
100
AcDbLine
 10
24.74366712672505
 20
9.724203057394293
 30
0.0
 11
24.95066713544329
 21
9.724203057394293
 31
0.0
  0
ARC
  5
197
330
1F
100
AcDbEntity
  8
PART
  6
CONTINUOUS
100
AcDbCircle
 10
24.74366726527816
 20
9.531453035930988
 30
0.0
 40
0.192750000000002
100
AcDbArc
 50
90.0
 51
270.0000000000008
  0
LINE
  5
198
330
1F
100
AcDbEntity
  8
PART
  6
CONTINUOUS
100
AcDbLine
 10
24.95066713544329
 20
9.338702977390779
 30
0.0
 11
24.74366712672505
 21
9.338702977390779
 31
0.0
  0
ARC
  5
199
330
1F
100
AcDbEntity
  8
PART
  6
CONTINUOUS
100
AcDbCircle
 10
24.95066726527817
 20
7.281453035930987
 30
0.0
 40
0.192750000000002
100
AcDbArc
 50
270.0000000000008
 51
90.0
  0
LINE
  5
19A
330
1F
100
AcDbEntity
  8
PART
  6
CONTINUOUS
100
AcDbLine
 10
24.74366712672505
 20
7.474202956254128
 30
0.0
 11
24.95066713544329
 21
7.474202956254128
 31
0.0
  0
ARC
  5
19B
330
1F
100
AcDbEntity
  8
PART
  6
CONTINUOUS
100
AcDbCircle
 10
24.74366726527816
 20
7.281453035930987
 30
0.0
 40
0.192750000000002
100
AcDbArc
 50
90.0
 51
270.0000000000008
  0
LINE
  5
19C
330
1F
100
AcDbEntity
  8
PART
  6
CONTINUOUS
100
AcDbLine
 10
24.95066713544329
 20
7.088703169580558
 30
0.0
 11
24.74366712672505
 21
7.088703169580558
 31
0.0
  0
LINE
  5
19D
330
1F
100
AcDbEntity
  8
PART
  6
CONTINUOUS
100
AcDbLine
 10
8.622143657273209
 20
9.601673566198764
 30
0.0
 11
8.533043513232343
 21
9.601673566198764
 31
0.0
  0
ARC
  5
19E
330
1F
100
AcDbEntity
  8
PART
  6
CONTINUOUS
100
AcDbCircle
 10
6.285667265278163
 20
7.281453035930987
 30
0.0
 40
0.1145141935965421
100
AcDbArc
 50
90.0
 51
270.0000000000008
  0
LINE
  5
19F
330
1F
100
AcDbEntity
  8
PART
  6
CONTINUOUS
100
AcDbLine
 10
6.285667395113037
 20
7.166938959127374
 30
0.0
 11
6.285667395113037
 21
7.088703169580558
 31
0.0
  0
LINE
  5
1A0
330
1F
100
AcDbEntity
  8
PART
  6
CONTINUOUS
100
AcDbLine
 10
6.285667395113037
 20
7.474202956254128
 30
0.0
 11
6.285667395113037
 21
7.395967166707311
 31
0.0
  0
LINE
  5
1A1
330
1F
100
AcDbEntity
  8
PART
  6
CONTINUOUS
100
AcDbLine
 10
6.285667395113037
 20
7.166938959127374
 30
0.0
 11
6.492667403831269
 21
7.166938959127374
 31
0.0
  0
LINE
  5
1A2
330
1F
100
AcDbEntity
  8
PART
  6
CONTINUOUS
100
AcDbLine
 10
6.492667403831269
 20
7.166938959127374
 30
0.0
 11
6.492667403831269
 21
7.088703169580558
 31
0.0
  0
LINE
  5
1A3
330
1F
100
AcDbEntity
  8
PART
  6
CONTINUOUS
100
AcDbLine
 10
6.492667403831269
 20
7.474202956254128
 30
0.0
 11
6.492667403831269
 21
7.395967166707311
 31
0.0
  0
LINE
  5
1A4
330
1F
100
AcDbEntity
  8
PART
  6
CONTINUOUS
100
AcDbLine
 10
6.492667403831269
 20
7.395967166707311
 30
0.0
 11
6.285667395113037
 21
7.395967166707311
 31
0.0
  0
ARC
  5
1A5
330
1F
100
AcDbEntity
  8
PART
  6
CONTINUOUS
100
AcDbCircle
 10
6.492667265278164
 20
7.281453035930987
 30
0.0
 40
0.1145141935965421
100
AcDbArc
 50
270.0000000000008
 51
90.0
  0
LINE
  5
1A6
330
1F
100
AcDbEntity
  8
PART
  6
CONTINUOUS
100
AcDbLine
 10
6.285667395113037
 20
9.416938913602567
 30
0.0
 11
6.492667403831269
 21
9.416938913602567
 31
0.0
  0
LINE
  5
1A7
330
1F
100
AcDbEntity
  8
PART
  6
CONTINUOUS
100
AcDbLine
 10
6.492667403831269
 20
9.416938913602567
 30
0.0
 11
6.492667403831269
 21
9.338702977390779
 31
0.0
  0
LINE
  5
1A8
330
1F
100
AcDbEntity
  8
PART
  6
CONTINUOUS
100
AcDbLine
 10
6.285667395113037
 20
9.416938913602567
 30
0.0
 11
6.285667395113037
 21
9.338702977390779
 31
0.0
  0
LINE
  5
1A9
330
1F
100
AcDbEntity
  8
PART
  6
CONTINUOUS
100
AcDbLine
 10
6.492667403831269
 20
9.724203057394293
 30
0.0
 11
6.492667403831269
 21
9.645967267847476
 31
0.0
  0
LINE
  5
1AA
330
1F
100
AcDbEntity
  8
PART
  6
CONTINUOUS
100
AcDbLine
 10
6.492667403831269
 20
9.645967267847476
 30
0.0
 11
6.285667395113037
 21
9.645967267847476
 31
0.0
  0
LINE
  5
1AB
330
1F
100
AcDbEntity
  8
PART
  6
CONTINUOUS
100
AcDbLine
 10
6.285667395113037
 20
9.724203057394293
 30
0.0
 11
6.285667395113037
 21
9.645967267847476
 31
0.0
  0
ARC
  5
1AC
330
1F
100
AcDbEntity
  8
PART
  6
CONTINUOUS
100
AcDbCircle
 10
6.492667265278161
 20
9.531453035930988
 30
0.0
 40
0.1145141935965412
100
AcDbArc
 50
270.0000000000001
 51
90.0
  0
ARC
  5
1AD
330
1F
100
AcDbEntity
  8
PART
  6
CONTINUOUS
100
AcDbCircle
 10
6.492667265278157
 20
14.78145303593098
 30
0.0
 40
0.1145141935965395
100
AcDbArc
 50
270.0000000000012
 51
89.99999999999889
  0
LINE
  5
1AE
330
1F
100
AcDbEntity
  8
PART
  6
CONTINUOUS
100
AcDbLine
 10
6.492667403831269
 20
14.8959671127346
 30
0.0
 11
6.492667403831269
 21
14.97420290228141
 31
0.0
  0
LINE
  5
1AF
330
1F
100
AcDbEntity
  8
PART
  6
CONTINUOUS
100
AcDbLine
 10
6.492667403831269
 20
14.58870311560785
 30
0.0
 11
6.492667403831269
 21
14.66693890515466
 31
0.0
  0
LINE
  5
1B0
330
1F
100
AcDbEntity
  8
PART
  6
CONTINUOUS
100
AcDbLine
 10
6.492667403831269
 20
14.8959671127346
 30
0.0
 11
6.285667395113037
 21
14.8959671127346
 31
0.0
  0
LINE
  5
1B1
330
1F
100
AcDbEntity
  8
PART
  6
CONTINUOUS
100
AcDbLine
 10
6.285667395113037
 20
14.8959671127346
 30
0.0
 11
6.285667395113037
 21
14.97420290228141
 31
0.0
  0
LINE
  5
1B2
330
1F
100
AcDbEntity
  8
PART
  6
CONTINUOUS
100
AcDbLine
 10
6.285667395113037
 20
14.58870311560785
 30
0.0
 11
6.285667395113037
 21
14.66693890515466
 31
0.0
  0
LINE
  5
1B3
330
1F
100
AcDbEntity
  8
PART
  6
CONTINUOUS
100
AcDbLine
 10
6.285667395113037
 20
14.66693890515466
 30
0.0
 11
6.492667403831269
 21
14.66693890515466
 31
0.0
  0
ARC
  5
1B4
330
1F
100
AcDbEntity
  8
PART
  6
CONTINUOUS
100
AcDbCircle
 10
6.285667265278163
 20
14.78145303593098
 30
0.0
 40
0.1145141935965395
100
AcDbArc
 50
89.99999999999934
 51
270.0000000000008
  0
ARC
  5
1B5
330
1F
100
AcDbEntity
  8
PART
  6
CONTINUOUS
100
AcDbCircle
 10
6.492667265278161
 20
12.53145303593099
 30
0.0
 40
0.1145141935965412
100
AcDbArc
 50
270.0000000000001
 51
90.0
  0
LINE
  5
1B6
330
1F
100
AcDbEntity
  8
PART
  6
CONTINUOUS
100
AcDbLine
 10
6.492667403831269
 20
12.6459671582594
 30
0.0
 11
6.492667403831269
 21
12.72420309447119
 31
0.0
  0
LINE
  5
1B7
330
1F
100
AcDbEntity
  8
PART
  6
CONTINUOUS
100
AcDbLine
 10
6.492667403831269
 20
12.33870301446768
 30
0.0
 11
6.492667403831269
 21
12.4169388040145
 31
0.0
  0
LINE
  5
1B8
330
1F
100
AcDbEntity
  8
PART
  6
CONTINUOUS
100
AcDbLine
 10
6.492667403831269
 20
12.6459671582594
 30
0.0
 11
6.285667395113037
 21
12.6459671582594
 31
0.0
  0
LINE
  5
1B9
330
1F
100
AcDbEntity
  8
PART
  6
CONTINUOUS
100
AcDbLine
 10
6.285667395113037
 20
12.6459671582594
 30
0.0
 11
6.285667395113037
 21
12.72420309447119
 31
0.0
  0
LINE
  5
1BA
330
1F
100
AcDbEntity
  8
PART
  6
CONTINUOUS
100
AcDbLine
 10
6.285667395113037
 20
12.33870301446768
 30
0.0
 11
6.285667395113037
 21
12.4169388040145
 31
0.0
  0
LINE
  5
1BB
330
1F
100
AcDbEntity
  8
PART
  6
CONTINUOUS
100
AcDbLine
 10
6.285667395113037
 20
12.4169388040145
 30
0.0
 11
6.492667403831269
 21
12.4169388040145
 31
0.0
  0
ARC
  5
1BC
330
1F
100
AcDbEntity
  8
PART
  6
CONTINUOUS
100
AcDbCircle
 10
6.389167399472153
 20
12.53145303593099
 30
0.0
 40
0.114514193596543
100
AcDbArc
 50
89.99999999999889
 51
270.0000000000023
  0
ARC
  5
1BD
330
1F
100
AcDbEntity
  8
PART
  6
CONTINUOUS
100
AcDbCircle
 10
6.285667265278163
 20
9.531453035930988
 30
0.0
 40
0.1145141935965412
100
AcDbArc
 50
90.00000000000044
 51
270.0000000000008
  0
LINE
  5
1BE
330
1F
100
AcDbEntity
  8
PART
  6
CONTINUOUS
100
AcDbLine
 10
24.74366712672505
 20
7.088703169580558
 30
0.0
 11
24.74366712672505
 21
7.166938959127374
 31
0.0
  0
LINE
  5
1BF
330
1F
100
AcDbEntity
  8
PART
  6
CONTINUOUS
100
AcDbLine
 10
24.74366712672505
 20
7.166938959127374
 30
0.0
 11
24.95066713544329
 21
7.166938959127374
 31
0.0
  0
LINE
  5
1C0
330
1F
100
AcDbEntity
  8
PART
  6
CONTINUOUS
100
AcDbLine
 10
24.95066713544329
 20
7.088703169580558
 30
0.0
 11
24.95066713544329
 21
7.166938959127374
 31
0.0
  0
LINE
  5
1C1
330
1F
100
AcDbEntity
  8
PART
  6
CONTINUOUS
100
AcDbLine
 10
24.95066713544329
 20
7.395967166707311
 30
0.0
 11
24.74366712672505
 21
7.395967166707311
 31
0.0
  0
LINE
  5
1C2
330
1F
100
AcDbEntity
  8
PART
  6
CONTINUOUS
100
AcDbLine
 10
24.74366712672505
 20
7.395967166707311
 30
0.0
 11
24.74366712672505
 21
7.474202956254128
 31
0.0
  0
LINE
  5
1C3
330
1F
100
AcDbEntity
  8
PART
  6
CONTINUOUS
100
AcDbLine
 10
24.95066713544329
 20
7.395967166707311
 30
0.0
 11
24.95066713544329
 21
7.474202956254128
 31
0.0
  0
ARC
  5
1C4
330
1F
100
AcDbEntity
  8
PART
  6
CONTINUOUS
100
AcDbCircle
 10
24.74366726527816
 20
7.281453035930987
 30
0.0
 40
0.1145141935965421
100
AcDbArc
 50
90.0
 51
270.0000000000008
  0
LINE
  5
1C5
330
1F
100
AcDbEntity
  8
PART
  6
CONTINUOUS
100
AcDbLine
 10
24.95066713544329
 20
9.338702977390779
 30
0.0
 11
24.95066713544329
 21
9.416938913602567
 31
0.0
  0
ARC
  5
1C6
330
1F
100
AcDbEntity
  8
PART
  6
CONTINUOUS
100
AcDbCircle
 10
24.95066726527816
 20
9.531453035930988
 30
0.0
 40
0.1145141935965412
100
AcDbArc
 50
270.0000000000008
 51
90.0
  0
LINE
  5
1C7
330
1F
100
AcDbEntity
  8
PART
  6
CONTINUOUS
100
AcDbLine
 10
24.95066713544329
 20
9.645967267847476
 30
0.0
 11
24.95066713544329
 21
9.724203057394293
 31
0.0
  0
LINE
  5
1C8
330
1F
100
AcDbEntity
  8
PART
  6
CONTINUOUS
100
AcDbLine
 10
24.74366712672505
 20
9.338702977390779
 30
0.0
 11
24.74366712672505
 21
9.416938913602567
 31
0.0
  0
LINE
  5
1C9
330
1F
100
AcDbEntity
  8
PART
  6
CONTINUOUS
100
AcDbLine
 10
24.74366712672505
 20
9.416938913602567
 30
0.0
 11
24.95066713544329
 21
9.416938913602567
 31
0.0
  0
LINE
  5
1CA
330
1F
100
AcDbEntity
  8
PART
  6
CONTINUOUS
100
AcDbLine
 10
24.95066713544329
 20
9.645967267847476
 30
0.0
 11
24.74366712672505
 21
9.645967267847476
 31
0.0
  0
LINE
  5
1CB
330
1F
100
AcDbEntity
  8
PART
  6
CONTINUOUS
100
AcDbLine
 10
24.74366712672505
 20
9.645967267847476
 30
0.0
 11
24.74366712672505
 21
9.724203057394293
 31
0.0
  0
ARC
  5
1CC
330
1F
100
AcDbEntity
  8
PART
  6
CONTINUOUS
100
AcDbCircle
 10
24.74366726527816
 20
9.531453035930988
 30
0.0
 40
0.1145141935965412
100
AcDbArc
 50
90.0
 51
270.0000000000008
  0
LINE
  5
1CD
330
1F
100
AcDbEntity
  8
PART
  6
CONTINUOUS
100
AcDbLine
 10
24.74366712672505
 20
14.97420290228141
 30
0.0
 11
24.74366712672505
 21
14.8959671127346
 31
0.0
  0
ARC
  5
1CE
330
1F
100
AcDbEntity
  8
PART
  6
CONTINUOUS
100
AcDbCircle
 10
24.74366726527816
 20
14.78145303593098
 30
0.0
 40
0.1145141935965412
100
AcDbArc
 50
90.00000000000177
 51
269.999999999999
  0
LINE
  5
1CF
330
1F
100
AcDbEntity
  8
PART
  6
CONTINUOUS
100
AcDbLine
 10
24.74366712672505
 20
14.66693890515466
 30
0.0
 11
24.74366712672505
 21
14.58870311560785
 31
0.0
  0
LINE
  5
1D0
330
1F
100
AcDbEntity
  8
PART
  6
CONTINUOUS
100
AcDbLine
 10
24.95066713544329
 20
14.97420290228141
 30
0.0
 11
24.95066713544329
 21
14.8959671127346
 31
0.0
  0
LINE
  5
1D1
330
1F
100
AcDbEntity
  8
PART
  6
CONTINUOUS
100
AcDbLine
 10
24.95066713544329
 20
14.8959671127346
 30
0.0
 11
24.74366712672505
 21
14.8959671127346
 31
0.0
  0
LINE
  5
1D2
330
1F
100
AcDbEntity
  8
PART
  6
CONTINUOUS
100
AcDbLine
 10
24.74366712672505
 20
14.66693890515466
 30
0.0
 11
24.95066713544329
 21
14.66693890515466
 31
0.0
  0
LINE
  5
1D3
330
1F
100
AcDbEntity
  8
PART
  6
CONTINUOUS
100
AcDbLine
 10
24.95066713544329
 20
14.66693890515466
 30
0.0
 11
24.95066713544329
 21
14.58870311560785
 31
0.0
  0
ARC
  5
1D4
330
1F
100
AcDbEntity
  8
PART
  6
CONTINUOUS
100
AcDbCircle
 10
24.95066726527816
 20
14.78145303593098
 30
0.0
 40
0.1145141935965395
100
AcDbArc
 50
270.0000000000026
 51
90.0
  0
LINE
  5
1D5
330
1F
100
AcDbEntity
  8
PART
  6
CONTINUOUS
100
AcDbLine
 10
24.74366712672505
 20
12.72420309447119
 30
0.0
 11
24.74366712672505
 21
12.6459671582594
 31
0.0
  0
ARC
  5
1D6
330
1F
100
AcDbEntity
  8
PART
  6
CONTINUOUS
100
AcDbCircle
 10
24.74366726527816
 20
12.53145303593099
 30
0.0
 40
0.1145141935965412
100
AcDbArc
 50
90.0
 51
270.0000000000008
  0
LINE
  5
1D7
330
1F
100
AcDbEntity
  8
PART
  6
CONTINUOUS
100
AcDbLine
 10
24.74366712672505
 20
12.4169388040145
 30
0.0
 11
24.74366712672505
 21
12.33870301446768
 31
0.0
  0
LINE
  5
1D8
330
1F
100
AcDbEntity
  8
PART
  6
CONTINUOUS
100
AcDbLine
 10
24.95066713544329
 20
12.72420309447119
 30
0.0
 11
24.95066713544329
 21
12.6459671582594
 31
0.0
  0
LINE
  5
1D9
330
1F
100
AcDbEntity
  8
PART
  6
CONTINUOUS
100
AcDbLine
 10
24.95066713544329
 20
12.6459671582594
 30
0.0
 11
24.74366712672505
 21
12.6459671582594
 31
0.0
  0
LINE
  5
1DA
330
1F
100
AcDbEntity
  8
PART
  6
CONTINUOUS
100
AcDbLine
 10
24.74366712672505
 20
12.4169388040145
 30
0.0
 11
24.95066713544329
 21
12.4169388040145
 31
0.0
  0
LINE
  5
1DB
330
1F
100
AcDbEntity
  8
PART
  6
CONTINUOUS
100
AcDbLine
 10
24.95066713544329
 20
12.4169388040145
 30
0.0
 11
24.95066713544329
 21
12.33870301446768
 31
0.0
  0
ARC
  5
1DC
330
1F
100
AcDbEntity
  8
PART
  6
CONTINUOUS
100
AcDbCircle
 10
24.95066726527817
 20
12.53145303593099
 30
0.0
 40
0.1145141935965412
100
AcDbArc
 50
269.999999999999
 51
90.00000000000177
  0
ARC
  5
1DD
330
1F
100
AcDbEntity
  8
PART
  6
CONTINUOUS
100
AcDbCircle
 10
24.95066726527817
 20
7.281453035930987
 30
0.0
 40
0.1145141935965421
100
AcDbArc
 50
270.0000000000008
 51
90.0
  0
LINE
  5
1DE
330
1F
100
AcDbEntity
  8
PART
  6
CONTINUOUS
100
AcDbLine
 10
22.44919101937551
 20
9.601673566198764
 30
0.0
 11
22.44919101937551
 21
15.09159471949446
 31
0.0
  0
LINE
  5
1DF
330
1F
100
AcDbEntity
  8
PART
  6
CONTINUOUS
100
AcDbLine
 10
22.44919101937551
 20
15.09159471949446
 30
0.0
 11
22.61419087328311
 21
15.09159471949446
 31
0.0
  0
LINE
  5
1E0
330
1F
100
AcDbEntity
  8
PART
  6
CONTINUOUS
100
AcDbLine
 10
22.61419087328311
 20
9.601673566198764
 30
0.0
 11
22.44919101937551
 21
9.601673566198764
 31
0.0
  0
LINE
  5
1E1
330
1F
100
AcDbEntity
  8
PART
  6
CONTINUOUS
100
AcDbLine
 10
8.86214387143692
 20
15.09159471949446
 30
0.0
 11
8.787143511180815
 21
15.09159471949446
 31
0.0
  0
LINE
  5
1E2
330
1F
100
AcDbEntity
  8
PART
  6
CONTINUOUS
100
AcDbLine
 10
8.86214387143692
 20
9.601673566198764
 30
0.0
 11
8.86214387143692
 21
15.09159471949446
 31
0.0
  0
LINE
  5
1E3
330
1F
100
AcDbEntity
  8
PART
  6
CONTINUOUS
100
AcDbLine
 10
8.787143511180815
 20
9.601673566198764
 30
0.0
 11
8.86214387143692
 21
9.601673566198764
 31
0.0
  0
LINE
  5
1E4
330
1F
100
AcDbEntity
  8
PART
  6
CONTINUOUS
100
AcDbLine
 10
22.3741906591194
 20
9.601673566198764
 30
0.0
 11
22.44919101937551
 21
9.601673566198764
 31
0.0
  0
LINE
  5
1E5
330
1F
100
AcDbEntity
  8
PART
  6
CONTINUOUS
100
AcDbLine
 10
22.3741906591194
 20
15.09159471949446
 30
0.0
 11
22.3741906591194
 21
9.601673566198764
 31
0.0
  0
LINE
  5
1E6
330
1F
100
AcDbEntity
  8
PART
  6
CONTINUOUS
100
AcDbLine
 10
22.44919101937551
 20
15.09159471949446
 30
0.0
 11
22.3741906591194
 21
15.09159471949446
 31
0.0
  0
LINE
  5
1E7
330
1F
100
AcDbEntity
  8
PART
  6
CONTINUOUS
100
AcDbLine
 10
22.3741906591194
 20
9.601673566198764
 30
0.0
 11
21.54919080292147
 21
9.601673566198764
 31
0.0
  0
ARC
  5
1E8
330
1F
100
AcDbEntity
  8
PART
  6
CONTINUOUS
100
AcDbCircle
 10
21.54919088732536
 20
9.701673508377709
 30
0.0
 40
0.0999999999999997
100
AcDbArc
 50
180.0
 51
270.0000000000008
  0
LINE
  5
1E9
330
1F
100
AcDbEntity
  8
PART
  6
CONTINUOUS
100
AcDbLine
 10
21.44919110479318
 20
9.701673557656995
 30
0.0
 11
21.44919110479318
 21
14.99159472803623
 31
0.0
  0
ARC
  5
1EA
330
1F
100
AcDbEntity
  8
PART
  6
CONTINUOUS
100
AcDbCircle
 10
21.54919088732537
 20
14.991594767975
 30
0.0
 40
0.0999999999999997
100
AcDbArc
 50
90.0
 51
180.0
  0
LINE
  5
1EB
330
1F
100
AcDbEntity
  8
PART
  6
CONTINUOUS
100
AcDbLine
 10
21.54919080292147
 20
15.09159471949446
 30
0.0
 11
22.3741906591194
 21
15.09159471949446
 31
0.0
  0
ARC
  5
1EC
330
1F
100
AcDbEntity
  8
PART
  6
CONTINUOUS
100
AcDbCircle
 10
9.687143643230939
 20
14.991594767975
 30
0.0
 40
0.0999999999999997
100
AcDbArc
 50
0.0
 51
90.0
  0
ARC
  5
1ED
330
1F
100
AcDbEntity
  8
PART
  6
CONTINUOUS
100
AcDbCircle
 10
9.687143643230939
 20
9.701673508377707
 30
0.0
 40
0.0999999999999997
100
AcDbArc
 50
270.0000000000008
 51
0.0
  0
LINE
  5
1EE
330
1F
100
AcDbEntity
  8
PART
  6
CONTINUOUS
100
AcDbLine
 10
9.68714372763485
 20
9.601673566198764
 30
0.0
 11
8.86214387143692
 21
9.601673566198764
 31
0.0
  0
LINE
  5
1EF
330
1F
100
AcDbEntity
  8
PART
  6
CONTINUOUS
100
AcDbLine
 10
8.86214387143692
 20
15.09159471949446
 30
0.0
 11
9.68714372763485
 21
15.09159471949446
 31
0.0
  0
LINE
  5
1F0
330
1F
100
AcDbEntity
  8
PART
  6
CONTINUOUS
100
AcDbLine
 10
9.787143425763137
 20
14.99159472803623
 30
0.0
 11
9.787143425763137
 21
9.701673557656995
 31
0.0
  0
LINE
  5
1F1
330
1F
100
AcDbEntity
  8
PART
  6
CONTINUOUS
100
AcDbLine
 10
30.41888235744854
 20
5.796953185319939
 30
0.0
 11
30.32888235963619
 21
5.796953185319939
 31
0.0
  0
LINE
  5
1F2
330
1F
100
AcDbEntity
  8
PART
  6
CONTINUOUS
100
AcDbLine
 10
30.32888235963619
 20
5.896952883448227
 30
0.0
 11
30.41888235744854
 21
5.896952883448227
 31
0.0
  0
LINE
  5
1F3
330
1F
100
AcDbEntity
  8
PART
  6
CONTINUOUS
100
AcDbLine
 10
30.41888235744854
 20
5.896952883448227
 30
0.0
 11
30.41888235744854
 21
5.796953185319939
 31
0.0
  0
LINE
  5
1F4
330
1F
100
AcDbEntity
  8
PART
  6
CONTINUOUS
100
AcDbLine
 10
30.32888235963619
 20
5.796953185319939
 30
0.0
 11
30.32888235963619
 21
5.896952883448227
 31
0.0
  0
LINE
  5
1F5
330
1F
100
AcDbEntity
  8
PART
  6
CONTINUOUS
100
AcDbLine
 10
30.41888235744854
 20
16.16595318841375
 30
0.0
 11
30.32888235963619
 21
16.16595318841375
 31
0.0
  0
LINE
  5
1F6
330
1F
100
AcDbEntity
  8
PART
  6
CONTINUOUS
100
AcDbLine
 10
30.41888235744854
 20
5.896952883448227
 30
0.0
 11
30.41888235744854
 21
16.16595318841375
 31
0.0
  0
LINE
  5
1F7
330
1F
100
AcDbEntity
  8
PART
  6
CONTINUOUS
100
AcDbLine
 10
30.32888235963619
 20
5.896952883448227
 30
0.0
 11
30.32888235963619
 21
16.16595318841375
 31
0.0
  0
LINE
  5
1F8
330
1F
100
AcDbEntity
  8
PART
  6
CONTINUOUS
100
AcDbLine
 10
30.32888235963619
 20
16.26595288654203
 30
0.0
 11
30.41888235744854
 21
16.26595288654203
 31
0.0
  0
LINE
  5
1F9
330
1F
100
AcDbEntity
  8
PART
  6
CONTINUOUS
100
AcDbLine
 10
30.41888235744854
 20
16.26595288654203
 30
0.0
 11
30.41888235744854
 21
16.16595318841375
 31
0.0
  0
LINE
  5
1FA
330
1F
100
AcDbEntity
  8
PART
  6
CONTINUOUS
100
AcDbLine
 10
30.32888235963619
 20
16.16595318841375
 30
0.0
 11
30.32888235963619
 21
16.26595288654203
 31
0.0
  0
LINE
  5
1FB
330
1F
100
AcDbEntity
  8
PART
  6
CONTINUOUS
100
AcDbLine
 10
30.49388236020877
 20
9.601673566198764
 30
0.0
 11
30.49388236020877
 21
15.09159471949446
 31
0.0
  0
LINE
  5
1FC
330
1F
100
AcDbEntity
  8
PART
  6
CONTINUOUS
100
AcDbLine
 10
30.49388236020877
 20
15.09159471949446
 30
0.0
 11
30.41888235744854
 21
15.09159471949446
 31
0.0
  0
LINE
  5
1FD
330
1F
100
AcDbEntity
  8
PART
  6
CONTINUOUS
100
AcDbLine
 10
30.41888235744854
 20
9.601673566198764
 30
0.0
 11
30.49388236020877
 21
9.601673566198764
 31
0.0
  0
LINE
  5
1FE
330
1F
100
AcDbEntity
  8
PART
  6
CONTINUOUS
100
AcDbLine
 10
32.25688230054969
 20
9.601673566198764
 30
0.0
 11
32.25688230054969
 21
15.09159471949446
 31
0.0
  0
LINE
  5
1FF
330
1F
100
AcDbEntity
  8
PART
  6
CONTINUOUS
100
AcDbLine
 10
30.49388236020877
 20
9.601673566198764
 30
0.0
 11
32.25688230054969
 21
9.601673566198764
 31
0.0
  0
LINE
  5
200
330
1F
100
AcDbEntity
  8
PART
  6
CONTINUOUS
100
AcDbLine
 10
32.25688230054969
 20
15.09159471949446
 30
0.0
 11
30.49388236020877
 21
15.09159471949446
 31
0.0
  0
LINE
  5
201
330
1F
100
AcDbEntity
  8
PART
  6
CONTINUOUS
100
AcDbLine
 10
32.25688230054969
 20
15.09159471949446
 30
0.0
 11
32.42188230112226
 21
15.09159471949446
 31
0.0
  0
LINE
  5
202
330
1F
100
AcDbEntity
  8
PART
  6
CONTINUOUS
100
AcDbLine
 10
32.42188230112226
 20
15.09159471949446
 30
0.0
 11
32.42188230112226
 21
9.601673566198764
 31
0.0
  0
LINE
  5
203
330
1F
100
AcDbEntity
  8
PART
  6
CONTINUOUS
100
AcDbLine
 10
32.42188230112226
 20
9.601673566198764
 30
0.0
 11
32.25688230054969
 21
9.601673566198764
 31
0.0
  0
LINE
  5
204
330
1F
100
AcDbEntity
  8
PART
  6
CONTINUOUS
100
AcDbLine
 10
21.89011998447848
 20
19.34497432674696
 30
0.0
 11
21.89011998447848
 21
19.34045425896317
 31
0.0
  0
LINE
  5
205
330
1F
100
AcDbEntity
  8
PART
  6
CONTINUOUS
100
AcDbLine
 10
22.1021200954351
 20
19.34045425896317
 30
0.0
 11
22.1021200954351
 21
19.34497432674696
 31
0.0
  0
LINE
  5
206
330
1F
100
AcDbEntity
  8
PART
  6
CONTINUOUS
100
AcDbLine
 10
21.89011998447848
 20
19.32985434141432
 30
0.0
 11
21.89011998447848
 21
18.43497434581106
 31
0.0
  0
LINE
  5
207
330
1F
100
AcDbEntity
  8
PART
  6
CONTINUOUS
100
AcDbLine
 10
22.1021200954351
 20
18.43497434581106
 30
0.0
 11
22.1021200954351
 21
19.32985434141432
 31
0.0
  0
LINE
  5
208
330
1F
100
AcDbEntity
  8
PART
  6
CONTINUOUS
100
AcDbLine
 10
21.89541986992041
 20
19.34045425896317
 30
0.0
 11
21.89541986992041
 21
19.32985434141432
 31
0.0
  0
LINE
  5
209
330
1F
100
AcDbEntity
  8
PART
  6
CONTINUOUS
100
AcDbLine
 10
22.09682020999316
 20
19.32985434141432
 30
0.0
 11
22.09682020999316
 21
19.34045425896317
 31
0.0
  0
LINE
  5
20A
330
1F
100
AcDbEntity
  8
PART
  6
CONTINUOUS
100
AcDbLine
 10
9.134214435121222
 20
19.32985434141432
 30
0.0
 11
9.134214435121222
 21
18.43497434581106
 31
0.0
  0
LINE
  5
20B
330
1F
100
AcDbEntity
  8
PART
  6
CONTINUOUS
100
AcDbLine
 10
9.346214546077849
 20
18.43497434581106
 30
0.0
 11
9.346214546077849
 21
19.32985434141432
 31
0.0
  0
LINE
  5
20C
330
1F
100
AcDbEntity
  8
PART
  6
CONTINUOUS
100
AcDbLine
 10
9.134214435121222
 20
19.34497432674696
 30
0.0
 11
9.134214435121222
 21
19.34045425896317
 31
0.0
  0
LINE
  5
20D
330
1F
100
AcDbEntity
  8
PART
  6
CONTINUOUS
100
AcDbLine
 10
9.346214546077849
 20
19.34045425896317
 30
0.0
 11
9.346214546077849
 21
19.34497432674696
 31
0.0
  0
LINE
  5
20E
330
1F
100
AcDbEntity
  8
PART
  6
CONTINUOUS
100
AcDbLine
 10
9.139514320563158
 20
19.34045425896317
 30
0.0
 11
9.139514320563158
 21
19.32985434141432
 31
0.0
  0
LINE
  5
20F
330
1F
100
AcDbEntity
  8
PART
  6
CONTINUOUS
100
AcDbLine
 10
9.340914660635913
 20
19.32985434141432
 30
0.0
 11
9.340914660635913
 21
19.34045425896317
 31
0.0
  0
LINE
  5
210
330
1F
100
AcDbEntity
  8
PART
  6
CONTINUOUS
100
AcDbLine
 10
21.89011998447848
 20
19.34045425896317
 30
0.0
 11
22.1021200954351
 21
19.34045425896317
 31
0.0
  0
LINE
  5
211
330
1F
100
AcDbEntity
  8
PART
  6
CONTINUOUS
100
AcDbLine
 10
21.89011998447848
 20
18.43497434581106
 30
0.0
 11
22.1021200954351
 21
18.43497434581106
 31
0.0
  0
LINE
  5
212
330
1F
100
AcDbEntity
  8
PART
  6
CONTINUOUS
100
AcDbLine
 10
22.1021200954351
 20
19.32985434141432
 30
0.0
 11
21.89011998447848
 21
19.32985434141432
 31
0.0
  0
LINE
  5
213
330
1F
100
AcDbEntity
  8
PART
  6
CONTINUOUS
100
AcDbLine
 10
9.134214435121222
 20
18.43497434581106
 30
0.0
 11
9.346214546077849
 21
18.43497434581106
 31
0.0
  0
LINE
  5
214
330
1F
100
AcDbEntity
  8
PART
  6
CONTINUOUS
100
AcDbLine
 10
9.346214546077849
 20
19.32985434141432
 30
0.0
 11
9.134214435121222
 21
19.32985434141432
 31
0.0
  0
LINE
  5
215
330
1F
100
AcDbEntity
  8
PART
  6
CONTINUOUS
100
AcDbLine
 10
9.134214435121222
 20
19.34045425896317
 30
0.0
 11
9.346214546077849
 21
19.34045425896317
 31
0.0
  0
LINE
  5
216
330
1F
100
AcDbEntity
  8
PART
  6
CONTINUOUS
100
AcDbLine
 10
26.01816755025407
 20
17.3419743189073
 30
0.0
 11
26.01816755025407
 21
17.43197431671965
 31
0.0
  0
LINE
  5
217
330
1F
100
AcDbEntity
  8
PART
  6
CONTINUOUS
100
AcDbLine
 10
5.218166980302257
 20
17.43197431671965
 30
0.0
 11
5.218166980302257
 21
17.3419743189073
 31
0.0
  0
LINE
  5
218
330
1F
100
AcDbEntity
  8
PART
  6
CONTINUOUS
100
AcDbLine
 10
26.01816755025407
 20
17.43197431671965
 30
0.0
 11
5.218166980302257
 21
17.43197431671965
 31
0.0
  0
LINE
  5
219
330
1F
100
AcDbEntity
  8
PART
  6
CONTINUOUS
100
AcDbLine
 10
26.01816755025407
 20
17.3419743189073
 30
0.0
 11
5.218166980302257
 21
17.3419743189073
 31
0.0
  0
LINE
  5
21A
330
1F
100
AcDbEntity
  8
PART
  6
CONTINUOUS
100
AcDbLine
 10
26.11816724838236
 20
17.43197431671965
 30
0.0
 11
26.11816724838236
 21
17.3419743189073
 31
0.0
  0
LINE
  5
21B
330
1F
100
AcDbEntity
  8
PART
  6
CONTINUOUS
100
AcDbLine
 10
26.01816755025407
 20
17.43197431671965
 30
0.0
 11
26.11816724838236
 21
17.43197431671965
 31
0.0
  0
LINE
  5
21C
330
1F
100
AcDbEntity
  8
PART
  6
CONTINUOUS
100
AcDbLine
 10
26.11816724838236
 20
17.3419743189073
 30
0.0
 11
26.01816755025407
 21
17.3419743189073
 31
0.0
  0
LINE
  5
21D
330
1F
100
AcDbEntity
  8
PART
  6
CONTINUOUS
100
AcDbLine
 10
5.11816728217397
 20
17.3419743189073
 30
0.0
 11
5.11816728217397
 21
17.43197431671965
 31
0.0
  0
LINE
  5
21E
330
1F
100
AcDbEntity
  8
PART
  6
CONTINUOUS
100
AcDbLine
 10
5.11816728217397
 20
17.43197431671965
 30
0.0
 11
5.218166980302257
 21
17.43197431671965
 31
0.0
  0
LINE
  5
21F
330
1F
100
AcDbEntity
  8
PART
  6
CONTINUOUS
100
AcDbLine
 10
5.218166980302257
 20
17.3419743189073
 30
0.0
 11
5.11816728217397
 21
17.3419743189073
 31
0.0
  0
LINE
  5
220
330
1F
100
AcDbEntity
  8
PART
  6
CONTINUOUS
100
AcDbLine
 10
22.3741906591194
 20
19.34497432674696
 30
0.0
 11
22.3741906591194
 21
19.43497426039338
 31
0.0
  0
LINE
  5
221
330
1F
100
AcDbEntity
  8
PART
  6
CONTINUOUS
100
AcDbLine
 10
21.54919080292147
 20
19.34497432674696
 30
0.0
 11
22.3741906591194
 21
19.34497432674696
 31
0.0
  0
LINE
  5
222
330
1F
100
AcDbEntity
  8
PART
  6
CONTINUOUS
100
AcDbLine
 10
21.54919080292147
 20
19.43497426039338
 30
0.0
 11
21.54919080292147
 21
19.34497432674696
 31
0.0
  0
LINE
  5
223
330
1F
100
AcDbEntity
  8
PART
  6
CONTINUOUS
100
AcDbLine
 10
21.54919080292147
 20
19.43497426039338
 30
0.0
 11
22.3741906591194
 21
19.43497426039338
 31
0.0
  0
LINE
  5
224
330
1F
100
AcDbEntity
  8
PART
  6
CONTINUOUS
100
AcDbLine
 10
21.54919080292147
 20
19.34497432674696
 30
0.0
 11
21.44919110479319
 21
19.34497432674696
 31
0.0
  0
LINE
  5
225
330
1F
100
AcDbEntity
  8
PART
  6
CONTINUOUS
100
AcDbLine
 10
21.44919110479319
 20
19.34497432674696
 30
0.0
 11
21.44919110479319
 21
19.43497426039338
 31
0.0
  0
LINE
  5
226
330
1F
100
AcDbEntity
  8
PART
  6
CONTINUOUS
100
AcDbLine
 10
21.44919110479319
 20
19.43497426039338
 30
0.0
 11
21.54919080292147
 21
19.43497426039338
 31
0.0
  0
LINE
  5
227
330
1F
100
AcDbEntity
  8
PART
  6
CONTINUOUS
100
AcDbLine
 10
8.862143871436924
 20
19.34497432674696
 30
0.0
 11
8.862143871436924
 21
19.43497426039338
 31
0.0
  0
LINE
  5
228
330
1F
100
AcDbEntity
  8
PART
  6
CONTINUOUS
100
AcDbLine
 10
8.862143871436924
 20
19.43497426039338
 30
0.0
 11
9.687143727634854
 21
19.43497426039338
 31
0.0
  0
LINE
  5
229
330
1F
100
AcDbEntity
  8
PART
  6
CONTINUOUS
100
AcDbLine
 10
9.687143727634854
 20
19.34497432674696
 30
0.0
 11
9.687143727634854
 21
19.43497426039338
 31
0.0
  0
LINE
  5
22A
330
1F
100
AcDbEntity
  8
PART
  6
CONTINUOUS
100
AcDbLine
 10
8.862143871436924
 20
19.34497432674696
 30
0.0
 11
9.687143727634854
 21
19.34497432674696
 31
0.0
  0
LINE
  5
22B
330
1F
100
AcDbEntity
  8
PART
  6
CONTINUOUS
100
AcDbLine
 10
9.78714342576314
 20
19.43497426039338
 30
0.0
 11
9.78714342576314
 21
19.34497432674696
 31
0.0
  0
LINE
  5
22C
330
1F
100
AcDbEntity
  8
PART
  6
CONTINUOUS
100
AcDbLine
 10
9.687143727634854
 20
19.43497426039338
 30
0.0
 11
9.78714342576314
 21
19.43497426039338
 31
0.0
  0
LINE
  5
22D
330
1F
100
AcDbEntity
  8
PART
  6
CONTINUOUS
100
AcDbLine
 10
9.78714342576314
 20
19.34497432674696
 30
0.0
 11
9.687143727634854
 21
19.34497432674696
 31
0.0
  0
LINE
  5
22E
330
1F
100
AcDbEntity
  8
PART
  6
CONTINUOUS
100
AcDbLine
 10
8.787143511180818
 20
19.26997425982079
 30
0.0
 11
8.697143430869427
 21
19.26997425982079
 31
0.0
  0
ARC
  5
22F
330
1F
100
AcDbEntity
  8
PART
  6
CONTINUOUS
100
AcDbCircle
 10
8.86214364323094
 20
19.26997431890729
 30
0.0
 40
0.1650000000000027
100
AcDbArc
 50
90.0
 51
180.0
  0
ARC
  5
230
330
1F
100
AcDbEntity
  8
PART
  6
CONTINUOUS
100
AcDbCircle
 10
8.86214364323094
 20
19.26997431890729
 30
0.0
 40
0.0750000000000029
100
AcDbArc
 50
90.0
 51
180.0
  0
LINE
  5
231
330
1F
100
AcDbEntity
  8
PART
  6
CONTINUOUS
100
AcDbLine
 10
22.44919101937551
 20
19.26997425982079
 30
0.0
 11
22.5391910996869
 21
19.26997425982079
 31
0.0
  0
ARC
  5
232
330
1F
100
AcDbEntity
  8
PART
  6
CONTINUOUS
100
AcDbCircle
 10
22.37419088732537
 20
19.26997431890729
 30
0.0
 40
0.0750000000000029
100
AcDbArc
 50
0.000000000001357
 51
90.0
  0
ARC
  5
233
330
1F
100
AcDbEntity
  8
PART
  6
CONTINUOUS
100
AcDbCircle
 10
22.37419088732537
 20
19.26997431890729
 30
0.0
 40
0.1650000000000027
100
AcDbArc
 50
0.0000000000018505
 51
90.0
  0
LINE
  5
234
330
1F
100
AcDbEntity
  8
PART
  6
CONTINUOUS
100
AcDbLine
 10
8.697143430869427
 20
17.50697431947988
 30
0.0
 11
8.787143511180818
 21
17.50697431947988
 31
0.0
  0
LINE
  5
235
330
1F
100
AcDbEntity
  8
PART
  6
CONTINUOUS
100
AcDbLine
 10
8.697143430869427
 20
17.50697431947988
 30
0.0
 11
8.697143430869427
 21
19.26997425982079
 31
0.0
  0
LINE
  5
236
330
1F
100
AcDbEntity
  8
PART
  6
CONTINUOUS
100
AcDbLine
 10
8.787143511180818
 20
17.50697431947988
 30
0.0
 11
8.787143511180818
 21
19.26997425982079
 31
0.0
  0
LINE
  5
237
330
1F
100
AcDbEntity
  8
PART
  6
CONTINUOUS
100
AcDbLine
 10
22.5391910996869
 20
19.26997425982079
 30
0.0
 11
22.5391910996869
 21
17.50697431947988
 31
0.0
  0
LINE
  5
238
330
1F
100
AcDbEntity
  8
PART
  6
CONTINUOUS
100
AcDbLine
 10
22.5391910996869
 20
17.50697431947988
 30
0.0
 11
22.44919101937551
 21
17.50697431947988
 31
0.0
  0
LINE
  5
239
330
1F
100
AcDbEntity
  8
PART
  6
CONTINUOUS
100
AcDbLine
 10
22.44919101937551
 20
19.26997425982079
 30
0.0
 11
22.44919101937551
 21
17.50697431947988
 31
0.0
  0
ARC
  5
23A
330
1F
100
AcDbEntity
  8
PART
  6
CONTINUOUS
100
AcDbCircle
 10
8.622143643230934
 20
17.50697431890731
 30
0.0
 40
0.0750000000000029
100
AcDbArc
 50
270.0000000000008
 51
0.0
  0
ARC
  5
23B
330
1F
100
AcDbEntity
  8
PART
  6
CONTINUOUS
100
AcDbCircle
 10
8.622143643230934
 20
17.50697431890731
 30
0.0
 40
0.1650000000000008
100
AcDbArc
 50
332.9643082105862
 51
359.9999999999996
  0
ARC
  5
23C
330
1F
100
AcDbEntity
  8
PART
  6
CONTINUOUS
100
AcDbCircle
 10
22.61419088732538
 20
17.50697431890731
 30
0.0
 40
0.1650000000000025
100
AcDbArc
 50
180.000000000002
 51
207.0356917894151
  0
ARC
  5
23D
330
1F
100
AcDbEntity
  8
PART
  6
CONTINUOUS
100
AcDbCircle
 10
22.61419088732538
 20
17.50697431890731
 30
0.0
 40
0.0750000000000029
100
AcDbArc
 50
180.0000000000035
 51
270.0000000000008
  0
TEXT
  5
5B5
330
1F
100
AcDbEntity
  8
FORMAT
100
AcDbText
 10
27.2922243621056
 20
0.8984635216691145
 30
0.0
 40
0.16
  1
D
  7
ARIAL
100
AcDbText
  0
TEXT
  5
5B6
330
1F
100
AcDbEntity
  8
FORMAT
  6
CONTINUOUS
100
AcDbText
 10
31.74889154160982
 20
0.1499999999999986
 30
0.0
 40
0.25
  1
H
  7
ARIAL
 72
     1
 11
31.875
 21
0.1499999999999986
 31
0.0
100
AcDbText
  0
TEXT
  5
5B7
330
1F
100
AcDbEntity
  8
FORMAT
  6
CONTINUOUS
100
AcDbText
 10
27.48917121418827
 20
0.1499999999999986
 30
0.0
 40
0.25
  1
G
  7
ARIAL
 72
     1
 11
27.625
 21
0.1499999999999986
 31
0.0
100
AcDbText
  0
TEXT
  5
5B8
330
1F
100
AcDbEntity
  8
FORMAT
  6
CONTINUOUS
100
AcDbText
 10
23.26833219645293
 20
0.1499999999999986
 30
0.0
 40
0.25
  1
F
  7
ARIAL
 72
     1
 11
23.37499999999999
 21
0.1499999999999986
 31
0.0
100
AcDbText
  0
TEXT
  5
5B9
330
1F
100
AcDbEntity
  8
FORMAT
  6
CONTINUOUS
100
AcDbText
 10
19.00852660300136
 20
0.1499999999999986
 30
0.0
 40
0.25
  1
E
  7
ARIAL
 72
     1
 11
19.125
 21
0.1499999999999986
 31
0.0
100
AcDbText
  0
TEXT
  5
5BA
330
1F
100
AcDbEntity
  8
FORMAT
  6
CONTINUOUS
100
AcDbText
 10
14.74889154160982
 20
0.1499999999999986
 30
0.0
 40
0.25
  1
D
  7
ARIAL
 72
     1
 11
14.875
 21
0.1499999999999986
 31
0.0
100
AcDbText
  0
TEXT
  5
5BB
330
1F
100
AcDbEntity
  8
FORMAT
  6
CONTINUOUS
100
AcDbText
 10
6.258526603001364
 20
0.1499999999999986
 30
0.0
 40
0.25
  1
B
  7
ARIAL
 72
     1
 11
6.375
 21
0.1499999999999986
 31
0.0
100
AcDbText
  0
TEXT
  5
5BC
330
1F
100
AcDbEntity
  8
FORMAT
  6
CONTINUOUS
100
AcDbText
 10
10.49889154160982
 20
0.1499999999999986
 30
0.0
 40
0.25
  1
C
  7
ARIAL
 72
     1
 11
10.625
 21
0.1499999999999986
 31
0.0
100
AcDbText
  0
TEXT
  5
5BD
330
1F
100
AcDbEntity
  8
FORMAT
  6
CONTINUOUS
100
AcDbText
 10
2.008526603001364
 20
0.1499999999999986
 30
0.0
 40
0.25
  1
A
  7
ARIAL
 72
     1
 11
2.125
 21
0.1499999999999986
 31
0.0
100
AcDbText
  0
TEXT
  5
5BE
330
1F
100
AcDbEntity
  8
FORMAT
  6
CONTINUOUS
100
AcDbText
 10
33.62586108649741
 20
19.125
 30
0.0
 40
0.25
  1
1
  7
ARIAL
 72
     2
 11
33.82009710286848
 21
19.125
 31
0.0
100
AcDbText
  0
TEXT
  5
5BF
330
1F
100
AcDbEntity
  8
FORMAT
  6
CONTINUOUS
100
AcDbText
 10
33.62586108649741
 20
13.625
 30
0.0
 40
0.25
  1
2
  7
ARIAL
 72
     2
 11
33.82009710286848
 21
13.625
 31
0.0
100
AcDbText
  0
TEXT
  5
5C0
330
1F
100
AcDbEntity
  8
FORMAT
  6
CONTINUOUS
100
AcDbText
 10
33.62586108649741
 20
8.125
 30
0.0
 40
0.25
  1
3
  7
ARIAL
 72
     2
 11
33.82009710286848
 21
8.125
 31
0.0
100
AcDbText
  0
TEXT
  5
5C1
330
1F
100
AcDbEntity
  8
FORMAT
  6
CONTINUOUS
100
AcDbText
 10
33.62586108649741
 20
2.625
 30
0.0
 40
0.25
  1
4
  7
ARIAL
 72
     2
 11
33.82009710286848
 21
2.625
 31
0.0
100
AcDbText
  0
TEXT
  5
5C2
330
1F
100
AcDbEntity
  8
FORMAT
  6
CONTINUOUS
100
AcDbText
 10
27.48917121418827
 20
21.59999999999999
 30
0.0
 40
0.25
  1
G
  7
ARIAL
 72
     1
 11
27.625
 21
21.59999999999999
 31
0.0
100
AcDbText
  0
TEXT
  5
5C3
330
1F
100
AcDbEntity
  8
FORMAT
100
AcDbText
 10
28.46644392275831
 20
0.6672081632976301
 30
0.0
 40
0.1088
  1
ACAD FILE NO.
  7
ARIAL
100
AcDbText
  0
LWPOLYLINE
  5
5C4
330
1F
100
AcDbEntity
  8
FORMAT
100
AcDbPolyline
 90
        2
 70
     0
 43
0.02
 10
27.61703378072079
 20
1.272892106623778
 10
27.61703378072079
 20
0.8236485696487072
  0
LWPOLYLINE
  5
5C5
330
1F
100
AcDbEntity
  8
FORMAT
100
AcDbPolyline
 90
        2
 70
     0
 43
0.02
 10
28.42063372699124
 20
0.8236485696487072
 10
28.42063372699124
 20
0.5
  0
LWPOLYLINE
  5
5C6
330
1F
100
AcDbEntity
  8
FORMAT
100
AcDbPolyline
 90
        2
 70
     0
 43
0.02
 10
31.81895966809327
 20
0.8236485696487072
 10
31.81895966809327
 20
0.5
  0
LWPOLYLINE
  5
5C7
330
1F
100
AcDbEntity
  8
FORMAT
100
AcDbPolyline
 90
        2
 70
     0
 43
0.02
 10
32.94931437403055
 20
1.272892106623778
 10
32.94931437403055
 20
0.8236485696487072
  0
LWPOLYLINE
  5
5C8
330
1F
100
AcDbEntity
  8
FORMAT
100
AcDbPolyline
 90
        2
 70
     0
 43
0.02
 10
27.12431506274814
 20
0.8236485696487072
 10
33.5
 20
0.8236485696487072
  0
LWPOLYLINE
  5
5C9
330
1F
100
AcDbEntity
  8
FORMAT
100
AcDbPolyline
 90
        2
 70
     0
 43
0.02
 10
27.12431506274814
 20
1.272892106623778
 10
33.5
 20
1.272892106623778
  0
LWPOLYLINE
  5
5CA
330
1F
100
AcDbEntity
  8
FORMAT
100
AcDbPolyline
 90
        2
 70
     0
 43
0.02
 10
27.12431506274814
 20
2.441891417892239
 10
33.5
 20
2.441891417892239
  0
LWPOLYLINE
  5
5CB
330
1F
100
AcDbEntity
  8
FORMAT
100
AcDbPolyline
 90
        2
 70
     0
 43
0.02
 10
22.60089726348933
 20
1.055516201635839
 10
27.12431293507279
 20
1.055507487567172
  0
LWPOLYLINE
  5
5CC
330
1F
100
AcDbEntity
  8
FORMAT
100
AcDbPolyline
 90
        2
 70
     0
 43
0.02
 10
22.60089513581397
 20
3.113332721452977
 10
22.60089726348933
 20
0.5
  0
LWPOLYLINE
  5
5CD
330
1F
100
AcDbEntity
  8
FORMAT
100
AcDbPolyline
 90
        2
 70
     0
 43
0.02
 10
27.12431506274814
 20
3.113341435521647
 10
27.12431506274814
 20
0.5
  0
LWPOLYLINE
  5
5CE
330
1F
100
AcDbEntity
  8
FORMAT
100
AcDbPolyline
 90
        3
 70
     0
 43
0.02
 10
19.55365650994497
 20
0.5
 10
19.55365654839636
 20
3.113341420836697
 10
33.5
 20
3.113341435521647
  0
TEXT
  5
5CF
330
1F
100
AcDbEntity
  8
FORMAT
100
AcDbText
 10
27.17012525851521
 20
0.6672081632976301
 30
0.0
 40
0.1088
  1
SCALE
  7
ARIAL
100
AcDbText
  0
TEXT
  5
5D0
330
1F
100
AcDbEntity
  8
FORMAT
  6
CONTINUOUS
100
AcDbText
 10
31.74889154160982
 20
21.59999999999999
 30
0.0
 40
0.25
  1
H
  7
ARIAL
 72
     1
 11
31.875
 21
21.59999999999999
 31
0.0
100
AcDbText
  0
LINE
  5
5D1
330
1F
100
AcDbEntity
  8
FORMAT
  6
CONTINUOUS
100
AcDbLine
 10
29.75
 20
21.49999999999999
 30
0.0
 11
29.75
 21
22.0
 31
0.0
  0
LINE
  5
5D2
330
1F
100
AcDbEntity
  8
FORMAT
  6
CONTINUOUS
100
AcDbLine
 10
33.5
 20
16.5
 30
0.0
 11
34.0
 21
16.5
 31
0.0
  0
LINE
  5
5D3
330
1F
100
AcDbEntity
  8
FORMAT
  6
CONTINUOUS
100
AcDbLine
 10
25.5
 20
21.49999999999999
 30
0.0
 11
25.5
 21
22.0
 31
0.0
  0
TEXT
  5
5D4
330
1F
100
AcDbEntity
  8
FORMAT
  6
CONTINUOUS
100
AcDbText
 10
23.26833219645293
 20
21.59999999999999
 30
0.0
 40
0.25
  1
F
  7
ARIAL
 72
     1
 11
23.37499999999999
 21
21.59999999999999
 31
0.0
100
AcDbText
  0
LINE
  5
5D5
330
1F
100
AcDbEntity
  8
FORMAT
  6
CONTINUOUS
100
AcDbLine
 10
21.25
 20
21.49999999999999
 30
0.0
 11
21.25
 21
22.0
 31
0.0
  0
TEXT
  5
5D6
330
1F
100
AcDbEntity
  8
FORMAT
  6
CONTINUOUS
100
AcDbText
 10
19.00852660300136
 20
21.59999999999999
 30
0.0
 40
0.25
  1
E
  7
ARIAL
 72
     1
 11
19.125
 21
21.59999999999999
 31
0.0
100
AcDbText
  0
LINE
  5
5D7
330
1F
100
AcDbEntity
  8
FORMAT
  6
CONTINUOUS
100
AcDbLine
 10
33.5
 20
11.0
 30
0.0
 11
33.696573
 21
10.88650899999999
 31
0.0
  0
LINE
  5
5D8
330
1F
100
AcDbEntity
  8
FORMAT
  6
CONTINUOUS
100
AcDbLine
 10
33.5
 20
11.0
 30
0.0
 11
34.0
 21
11.0
 31
0.0
  0
LINE
  5
5D9
330
1F
100
AcDbEntity
  8
FORMAT
  6
CONTINUOUS
100
AcDbLine
 10
33.5
 20
5.5
 30
0.0
 11
34.0
 21
5.5
 31
0.0
  0
LINE
  5
5DA
330
1F
100
AcDbEntity
  8
FORMAT
  6
CONTINUOUS
100
AcDbLine
 10
29.75
 20
0.0
 30
0.0
 11
29.75
 21
0.5
 31
0.0
  0
TEXT
  5
5DB
330
1F
100
AcDbEntity
  8
FORMAT
  6
CONTINUOUS
100
AcDbText
 10
26.57169898372832
 20
2.051152953348243
 30
0.0
 40
0.12
  1
0.005
  7
ARIAL
 72
     2
 11
26.99120785139544
 21
2.051152953348243
 31
0.0
100
AcDbText
  0
TEXT
  5
5DC
330
1F
100
AcDbEntity
  8
FORMAT
  6
CONTINUOUS
100
AcDbText
 10
26.5491223910726
 20
2.236977562228062
 30
0.0
 40
0.12
  1
0.01
  7
ARIAL
 72
     2
 11
26.8753979708816
 21
2.236977562228062
 31
0.0
100
AcDbText
  0
TEXT
  5
5DD
330
1F
100
AcDbEntity
  8
FORMAT
  6
CONTINUOUS
100
AcDbText
 10
26.56637366390401
 20
1.86532834446843
 30
0.0
 40
0.12
  1
0.5%%d
 51
1.0
  7
ARIAL
 72
     2
 11
26.86645551929283
 21
1.86532834446843
 31
0.0
100
AcDbText
  0
TEXT
  5
5DE
330
1F
100
AcDbEntity
  8
FORMAT
  6
CONTINUOUS
100
AcDbText
 10
25.84954095233039
 20
2.051152953348243
 30
0.0
 40
0.12
  1
.XXX = %%p
  7
ARIAL
 72
     2
 11
26.51461598643681
 21
2.051152953348243
 31
0.0
100
AcDbText
  0
TEXT
  5
5DF
330
1F
100
AcDbEntity
  8
FORMAT
  6
CONTINUOUS
100
AcDbText
 10
25.96135541344908
 20
2.236977562228062
 30
0.0
 40
0.12
  1
.XX = %%p
  7
ARIAL
 72
     2
 11
26.51461598643681
 21
2.236977562228062
 31
0.0
100
AcDbText
  0
TEXT
  5
5E0
330
1F
100
AcDbEntity
  8
FORMAT
  6
CONTINUOUS
100
AcDbText
 10
25.6027469550589
 20
1.86532834446843
 30
0.0
 40
0.12
  1
ANGLES:  %%p
  7
ARIAL
 72
     2
 11
26.51461598643681
 21
1.86532834446843
 31
0.0
100
AcDbText
  0
TEXT
  5
5E1
330
1F
100
AcDbEntity
  8
FORMAT
  6
CONTINUOUS
100
AcDbText
 10
26.54694158954057
 20
2.422802171107882
 30
0.0
 40
0.12
  1
0.1
  7
ARIAL
 72
     2
 11
26.77998388149146
 21
2.422802171107882
 31
0.0
100
AcDbText
  0
TEXT
  5
5E2
330
1F
100
AcDbEntity
  8
FORMAT
  6
CONTINUOUS
100
AcDbText
 10
23.23123432193724
 20
1.122815563946161
 30
0.0
 40
0.186
  1
DO NOT SCALE DRAWING
  7
ARIAL
 72
     1
 11
24.86260403544338
 21
1.122815563946161
 31
0.0
100
AcDbText
  0
TEXT
  5
5E3
330
1F
100
AcDbEntity
  8
FORMAT
  6
CONTINUOUS
100
AcDbText
 10
23.66571454021828
 20
1.398362308673736
 30
0.0
 40
0.12
  1
ALL DIMENSIONS IN INCHES. 
  7
ARIAL
 72
     1
 11
24.86260403544338
 21
1.398362308673736
 31
0.0
100
AcDbText
  0
TEXT
  5
5E4
330
1F
100
AcDbEntity
  8
FORMAT
  6
CONTINUOUS
100
AcDbText
 10
22.84782049927794
 20
1.598364381162376
 30
0.0
 40
0.12
  1
SURFACE FLATNESS .003 TIR PER LINEAR INCH  
  7
ARIAL
 72
     2
 11
26.84416429191095
 21
1.598364381162376
 31
0.0
100
AcDbText
  0
TEXT
  5
5E5
330
1F
100
AcDbEntity
  8
FORMAT
  6
CONTINUOUS
100
AcDbText
 10
22.6639747858911
 20
2.422802171107882
 30
0.0
 40
0.12
  1
TOLERANCE ON DECIMAL DIMENSIONS:   .X = %%p
  7
ARIAL
 72
     2
 11
26.51461598643681
 21
2.422802171107882
 31
0.0
100
AcDbText
  0
TEXT
  5
5E6
330
1F
100
AcDbEntity
  8
FORMAT
  6
CONTINUOUS
100
AcDbText
 10
22.75440355659141
 20
2.741378395140287
 30
0.0
 40
0.1899233025254706
  1
%%uUNLESS OTHERWISE SPECIFIED
  7
ARIAL
 72
     1
 11
24.86260403544338
 21
2.741378395140287
 31
0.0
100
AcDbText
  0
TEXT
  5
5E7
330
1F
100
AcDbEntity
  8
FORMAT
  6
CONTINUOUS
100
AcDbText
 10
23.21154877296527
 20
0.8019109791499126
 30
0.0
 40
0.124
  1
          THIRD ANGLE
  7
ARIAL
100
AcDbText
  0
LINE
  5
5E8
330
1F
100
AcDbEntity
  8
FORMAT
  6
CONTINUOUS
100
AcDbLine
 10
25.5
 20
0.0
 30
0.0
 11
25.5
 21
0.5
 31
0.0
  0
TEXT
  5
5E9
330
1F
100
AcDbEntity
  8
FORMAT
  6
CONTINUOUS
100
AcDbText
 10
23.21154877296527
 20
0.6043942372759084
 30
0.0
 40
0.124
  1
          PROJECTION 
  7
ARIAL
100
AcDbText
  0
LINE
  5
5EA
330
1F
100
AcDbEntity
  8
FORMAT
  6
CONTINUOUS
100
AcDbLine
 10
21.25
 20
0.0
 30
0.0
 11
21.25
 21
0.5
 31
0.0
  0
LINE
  5
5EB
330
1F
100
AcDbEntity
  8
FORMAT
  6
CONTINUOUS
100
AcDbLine
 10
33.696573
 20
10.88650899999999
 30
0.0
 11
33.696573
 21
11.113492
 31
0.0
  0
LINE
  5
5EC
330
1F
100
AcDbEntity
  8
FORMAT
  6
CONTINUOUS
100
AcDbLine
 10
33.696573
 20
11.113492
 30
0.0
 11
33.5
 21
11.0
 31
0.0
  0
HATCH
  5
5ED
330
1F
100
AcDbEntity
  8
FORMAT
  6
CONTINUOUS
100
AcDbHatch
 10
0.0
 20
0.0
 30
0.0
210
0.0
220
0.0
230
1.0
  2
ARROW_RIGHT
 70
     1
 71
     0
 91
        1
 92
        1
 93
        3
 72
     1
 10
33.5
 20
10.99999999999999
 11
33.696573
 21
10.88650899999999
 72
     1
 10
33.696573
 20
10.88650899999999
 11
33.696573
 21
11.11349199999999
 72
     1
 10
33.696573
 20
11.11349199999999
 11
33.5
 21
10.99999999999999
 97
        0
 75
     0
 76
     1
 98
        1
 10
0.25
 20
0.0
  0
LWPOLYLINE
  5
5EE
330
1F
100
AcDbEntity
  8
FORMAT
  6
PHANTOM
 48
10.0
100
AcDbPolyline
 90
        2
 70
     0
 43
0.001
 10
34.0
 20
0.0
 10
34.0
 20
22.0
  0
LINE
  5
5EF
330
1F
100
AcDbEntity
  8
FORMAT
  6
CONTINUOUS
100
AcDbLine
 10
16.88650799999999
 20
21.696573
 30
0.0
 11
17.0
 21
21.49999999999999
 31
0.0
  0
LINE
  5
5F0
330
1F
100
AcDbEntity
  8
FORMAT
  6
CONTINUOUS
100
AcDbLine
 10
17.0
 20
21.49999999999999
 30
0.0
 11
17.0
 21
22.0
 31
0.0
  0
TEXT
  5
5F1
330
1F
100
AcDbEntity
  8
FORMAT
  6
CONTINUOUS
100
AcDbText
 10
14.74889154160982
 20
21.59999999999999
 30
0.0
 40
0.25
  1
D
  7
ARIAL
 72
     1
 11
14.875
 21
21.59999999999999
 31
0.0
100
AcDbText
  0
LINE
  5
5F2
330
1F
100
AcDbEntity
  8
FORMAT
  6
CONTINUOUS
100
AcDbLine
 10
12.75
 20
21.49999999999999
 30
0.0
 11
12.75
 21
22.0
 31
0.0
  0
TEXT
  5
5F3
330
1F
100
AcDbEntity
  8
FORMAT
  6
CONTINUOUS
100
AcDbText
 10
10.49889154160982
 20
21.59999999999999
 30
0.0
 40
0.25
  1
C
  7
ARIAL
 72
     1
 11
10.625
 21
21.59999999999999
 31
0.0
100
AcDbText
  0
LINE
  5
5F4
330
1F
100
AcDbEntity
  8
FORMAT
  6
CONTINUOUS
100
AcDbLine
 10
8.5
 20
21.49999999999999
 30
0.0
 11
8.5
 21
22.0
 31
0.0
  0
LINE
  5
5F5
330
1F
100
AcDbEntity
  8
FORMAT
  6
CONTINUOUS
100
AcDbLine
 10
4.25
 20
21.49999999999999
 30
0.0
 11
4.25
 21
22.0
 31
0.0
  0
TEXT
  5
5F6
330
1F
100
AcDbEntity
  8
FORMAT
  6
CONTINUOUS
100
AcDbText
 10
2.008526603001364
 20
21.59999999999999
 30
0.0
 40
0.25
  1
A
  7
ARIAL
 72
     1
 11
2.125
 21
21.59999999999999
 31
0.0
100
AcDbText
  0
TEXT
  5
5F7
330
1F
100
AcDbEntity
  8
FORMAT
  6
CONTINUOUS
100
AcDbText
 10
0.1057639836289194
 20
19.125
 30
0.0
 40
0.25
  1
1
  7
ARIAL
 72
     2
 11
0.2999999999999971
 21
19.125
 31
0.0
100
AcDbText
  0
LINE
  5
5F8
330
1F
100
AcDbEntity
  8
FORMAT
  6
CONTINUOUS
100
AcDbLine
 10
0.0
 20
16.5
 30
0.0
 11
0.5
 21
16.5
 31
0.0
  0
TEXT
  5
5F9
330
1F
100
AcDbEntity
  8
FORMAT
  6
CONTINUOUS
100
AcDbText
 10
0.1057639836289194
 20
13.625
 30
0.0
 40
0.25
  1
2
  7
ARIAL
 72
     2
 11
0.2999999999999971
 21
13.625
 31
0.0
100
AcDbText
  0
TEXT
  5
5FA
330
1F
100
AcDbEntity
  8
FORMAT
  6
CONTINUOUS
100
AcDbText
 10
6.258526603001364
 20
21.59999999999999
 30
0.0
 40
0.25
  1
B
  7
ARIAL
 72
     1
 11
6.375
 21
21.59999999999999
 31
0.0
100
AcDbText
  0
LINE
  5
5FB
330
1F
100
AcDbEntity
  8
FORMAT
  6
CONTINUOUS
100
AcDbLine
 10
17.0
 20
0.5
 30
0.0
 11
16.88650899999998
 21
0.3034269999999992
 31
0.0
  0
LINE
  5
5FC
330
1F
100
AcDbEntity
  8
FORMAT
  6
CONTINUOUS
100
AcDbLine
 10
17.0
 20
0.0
 30
0.0
 11
17.0
 21
0.5
 31
0.0
  0
LINE
  5
5FD
330
1F
100
AcDbEntity
  8
FORMAT
  6
CONTINUOUS
100
AcDbLine
 10
12.75
 20
0.0
 30
0.0
 11
12.75
 21
0.5
 31
0.0
  0
LINE
  5
5FE
330
1F
100
AcDbEntity
  8
FORMAT
  6
CONTINUOUS
100
AcDbLine
 10
8.5
 20
0.0
 30
0.0
 11
8.5
 21
0.5
 31
0.0
  0
LINE
  5
5FF
330
1F
100
AcDbEntity
  8
FORMAT
  6
CONTINUOUS
100
AcDbLine
 10
0.3034269999999992
 20
10.88650799999999
 30
0.0
 11
0.5
 21
11.0
 31
0.0
  0
LINE
  5
600
330
1F
100
AcDbEntity
  8
FORMAT
  6
CONTINUOUS
100
AcDbLine
 10
0.0
 20
11.0
 30
0.0
 11
0.5
 21
11.0
 31
0.0
  0
TEXT
  5
601
330
1F
100
AcDbEntity
  8
FORMAT
  6
CONTINUOUS
100
AcDbText
 10
0.1057639836289194
 20
8.125
 30
0.0
 40
0.25
  1
3
  7
ARIAL
 72
     2
 11
0.2999999999999971
 21
8.125
 31
0.0
100
AcDbText
  0
LINE
  5
602
330
1F
100
AcDbEntity
  8
FORMAT
  6
CONTINUOUS
100
AcDbLine
 10
0.0
 20
5.5
 30
0.0
 11
0.5
 21
5.5
 31
0.0
  0
LINE
  5
603
330
1F
100
AcDbEntity
  8
FORMAT
  6
CONTINUOUS
100
AcDbLine
 10
4.25
 20
0.0
 30
0.0
 11
4.25
 21
0.5
 31
0.0
  0
TEXT
  5
604
330
1F
100
AcDbEntity
  8
FORMAT
  6
CONTINUOUS
100
AcDbText
 10
0.1057639836289194
 20
2.625
 30
0.0
 40
0.25
  1
4
  7
ARIAL
 72
     2
 11
0.2999999999999971
 21
2.625
 31
0.0
100
AcDbText
  0
LINE
  5
605
330
1F
100
AcDbEntity
  8
FORMAT
  6
CONTINUOUS
100
AcDbLine
 10
0.5
 20
11.0
 30
0.0
 11
0.3034269999999992
 21
11.11349099999999
 31
0.0
  0
LINE
  5
606
330
1F
100
AcDbEntity
  8
FORMAT
  6
CONTINUOUS
100
AcDbLine
 10
0.3034269999999992
 20
11.11349099999999
 30
0.0
 11
0.3034269999999992
 21
10.88650799999999
 31
0.0
  0
LWPOLYLINE
  5
607
330
1F
100
AcDbEntity
  8
FORMAT
  6
PHANTOM
 48
10.0
100
AcDbPolyline
 90
        2
 70
     0
 43
0.001
 10
0.0
 20
22.0
 10
0.0
 20
0.0
  0
HATCH
  5
608
330
1F
100
AcDbEntity
  8
FORMAT
  6
CONTINUOUS
100
AcDbHatch
 10
0.0
 20
0.0
 30
0.0
210
0.0
220
0.0
230
1.0
  2
ARROW_LEFT
 70
     1
 71
     0
 91
        1
 92
        1
 93
        3
 72
     1
 10
0.3034269999999992
 20
10.88650799999999
 11
0.4999999999999992
 21
10.99999999999999
 72
     1
 10
0.5
 20
10.99999999999999
 11
0.3034270000000001
 21
11.11349099999999
 72
     1
 10
0.3034269999999992
 20
11.11349099999999
 11
0.3034269999999992
 21
10.88650799999999
 97
        0
 75
     0
 76
     1
 98
        1
 10
-0.25
 20
0.0
  0
LINE
  5
609
330
1F
100
AcDbEntity
  8
FORMAT
  6
CONTINUOUS
100
AcDbLine
 10
17.11349099999999
 20
21.696573
 30
0.0
 11
16.88650799999999
 21
21.696573
 31
0.0
  0
LINE
  5
60A
330
1F
100
AcDbEntity
  8
FORMAT
  6
CONTINUOUS
100
AcDbLine
 10
17.0
 20
21.49999999999999
 30
0.0
 11
17.11349099999999
 21
21.696573
 31
0.0
  0
LINE
  5
60B
330
1F
100
AcDbEntity
  8
FORMAT
  6
CONTINUOUS
100
AcDbLine
 10
17.11349199999999
 20
0.3034269999999992
 30
0.0
 11
17.0
 21
0.5
 31
0.0
  0
LINE
  5
60C
330
1F
100
AcDbEntity
  8
FORMAT
  6
CONTINUOUS
100
AcDbLine
 10
16.88650899999998
 20
0.3034269999999992
 30
0.0
 11
17.11349199999999
 21
0.3034269999999992
 31
0.0
  0
LWPOLYLINE
  5
60D
330
1F
100
AcDbEntity
  8
FORMAT
  6
PHANTOM
 48
10.0
100
AcDbPolyline
 90
        2
 70
     0
 43
0.001
 10
0.0
 20
0.0
 10
34.0
 20
0.0
  0
HATCH
  5
60E
330
1F
100
AcDbEntity
  8
FORMAT
  6
CONTINUOUS
100
AcDbHatch
 10
0.0
 20
0.0
 30
0.0
210
0.0
220
0.0
230
1.0
  2
ARROW_BOTTOM
 70
     1
 71
     0
 91
        1
 92
        1
 93
        3
 72
     1
 10
17.11349199999999
 20
0.3034269999999992
 11
16.99999999999999
 21
0.5
 72
     1
 10
17.0
 20
0.5
 11
16.886509
 21
0.3034269999999992
 72
     1
 10
16.88650899999998
 20
0.3034269999999992
 11
17.11349199999999
 21
0.3034269999999992
 97
        0
 75
     0
 76
     1
 98
        1
 10
0.0
 20
0.0
  0
HATCH
  5
60F
330
1F
100
AcDbEntity
  8
FORMAT
  6
CONTINUOUS
100
AcDbHatch
 10
0.0
 20
0.0
 30
0.0
210
0.0
220
0.0
230
1.0
  2
ARROW_TOP
 70
     1
 71
     0
 91
        1
 92
        1
 93
        3
 72
     1
 10
17.11349099999999
 20
21.696573
 11
16.88650799999999
 21
21.696573
 72
     1
 10
16.88650799999999
 20
21.696573
 11
16.99999999999999
 21
21.49999999999999
 72
     1
 10
17.0
 20
21.49999999999999
 11
17.113491
 21
21.696573
 97
        0
 75
     0
 76
     1
 98
        1
 10
0.0
 20
0.0
  0
LWPOLYLINE
  5
610
330
1F
100
AcDbEntity
  8
FORMAT
  6
PHANTOM
 48
10.0
100
AcDbPolyline
 90
        2
 70
     0
 43
0.001
 10
34.0
 20
22.0
 10
0.0
 20
22.0
  0
TEXT
  5
611
330
1F
100
AcDbEntity
  8
TXT
100
AcDbText
 10
13.25165097349319
 20
0.7815415536662798
 30
0.0
 40
0.2
  1
PER EU DIRECTIVE 2002/95/EC
  7
ARIAL
100
AcDbText
  0
TEXT
  5
612
330
1F
100
AcDbEntity
  8
TXT
100
AcDbText
 10
13.25165097349319
 20
1.131541553666281
 30
0.0
 40
0.2
  1
SPECIFIED SHALL BE RoHS COMPLIANT
  7
ARIAL
100
AcDbText
  0
TEXT
  5
613
330
1F
100
AcDbEntity
  8
TXT
100
AcDbText
 10
13.25165097349319
 20
1.481541553666282
 30
0.0
 40
0.2
  1
UNLESS OTHERWISE STATED, THE ARTICLE
  7
ARIAL
100
AcDbText
  0
LWPOLYLINE
  5
614
102
{ACAD_REACTORS
330
619
102
}
330
1F
100
AcDbEntity
  8
FORMAT
100
AcDbPolyline
 90
       10
 70
     1
 43
0.0
 10
28.84812546490569
 20
2.560038189765116
 10
29.00159362169353
 20
2.6889965139272
 10
29.11376411899891
 20
2.560038189765116
 10
29.32737967356207
 20
2.560038189765116
 10
29.13999480838106
 20
2.775467725762407
 42
0.0105244554857435
 10
28.88886932108983
 20
2.773755392477088
 10
28.66271243457582
 20
2.58371718720382
 10
28.69329665119762
 20
2.76722248693467
 42
0.0083241925565687
 10
28.52763063088184
 20
2.75943994238878
 10
28.49439700544456
 20
2.560038189765116
  0
LWPOLYLINE
  5
615
102
{ACAD_REACTORS
330
619
102
}
330
1F
100
AcDbEntity
  8
FORMAT
100
AcDbPolyline
 90
        7
 70
     1
 43
0.0
 10
27.85379733476327
 20
2.669165529635449
 10
27.89252030058969
 20
2.560038189765116
 10
28.22439509774364
 20
2.560038189765116
 10
28.2534481466875
 20
2.734356483428371
 42
0.0085307115550227
 10
28.08505320817211
 20
2.711324292315012
 10
28.06284416794594
 20
2.577987260808257
 10
28.01571075607803
 20
2.699450484025899
 42
0.014633201278307
  0
LWPOLYLINE
  5
616
102
{ACAD_REACTORS
330
619
102
}
330
1F
100
AcDbEntity
  8
FORMAT
100
AcDbPolyline
 90
        4
 70
     1
 43
0.0
 10
27.82625138631124
 20
2.746301120733491
 10
27.82647137730056
 20
2.746087929262984
 10
27.78730301109048
 20
2.857448970448498
 10
27.71638256267897
 20
2.746087929262984
  0
LWPOLYLINE
  5
617
102
{ACAD_REACTORS
330
619
102
}
330
1F
100
AcDbEntity
  8
FORMAT
100
AcDbPolyline
 90
        4
 70
     1
 43
0.0
 10
27.89524244557755
 20
3.009898395795563
 10
27.99604627712901
 20
2.75012602185323
 42
0.0660149720166298
 10
27.42096358594918
 20
2.560038189765119
 10
27.72221440253551
 20
3.009898395795563
  0
LWPOLYLINE
  5
618
102
{ACAD_REACTORS
330
619
102
}
330
1F
100
AcDbEntity
  8
FORMAT
100
AcDbPolyline
 90
       13
 70
     1
 43
0.0
 10
29.38348614891178
 20
3.009898395795563
 10
29.19279654184188
 20
2.849663121732444
 42
0.0022906596071181
 10
28.86759586955777
 20
2.843048835812439
 10
28.73192948971407
 20
2.999019518033357
 10
28.70471702376885
 20
2.835744722362004
 42
0.0274655559228494
 10
28.09477463227537
 20
2.769689076148374
 10
28.13478466086577
 20
3.009898395795563
 10
28.27250800784915
 20
3.009898395795563
 10
28.40846516441128
 20
2.86109542429461
 10
28.59422335947938
 20
3.009898395795563
 10
28.93608238153996
 20
3.009898395795563
 10
29.03481323325339
 20
2.896391141339901
 10
29.16989368840465
 20
3.009898395795563
  0
HATCH
  5
619
330
1F
100
AcDbEntity
  8
FORMAT
100
AcDbHatch
 10
0.0
 20
0.0
 30
0.0
210
0.0
220
0.0
230
1.0
  2
SOLID
 70
     1
 71
     1
 91
        5
 92
        1
 93
        4
 72
     1
 10
27.89524244557755
 20
3.009898395795563
 11
27.99604627712901
 21
2.75012602185323
 72
     2
 10
28.42523413703466
 20
0.4867236379588187
 40
2.303734483509177
 50
100.7369884767685
 51
115.8445848643794
 73
     1
 72
     1
 10
27.42096358594918
 20
2.560038189765119
 11
27.72221440253551
 21
3.009898395795563
 72
     1
 10
27.72221440253551
 20
3.009898395795563
 11
27.89524244557755
 21
3.009898395795563
 97
        1
330
617
 92
       16
 93
        4
 72
     1
 10
27.82625138631124
 20
2.746301120733491
 11
27.82647137730056
 21
2.746087929262984
 72
     1
 10
27.82647137730056
 20
2.746087929262984
 11
27.78730301109048
 21
2.857448970448498
 72
     1
 10
27.78730301109048
 20
2.857448970448498
 11
27.71638256267897
 21
2.746087929262984
 72
     1
 10
27.71638256267897
 20
2.746087929262984
 11
27.82625138631124
 21
2.746301120733491
 97
        1
330
616
 92
        1
 93
        7
 72
     1
 10
27.85379733476327
 20
2.669165529635449
 11
27.89252030058969
 21
2.560038189765116
 72
     1
 10
27.89252030058969
 20
2.560038189765116
 11
28.22439509774364
 21
2.560038189765116
 72
     1
 10
28.22439509774364
 20
2.560038189765116
 11
28.2534481466875
 21
2.734356483428371
 72
     2
 10
28.84418016139653
 20
-2.211762160162989
 40
4.98127031485787
 50
96.81077116038439
 51
98.7658188097698
 73
     1
 72
     1
 10
28.08505320817211
 20
2.711324292315012
 11
28.06284416794594
 21
2.577987260808257
 72
     1
 10
28.06284416794594
 20
2.577987260808257
 11
28.01571075607803
 21
2.699450484025899
 72
     2
 10
28.4520446382265
 20
-0.0812992519853255
 40
2.814774653686729
 50
98.91769894924955
 51
102.2711423007092
 73
     1
 97
        1
330
615
 92
        1
 93
       13
 72
     1
 10
29.38348614891178
 20
3.009898395795563
 11
29.19279654184188
 21
2.849663121732444
 72
     2
 10
29.75206810599112
 20
-32.64549153385557
 40
35.49956040159622
 50
90.90269359832781
 51
91.4276731912744
 73
     1
 72
     1
 10
28.86759586955777
 20
2.843048835812439
 11
28.73192948971407
 21
2.999019518033357
 72
     1
 10
28.73192948971407
 20
2.999019518033357
 11
28.70471702376885
 21
2.835744722362004
 72
     2
 10
29.00055122292874
 20
-2.744979632338445
 40
5.588559939424407
 50
93.03440911951204
 51
99.32746877910854
 73
     1
 72
     1
 10
28.09477463227537
 20
2.769689076148374
 11
28.13478466086577
 21
3.009898395795563
 72
     1
 10
28.13478466086577
 20
3.009898395795563
 11
28.27250800784915
 21
3.009898395795563
 72
     1
 10
28.27250800784915
 20
3.009898395795563
 11
28.40846516441128
 21
2.86109542429461
 72
     1
 10
28.40846516441128
 20
2.86109542429461
 11
28.59422335947938
 21
3.009898395795563
 72
     1
 10
28.59422335947938
 20
3.009898395795563
 11
28.93608238153996
 21
3.009898395795563
 72
     1
 10
28.93608238153996
 20
3.009898395795563
 11
29.03481323325339
 21
2.896391141339901
 72
     1
 10
29.03481323325339
 20
2.896391141339901
 11
29.16989368840465
 21
3.009898395795563
 72
     1
 10
29.16989368840465
 20
3.009898395795563
 11
29.38348614891178
 21
3.009898395795563
 97
        1
330
618
 92
        1
 93
       10
 72
     1
 10
28.84812546490569
 20
2.560038189765116
 11
29.00159362169353
 21
2.6889965139272
 72
     1
 10
29.00159362169353
 20
2.6889965139272
 11
29.11376411899891
 21
2.560038189765116
 72
     1
 10
29.11376411899891
 20
2.560038189765116
 11
29.32737967356207
 21
2.560038189765116
 72
     1
 10
29.32737967356207
 20
2.560038189765116
 11
29.13999480838106
 21
2.775467725762407
 72
     2
 10
29.05510266338243
 20
-3.190012262200435
 40
5.966083988938442
 50
89.18470377236856
 51
91.59664224690869
 73
     1
 72
     1
 10
28.88886932108983
 20
2.773755392477088
 11
28.66271243457582
 21
2.58371718720382
 72
     1
 10
28.66271243457582
 20
2.58371718720382
 11
28.69329665119762
 21
2.76722248693467
 72
     2
 10
28.84418016139635
 20
-2.211762160162928
 40
4.981270314857797
 50
91.73576423011793
 51
93.6434845729463
 73
     1
 72
     1
 10
28.52763063088184
 20
2.75943994238878
 11
28.49439700544456
 21
2.560038189765116
 72
     1
 10
28.49439700544456
 20
2.560038189765116
 11
28.84812546490569
 21
2.560038189765116
 97
        1
330
614
 75
     0
 76
     1
 98
        1
 10
27.40349142259076
 20
2.321955963782293
  0
INSERT
  5
61A
330
1F
100
AcDbEntity
  8
TB-TXT
100
AcDbBlockReference
 66
     1
  2
TITLE-BLOCK
 10
32.60259009549838
 20
0.4871808286051192
 30
0.0
 41
0.9696969696969773
 42
0.9696969696969759
 43
0.9696969696969773
  0
ATTRIB
  5
61B
330
61A
100
AcDbEntity
  8
TB-TXT
100
AcDbText
 10
27.31573458917869
 20
2.159556522670953
 30
0.0
 40
0.17
  1
PICTORIAL, RACK PANEL,
  7
ARIAL
100
AcDbAttribute
  2
LINE1
 70
     0
  0
ATTRIB
  5
61C
330
61A
100
AcDbEntity
  8
TB-TXT
100
AcDbText
 10
27.31573458917869
 20
1.908421630896071
 30
0.0
 40
0.17
  1
20.3" MODERO WALL TOUCH PANEL
  7
ARIAL
100
AcDbAttribute
  2
LINE2
 70
     0
  0
ATTRIB
  5
61D
330
61A
100
AcDbEntity
  8
TB-TXT
100
AcDbText
 10
27.31573458917869
 20
1.657286739121175
 30
0.0
 40
0.17
  1
 
  7
ARIAL
100
AcDbAttribute
  2
LINE3
 70
     0
  0
ATTRIB
  5
61E
330
61A
100
AcDbEntity
  8
TB-TXT
100
AcDbText
 10
27.31573458917869
 20
1.406151847346279
 30
0.0
 40
0.17
  1
 
  7
ARIAL
100
AcDbAttribute
  2
LINE4
 70
     0
  0
ATTRIB
  5
61F
330
61A
100
AcDbEntity
  8
TB-TXT
100
AcDbText
 10
28.67240744538594
 20
0.9393484331170611
 30
0.0
 40
0.17
  1
95-5968-46
  7
ARIAL
100
AcDbAttribute
  2
DWG#
 70
     0
  0
ATTRIB
  5
620
330
61A
100
AcDbEntity
  8
TB-TXT
100
AcDbText
 10
29.67184955913904
 20
0.6131212011589185
 30
0.0
 40
0.1163636363636373
  1
 
  7
ARIAL
100
AcDbAttribute
  2
FILE#
 70
     0
  0
ATTRIB
  5
621
330
61A
100
AcDbEntity
  8
TB-TXT
100
AcDbText
 10
33.15909260795084
 20
0.8971920186209283
 30
0.0
 40
0.17
  1
A
  7
ARIAL
 72
     4
 11
33.23829451790992
 21
0.9821920186209283
 31
0.0
100
AcDbAttribute
  2
REV
 70
     0
  0
ATTRIB
  5
622
330
61A
100
AcDbEntity
  8
TB-TXT
100
AcDbText
 10
27.7341555078267
 20
0.5791391671473889
 30
0.0
 40
0.17
  1
1/1
  7
ARIAL
100
AcDbAttribute
  2
SCALE
 70
     0
  0
ATTRIB
  5
623
330
61A
100
AcDbEntity
  8
TB-TXT
100
AcDbText
 10
32.56139344279876
 20
0.585935475765524
 30
0.0
 40
0.17
  1
1 OF 1
  7
ARIAL
100
AcDbAttribute
  2
SHT#
 70
     0
  0
SEQEND
  5
624
330
61A
100
AcDbEntity
  8
TB-TXT
  0
TEXT
  5
625
330
1F
100
AcDbEntity
  8
FORMAT
100
AcDbText
 10
29.37565033606138
 20
2.561556359369892
 30
0.0
 40
0.0583271326082317
  1
TM
  7
ARIAL
 11
29.37565033606138
 21
2.590719925674008
 31
0.0
100
AcDbText
 73
     2
  0
TEXT
  5
626
330
1F
100
AcDbEntity
  8
FORMAT
  6
BYBLOCK
100
AcDbText
 10
31.43486788649962
 20
2.911254421449086
 30
0.0
 40
0.1035906873199564
  1
AMX LLC
 41
1.011836867459718
  7
ARIAL
100
AcDbText
  0
TEXT
  5
627
330
1F
100
AcDbEntity
  8
FORMAT
  6
BYBLOCK
100
AcDbText
 10
31.43486788649962
 20
2.733670985046202
 30
0.0
 40
0.1035906873199564
  1
3000 RESEARCH DRIVE
 41
1.011836867459718
  7
ARIAL
100
AcDbText
  0
TEXT
  5
628
330
1F
100
AcDbEntity
  8
FORMAT
  6
BYBLOCK
100
AcDbText
 10
31.4299650373904
 20
2.556087548643318
 30
0.0
 40
0.1035906873199564
  1
RICHARDSON, TX 75082
 41
1.018884921437547
  7
ARIAL
100
AcDbText
  0
TEXT
  5
629
330
1F
100
AcDbEntity
  8
FORMAT
100
AcDbText
 10
33.0763005219085
 20
1.112168497683782
 30
0.0
 40
0.1088
  1
REV.
  7
ARIAL
 72
     1
 11
33.25367569244056
 21
1.112168497683782
 31
0.0
100
AcDbText
  0
TEXT
  5
62A
330
1F
100
AcDbEntity
  8
FORMAT
100
AcDbText
 10
31.85237387102683
 20
0.6672081632976301
 30
0.0
 40
0.1163636363636364
  1
SHEET
  7
ARIAL
100
AcDbText
  0
TEXT
  5
62B
330
1F
100
AcDbEntity
  8
FORMAT
100
AcDbText
 10
27.68095276043268
 20
1.112168497683782
 30
0.0
 40
0.1088
  1
DWG. NO.
  7
ARIAL
100
AcDbText
  0
TEXT
  5
62C
330
1F
100
AcDbEntity
  8
FORMAT
100
AcDbText
 10
27.18997948867459
 20
1.112168497683782
 30
0.0
 40
0.1088
  1
SIZE
  7
ARIAL
100
AcDbText
  0
LWPOLYLINE
  5
62D
330
1F
100
AcDbEntity
  8
FORMAT
100
AcDbPolyline
 90
        2
 70
     0
 43
0.0128
 10
25.63662467048089
 20
0.8009602925574199
 10
25.78320002298025
 20
0.8009602925574199
  0
LWPOLYLINE
  5
62E
330
1F
100
AcDbEntity
  8
FORMAT
100
AcDbPolyline
 90
        2
 70
     1
 43
0.0128
 10
25.7476715218181
 20
0.8009602925574199
 42
0.9999999999999998
 10
25.4116715218181
 20
0.8009602925574199
 42
1.0
  0
LWPOLYLINE
  5
62F
330
1F
100
AcDbEntity
  8
FORMAT
100
AcDbPolyline
 90
        2
 70
     1
 43
0.0128
 10
25.6564715218181
 20
0.8009602925574199
 42
0.9999999999999998
 10
25.50287152181811
 20
0.8009602925574199
 42
1.0
  0
LWPOLYLINE
  5
630
330
1F
100
AcDbEntity
  8
FORMAT
100
AcDbPolyline
 90
        2
 70
     0
 43
0.0128
 10
25.57967152181811
 20
1.023234780957793
 10
25.57967152181811
 20
0.8579134412198783
  0
LWPOLYLINE
  5
631
330
1F
100
AcDbEntity
  8
FORMAT
100
AcDbPolyline
 90
        2
 70
     0
 43
0.0128
 10
25.55471837315534
 20
0.8009602925574199
 10
25.60462467048087
 20
0.8009602925574199
  0
LWPOLYLINE
  5
632
330
1F
100
AcDbEntity
  8
FORMAT
100
AcDbPolyline
 90
        2
 70
     0
 43
0.0128
 10
25.57967152181811
 20
0.7440071438953453
 10
25.57967152181811
 20
0.5836946164949382
  0
LWPOLYLINE
  5
633
330
1F
100
AcDbEntity
  8
FORMAT
100
AcDbPolyline
 90
        2
 70
     0
 43
0.0128
 10
25.57967152181811
 20
0.8259134412194555
 10
25.57967152181811
 20
0.7760071438963081
  0
LWPOLYLINE
  5
634
330
1F
100
AcDbEntity
  8
FORMAT
100
AcDbPolyline
 90
        2
 70
     0
 43
0.0128
 10
25.3654010850568
 20
0.8009602925574199
 10
25.52271837315531
 20
0.8009602925574199
  0
LWPOLYLINE
  5
635
330
1F
100
AcDbEntity
  8
FORMAT
  6
CENTER
100
AcDbPolyline
 90
        2
 70
     0
 43
0.0128
 10
25.81066408562731
 20
0.8009602925574199
 10
26.43894105695028
 20
0.8009602925574199
  0
LWPOLYLINE
  5
636
330
1F
100
AcDbEntity
  8
FORMAT
100
AcDbPolyline
 90
        4
 70
     1
 43
0.0128
 10
26.0118528121386
 20
0.8777602925574115
 10
26.35745281213861
 20
0.9689602925574121
 10
26.3574528121386
 20
0.6372473945541799
 10
26.0118528121386
 20
0.7241602925574142
  0
TEXT
  5
637
330
1F
100
AcDbEntity
  8
FORMAT
100
AcDbText
 10
19.75495393651598
 20
0.6510078903925703
 30
0.0
 40
0.131328
  1
written permission.
  7
ARIAL
100
AcDbText
  0
TEXT
  5
638
330
1F
100
AcDbEntity
  8
FORMAT
100
AcDbText
 10
19.74984773187751
 20
1.96876701726844
 30
0.0
 40
0.131328
  1
shall be confidential except
  7
ARIAL
100
AcDbText
  0
TEXT
  5
639
330
1F
100
AcDbEntity
  8
FORMAT
100
AcDbText
 10
19.7415165558884
 20
2.85100570758221
 30
0.0
 40
0.131328
  1
NOTICE:   This drawing is the 
  7
ARIAL
100
AcDbText
  0
TEXT
  5
63A
330
1F
100
AcDbEntity
  8
FORMAT
100
AcDbText
 10
19.74339778917627
 20
2.629886144144286
 30
0.0
 40
0.131328
  1
property of AMX LLC.
  7
ARIAL
100
AcDbText
  0
TEXT
  5
63B
330
1F
100
AcDbEntity
  8
FORMAT
100
AcDbText
 10
19.75226646039044
 20
2.18988658070635
 30
0.0
 40
0.131328
  1
that is not generally known 
  7
ARIAL
100
AcDbText
  0
TEXT
  5
63C
330
1F
100
AcDbEntity
  8
FORMAT
100
AcDbText
 10
19.75226646039044
 20
1.747647453830502
 30
0.0
 40
0.131328
  1
to the extent the information
  7
ARIAL
100
AcDbText
  0
TEXT
  5
63D
330
1F
100
AcDbEntity
  8
FORMAT
100
AcDbText
 10
19.74339778917627
 20
1.528767453830504
 30
0.0
 40
0.131328
  1
has been previously established.
  7
ARIAL
100
AcDbText
  0
TEXT
  5
63E
330
1F
100
AcDbEntity
  8
FORMAT
100
AcDbText
 10
19.75119146994023
 20
1.309887453830505
 30
0.0
 40
0.131328
  1
This drawing may not be copied,
  7
ARIAL
100
AcDbText
  0
TEXT
  5
63F
330
1F
100
AcDbEntity
  8
FORMAT
100
AcDbText
 10
19.75378936352825
 20
0.869887890392583
 30
0.0
 40
0.131328
  1
for manufacture or sale without
  7
ARIAL
100
AcDbText
  0
TEXT
  5
640
330
1F
100
AcDbEntity
  8
FORMAT
100
AcDbText
 10
19.74357695425132
 20
1.091007453830492
 30
0.0
 40
0.131328
  1
reproduced, or used as the basis
  7
ARIAL
100
AcDbText
  0
TEXT
  5
641
330
1F
100
AcDbEntity
  8
FORMAT
100
AcDbText
 10
19.74330820663874
 20
2.408766580706362
 30
0.0
 40
0.131328
  1
All information contained herein
  7
ARIAL
100
AcDbText
  0
LWPOLYLINE
  5
642
330
1F
100
AcDbEntity
  8
FORMAT
100
AcDbPolyline
 90
        4
 70
     1
 43
0.0290909090909091
 10
0.5
 20
0.5
 10
33.5
 20
0.5
 10
33.5
 20
21.49999999999999
 10
0.5
 20
21.49999999999999
  0
LINE
  5
643
330
1F
100
AcDbEntity
  8
FORMAT
 62
     0
100
AcDbLine
 10
21.49259637407903
 20
21.49999999999999
 30
0.0
 11
21.49259637407903
 21
20.41710025474266
 31
0.0
  0
LINE
  5
644
330
1F
100
AcDbEntity
  8
FORMAT
 62
     0
100
AcDbLine
 10
21.49259637407903
 20
20.41710025474266
 30
0.0
 11
33.5
 21
20.41710025474266
 31
0.0
  0
LINE
  5
645
330
1F
100
AcDbEntity
  8
FORMAT
 62
     0
100
AcDbLine
 10
33.5
 20
20.41710025474266
 30
0.0
 11
33.5
 21
21.49999999999999
 31
0.0
  0
LINE
  5
646
330
1F
100
AcDbEntity
  8
FORMAT
 62
     0
100
AcDbLine
 10
33.5
 20
21.49999999999999
 30
0.0
 11
21.49259637407903
 21
21.49999999999999
 31
0.0
  0
LINE
  5
647
330
1F
100
AcDbEntity
  8
FORMAT
 62
     0
100
AcDbLine
 10
22.42792228571428
 20
21.1256
 30
0.0
 11
22.42792228571428
 21
20.41710025474266
 31
0.0
  0
LINE
  5
648
330
1F
100
AcDbEntity
  8
FORMAT
 62
     0
100
AcDbLine
 10
23.65060571428571
 20
21.1256
 30
0.0
 11
23.65060571428571
 21
20.41710025474266
 31
0.0
  0
LINE
  5
649
330
1F
100
AcDbEntity
  8
FORMAT
 62
     0
100
AcDbLine
 10
30.57914514285714
 20
21.1256
 30
0.0
 11
30.57914514285714
 21
20.41710025474266
 31
0.0
  0
LINE
  5
64A
330
1F
100
AcDbEntity
  8
FORMAT
 62
     0
100
AcDbLine
 10
31.80182857142856
 20
21.1256
 30
0.0
 11
31.80182857142856
 21
20.41710025474266
 31
0.0
  0
LINE
  5
64B
330
1F
100
AcDbEntity
  8
FORMAT
 62
     0
100
AcDbLine
 10
21.49259637407903
 20
20.75673454045694
 30
0.0
 11
33.5
 21
20.75673454045694
 31
0.0
  0
LINE
  5
64C
330
1F
100
AcDbEntity
  8
FORMAT
 62
     0
100
AcDbLine
 10
21.49259637407903
 20
21.1256
 30
0.0
 11
33.5
 21
21.1256
 31
0.0
  0
MTEXT
  5
64D
330
1F
100
AcDbEntity
  8
FORMAT
 62
     0
100
AcDbMText
 10
26.78375956501314
 20
21.37024209740905
 30
0.0
 40
0.1145833333333333
 41
0.0
 71
     1
 72
     1
  1
R  E  V  I  S  I  O  N  S
  7
SLDTEXTSTYLE6
1001
ACAD
1000
MTEXTBEGIN
1070
    73
1070
     1
1070
    44
1040
1.0
1070
    74
1070
     0
1000
MTEXTEND
  0
MTEXT
  5
64E
330
1F
100
AcDbEntity
  8
FORMAT
 62
     0
100
AcDbMText
 10
21.85771303285356
 20
20.98294334502971
 30
0.0
 40
0.0833333333333333
 41
0.0
 71
     1
 72
     1
  1
REV
  7
SLDTEXTSTYLE4
1001
ACAD
1000
MTEXTBEGIN
1070
    73
1070
     1
1070
    44
1040
1.0
1070
    74
1070
     0
1000
MTEXTEND
  0
MTEXT
  5
64F
330
1F
100
AcDbEntity
  8
FORMAT
 62
     0
100
AcDbMText
 10
22.92321461644571
 20
20.98294334502971
 30
0.0
 40
0.0833333333333333
 41
0.0
 71
     1
 72
     1
  1
ECN
  7
SLDTEXTSTYLE4
1001
ACAD
1000
MTEXTBEGIN
1070
    73
1070
     1
1070
    44
1040
1.0
1070
    74
1070
     0
1000
MTEXTEND
  0
MTEXT
  5
650
330
1F
100
AcDbEntity
  8
FORMAT
 62
     0
100
AcDbMText
 10
26.76603282843091
 20
20.98294334502971
 30
0.0
 40
0.0833333333333333
 41
0.0
 71
     1
 72
     1
  1
DESCRIPTION
  7
SLDTEXTSTYLE4
1001
ACAD
1000
MTEXTBEGIN
1070
    73
1070
     1
1070
    44
1040
1.0
1070
    74
1070
     0
1000
MTEXTEND
  0
MTEXT
  5
651
330
1F
100
AcDbEntity
  8
FORMAT
 62
     0
100
AcDbMText
 10
31.05453006856061
 20
20.98294334502971
 30
0.0
 40
0.0833333333333333
 41
0.0
 71
     1
 72
     1
  1
DATE
  7
SLDTEXTSTYLE4
1001
ACAD
1000
MTEXTBEGIN
1070
    73
1070
     1
1070
    44
1040
1.0
1070
    74
1070
     0
1000
MTEXTEND
  0
MTEXT
  5
652
330
1F
100
AcDbEntity
  8
FORMAT
 62
     0
100
AcDbMText
 10
32.35184020731022
 20
20.98294334502971
 30
0.0
 40
0.0833333333333333
 41
0.0
 71
     1
 72
     1
  1
APPROVED
  7
SLDTEXTSTYLE4
1001
ACAD
1000
MTEXTBEGIN
1070
    73
1070
     1
1070
    44
1040
1.0
1070
    74
1070
     0
1000
MTEXTEND
  0
MTEXT
  5
653
330
1F
100
AcDbEntity
  8
TB-TXT
100
AcDbMText
 10
21.88334266344455
 20
20.66823359756889
 30
0.0
 40
0.156
 41
0.0
 71
     1
 72
     1
  1
A
  7
SLDTEXTSTYLE4
1001
ACAD
1000
MTEXTBEGIN
1070
    73
1070
     1
1070
    44
1040
1.0
1070
    74
1070
     0
1000
MTEXTEND
  0
MTEXT
  5
654
330
1F
100
AcDbEntity
  8
TB-TXT
100
AcDbMText
 10
22.75109732225938
 20
20.66823359756889
 30
0.0
 40
0.156
 41
0.0
 71
     1
 72
     1
  1
20672
  7
SLDTEXTSTYLE4
1001
ACAD
1000
MTEXTBEGIN
1070
    73
1070
     1
1070
    44
1040
1.0
1070
    74
1070
     0
1000
MTEXTEND
  0
MTEXT
  5
655
330
1F
100
AcDbEntity
  8
TB-TXT
100
AcDbMText
 10
23.67029075365578
 20
20.66823359756889
 30
0.0
 40
0.156
 41
0.0
 71
     1
 72
     1
  1
RELEASE TO PRODUCTION
  7
SLDTEXTSTYLE4
1001
ACAD
1000
MTEXTBEGIN
1070
    73
1070
     1
1070
    44
1040
1.0
1070
    74
1070
     0
1000
MTEXTEND
  0
MTEXT
  5
656
330
1F
100
AcDbEntity
  8
TB-TXT
100
AcDbMText
 10
30.75368688976002
 20
20.66823359756889
 30
0.0
 40
0.156
 41
0.0
 71
     1
 72
     1
  1
03/22/13
  7
SLDTEXTSTYLE4
1001
ACAD
1000
MTEXTBEGIN
1070
    73
1070
     1
1070
    44
1040
1.0
1070
    74
1070
     0
1000
MTEXTEND
  0
MTEXT
  5
657
330
1F
100
AcDbEntity
  8
TB-TXT
100
AcDbMText
 10
32.22148093323167
 20
20.66823359756889
 30
0.0
 40
0.156
 41
0.0
 71
     1
 72
     1
  1
J.LUTHER
  7
SLDTEXTSTYLE4
1001
ACAD
1000
MTEXTBEGIN
1070
    73
1070
     1
1070
    44
1040
1.0
1070
    74
1070
     0
1000
MTEXTEND
  0
LINE
  5
6DC
330
1F
100
AcDbEntity
  8
DIM
100
AcDbLine
 10
6.299167399472153
 20
7.281453035930987
 30
0.0
 11
6.479167399472153
 21
7.281453035930987
 31
0.0
  0
LINE
  5
6DD
330
1F
100
AcDbEntity
  8
DIM
100
AcDbLine
 10
6.389167399472153
 20
7.191453035930987
 30
0.0
 11
6.389167399472153
 21
7.371453035930986
 31
0.0
  0
LINE
  5
6DE
330
1F
100
AcDbEntity
  8
DIM
100
AcDbLine
 10
6.299167399472153
 20
9.531453035930988
 30
0.0
 11
6.479167399472153
 21
9.531453035930988
 31
0.0
  0
LINE
  5
6DF
330
1F
100
AcDbEntity
  8
DIM
100
AcDbLine
 10
6.389167399472153
 20
9.441453035930988
 30
0.0
 11
6.389167399472153
 21
9.621453035930988
 31
0.0
  0
LINE
  5
6E0
330
1F
100
AcDbEntity
  8
DIM
100
AcDbLine
 10
6.195667265278164
 20
12.53145303593099
 30
0.0
 11
6.375667265278163
 21
12.53145303593099
 31
0.0
  0
LINE
  5
6E1
330
1F
100
AcDbEntity
  8
DIM
100
AcDbLine
 10
6.389167399472153
 20
12.44145303593098
 30
0.0
 11
6.389167399472153
 21
12.62145303593098
 31
0.0
  0
LINE
  5
6E2
330
1F
100
AcDbEntity
  8
DIM
100
AcDbLine
 10
6.299167399472153
 20
14.78145303593098
 30
0.0
 11
6.479167399472153
 21
14.78145303593098
 31
0.0
  0
LINE
  5
6E3
330
1F
100
AcDbEntity
  8
DIM
100
AcDbLine
 10
6.389167399472153
 20
14.69145303593099
 30
0.0
 11
6.389167399472153
 21
14.87145303593099
 31
0.0
  0
LINE
  5
739
330
1F
100
AcDbEntity
  8
DIM
100
AcDbLine
 10
5.155666980302253
 20
5.796953185319939
 30
0.0
 11
4.088189010419846
 21
5.796953185319939
 31
0.0
  0
LINE
  5
73A
330
1F
100
AcDbEntity
  8
DIM
100
AcDbLine
 10
6.223167265278163
 20
7.281453035930987
 30
0.0
 11
4.088189010419846
 21
7.281453035930987
 31
0.0
  0
LINE
  5
73B
330
1F
100
AcDbEntity
  8
DIM
100
AcDbLine
 10
4.268189010419845
 20
5.976953185319938
 30
0.0
 11
4.268189010419845
 21
6.261431446384349
 31
0.0
  0
LINE
  5
73C
330
1F
100
AcDbEntity
  8
DIM
100
AcDbLine
 10
4.268189010419845
 20
7.101453035930988
 30
0.0
 11
4.268189010419845
 21
6.854579335977176
 31
0.0
  0
SOLID
  5
73D
330
1F
100
AcDbEntity
  8
DIM
100
AcDbTrace
 10
4.238189010419844
 20
5.976953185319938
 30
0.0
 11
4.298189010419845
 21
5.976953185319938
 31
0.0
 12
4.268189010419845
 22
5.796953185319939
 32
0.0
 13
4.268189010419845
 23
5.796953185319939
 33
0.0
  0
SOLID
  5
73E
330
1F
100
AcDbEntity
  8
DIM
100
AcDbTrace
 10
4.238189010419846
 20
7.101453035930988
 30
0.0
 11
4.298189010419845
 21
7.101453035930988
 31
0.0
 12
4.268189010419845
 22
7.281453035930987
 32
0.0
 13
4.268189010419845
 23
7.281453035930987
 33
0.0
  0
MTEXT
  5
73F
330
1F
100
AcDbEntity
  8
DIM
100
AcDbMText
 10
4.268189010419844
 20
6.689621150176861
 30
0.0
 40
0.18
 41
0.0
 71
     5
 72
     1
  1
1.484
1001
ACAD
1000
MTEXTBEGIN
1070
    73
1070
     1
1070
    44
1040
1.0
1070
    74
1070
     0
1000
MTEXTEND
  0
MTEXT
  5
740
330
1F
100
AcDbEntity
  8
DIM
100
AcDbMText
 10
4.268189010419844
 20
6.430150047317532
 30
0.0
 40
0.18
 41
0.0
 71
     5
 72
     1
  1
(37.71)
1001
ACAD
1000
MTEXTBEGIN
1070
    73
1070
     1
1070
    44
1040
1.0
1070
    74
1070
     0
1000
MTEXTEND
  0
LINE
  5
741
330
1F
100
AcDbEntity
  8
DIM
100
AcDbLine
 10
5.155666980302253
 20
5.796953185319939
 30
0.0
 11
3.493503948111685
 21
5.796953185319939
 31
0.0
  0
LINE
  5
742
330
1F
100
AcDbEntity
  8
DIM
100
AcDbLine
 10
6.223167265278163
 20
9.531453035930988
 30
0.0
 11
3.493503948111687
 21
9.53145303593099
 31
0.0
  0
LINE
  5
743
330
1F
100
AcDbEntity
  8
DIM
100
AcDbLine
 10
3.673503948111687
 20
5.976953185319938
 30
0.0
 11
3.673503948111687
 21
7.484203110625457
 31
0.0
  0
LINE
  5
744
330
1F
100
AcDbEntity
  8
DIM
100
AcDbLine
 10
3.673503948111687
 20
9.35145303593099
 30
0.0
 11
3.673503948111687
 21
8.195038066413523
 31
0.0
  0
SOLID
  5
745
330
1F
100
AcDbEntity
  8
DIM
100
AcDbTrace
 10
3.643503948111685
 20
5.976953185319938
 30
0.0
 11
3.703503948111686
 21
5.976953185319938
 31
0.0
 12
3.673503948111687
 22
5.796953185319939
 32
0.0
 13
3.673503948111687
 23
5.796953185319939
 33
0.0
  0
SOLID
  5
746
330
1F
100
AcDbEntity
  8
DIM
100
AcDbTrace
 10
3.643503948111687
 20
9.35145303593099
 30
0.0
 11
3.703503948111686
 21
9.35145303593099
 31
0.0
 12
3.673503948111687
 22
9.53145303593099
 32
0.0
 13
3.673503948111687
 23
9.53145303593099
 33
0.0
  0
MTEXT
  5
747
330
1F
100
AcDbEntity
  8
DIM
100
AcDbMText
 10
3.673503948111685
 20
8.015038066413524
 30
0.0
 40
0.18
 41
0.0
 71
     5
 72
     1
  1
3.734
1001
ACAD
1000
MTEXTBEGIN
1070
    73
1070
     1
1070
    44
1040
1.0
1070
    74
1070
     0
1000
MTEXTEND
  0
LINE
  5
748
330
1F
100
AcDbEntity
  8
DIM
100
AcDbLine
 10
5.155666980302253
 20
5.796953185319939
 30
0.0
 11
2.857236247256556
 21
5.79695318531994
 31
0.0
  0
LINE
  5
749
330
1F
100
AcDbEntity
  8
DIM
100
AcDbLine
 10
6.223167265278163
 20
12.53145303593099
 30
0.0
 11
2.857236247256558
 21
12.53145303593099
 31
0.0
  0
LINE
  5
74A
330
1F
100
AcDbEntity
  8
DIM
100
AcDbLine
 10
3.037236247256556
 20
5.976953185319939
 30
0.0
 11
3.037236247256558
 21
9.920573063311941
 31
0.0
  0
LINE
  5
74B
330
1F
100
AcDbEntity
  8
DIM
100
AcDbLine
 10
3.037236247256558
 20
12.35145303593099
 30
0.0
 11
3.037236247256558
 21
10.75353860691077
 31
0.0
  0
SOLID
  5
74C
330
1F
100
AcDbEntity
  8
DIM
100
AcDbTrace
 10
3.007236247256557
 20
5.976953185319939
 30
0.0
 11
3.067236247256555
 21
5.976953185319939
 31
0.0
 12
3.037236247256556
 22
5.79695318531994
 32
0.0
 13
3.037236247256556
 23
5.79695318531994
 33
0.0
  0
SOLID
  5
74D
330
1F
100
AcDbEntity
  8
DIM
100
AcDbTrace
 10
3.007236247256559
 20
12.35145303593099
 30
0.0
 11
3.067236247256559
 21
12.35145303593099
 31
0.0
 12
3.037236247256558
 22
12.53145303593099
 32
0.0
 13
3.037236247256558
 23
12.53145303593099
 33
0.0
  0
MTEXT
  5
74E
330
1F
100
AcDbEntity
  8
DIM
100
AcDbMText
 10
3.037236247256556
 20
10.18403754991413
 30
0.0
 40
0.18
 41
0.0
 71
     5
 72
     1
  1
(171.06)
1001
ACAD
1000
MTEXTBEGIN
1070
    73
1070
     1
1070
    44
1040
1.0
1070
    74
1070
     0
1000
MTEXTEND
  0
MTEXT
  5
74F
330
1F
100
AcDbEntity
  8
DIM
100
AcDbMText
 10
3.673503948111685
 20
7.746752502948055
 30
0.0
 40
0.18
 41
0.0
 71
     5
 72
     1
  1
(94.86)
1001
ACAD
1000
MTEXTBEGIN
1070
    73
1070
     1
1070
    44
1040
1.0
1070
    74
1070
     0
1000
MTEXTEND
  0
LINE
  5
750
330
1F
100
AcDbEntity
  8
DIM
100
AcDbLine
 10
5.155666980302253
 20
5.796953185319939
 30
0.0
 11
1.146385717202736
 21
5.796953185319941
 31
0.0
  0
LINE
  5
751
330
1F
100
AcDbEntity
  8
DIM
100
AcDbLine
 10
5.155666980302253
 20
16.26595288654203
 30
0.0
 11
1.14638571720274
 21
16.26595288654203
 31
0.0
  0
LINE
  5
752
330
1F
100
AcDbEntity
  8
DIM
100
AcDbLine
 10
1.326385717202736
 20
5.976953185319941
 30
0.0
 11
1.326385717202738
 21
10.85145303593099
 31
0.0
  0
LINE
  5
753
330
1F
100
AcDbEntity
  8
DIM
100
AcDbLine
 10
1.32638571720274
 20
16.08595288654203
 30
0.0
 11
1.326385717202738
 21
11.59109397127341
 31
0.0
  0
SOLID
  5
754
330
1F
100
AcDbEntity
  8
DIM
100
AcDbTrace
 10
1.296385717202737
 20
5.976953185319941
 30
0.0
 11
1.356385717202737
 21
5.976953185319941
 31
0.0
 12
1.326385717202736
 22
5.796953185319941
 32
0.0
 13
1.326385717202736
 23
5.796953185319941
 33
0.0
  0
SOLID
  5
755
330
1F
100
AcDbEntity
  8
DIM
100
AcDbTrace
 10
1.296385717202738
 20
16.08595288654203
 30
0.0
 11
1.356385717202741
 21
16.08595288654203
 31
0.0
 12
1.32638571720274
 22
16.26595288654203
 32
0.0
 13
1.32638571720274
 23
16.26595288654203
 33
0.0
  0
MTEXT
  5
756
330
1F
100
AcDbEntity
  8
DIM
100
AcDbMText
 10
1.326385717202737
 20
11.080858343486
 30
0.0
 40
0.18
 41
0.0
 71
     5
 72
     1
  1
(265.91)
1001
ACAD
1000
MTEXTBEGIN
1070
    73
1070
     1
1070
    44
1040
1.0
1070
    74
1070
     0
1000
MTEXTEND
  0
LINE
  5
757
330
1F
100
AcDbEntity
  8
DIM
100
AcDbLine
 10
5.155666980302253
 20
5.796953185319939
 30
0.0
 11
2.03873029356456
 21
5.79695318531994
 31
0.0
  0
LINE
  5
758
330
1F
100
AcDbEntity
  8
DIM
100
AcDbLine
 10
6.223167265278163
 20
14.78145303593098
 30
0.0
 11
2.038730293564562
 21
14.78145303593099
 31
0.0
  0
LINE
  5
759
330
1F
100
AcDbEntity
  8
DIM
100
AcDbLine
 10
2.21873029356456
 20
5.976953185319939
 30
0.0
 11
2.218730293564561
 21
13.20118318338082
 31
0.0
  0
LINE
  5
75A
330
1F
100
AcDbEntity
  8
DIM
100
AcDbLine
 10
2.218730293564561
 20
14.60145303593099
 30
0.0
 11
2.218730293564561
 21
13.93213658807091
 31
0.0
  0
SOLID
  5
75B
330
1F
100
AcDbEntity
  8
DIM
100
AcDbTrace
 10
2.18873029356456
 20
5.976953185319939
 30
0.0
 11
2.248730293564559
 21
5.976953185319939
 31
0.0
 12
2.21873029356456
 22
5.79695318531994
 32
0.0
 13
2.21873029356456
 23
5.79695318531994
 33
0.0
  0
SOLID
  5
75C
330
1F
100
AcDbEntity
  8
DIM
100
AcDbTrace
 10
2.18873029356456
 20
14.60145303593099
 30
0.0
 11
2.248730293564562
 21
14.60145303593099
 31
0.0
 12
2.218730293564561
 22
14.78145303593099
 32
0.0
 13
2.218730293564561
 23
14.78145303593099
 33
0.0
  0
MTEXT
  5
75D
330
1F
100
AcDbEntity
  8
DIM
100
AcDbMText
 10
2.218730293564559
 20
13.49246919966557
 30
0.0
 40
0.18
 41
0.0
 71
     5
 72
     1
  1
(228.21)
1001
ACAD
1000
MTEXTBEGIN
1070
    73
1070
     1
1070
    44
1040
1.0
1070
    74
1070
     0
1000
MTEXTEND
  0
MTEXT
  5
75E
330
1F
100
AcDbEntity
  8
DIM
100
AcDbMText
 10
1.326385717202737
 20
11.35896238451673
 30
0.0
 40
0.18
 41
0.0
 71
     5
 72
     1
  1
10.469
1001
ACAD
1000
MTEXTBEGIN
1070
    73
1070
     1
1070
    44
1040
1.0
1070
    74
1070
     0
1000
MTEXTEND
  0
MTEXT
  5
75F
330
1F
100
AcDbEntity
  8
DIM
100
AcDbMText
 10
2.218730293564559
 20
13.7705732406963
 30
0.0
 40
0.18
 41
0.0
 71
     5
 72
     1
  1
8.984
1001
ACAD
1000
MTEXTBEGIN
1070
    73
1070
     1
1070
    44
1040
1.0
1070
    74
1070
     0
1000
MTEXTEND
  0
MTEXT
  5
760
330
1F
100
AcDbEntity
  8
DIM
100
AcDbMText
 10
3.037236247256556
 20
10.46214159094486
 30
0.0
 40
0.18
 41
0.0
 71
     5
 72
     1
  1
6.734
1001
ACAD
1000
MTEXTBEGIN
1070
    73
1070
     1
1070
    44
1040
1.0
1070
    74
1070
     0
1000
MTEXTEND
  0
LINE
  5
76F
330
1F
100
AcDbEntity
  8
DIM
100
AcDbLine
 10
30.32888235963619
 20
5.834452883448227
 30
0.0
 11
30.32888235963619
 21
4.729672183366162
 31
0.0
  0
LINE
  5
770
330
1F
100
AcDbEntity
  8
DIM
100
AcDbLine
 10
32.42188230112226
 20
9.539173566198764
 30
0.0
 11
32.42188230112226
 21
4.729672183366162
 31
0.0
  0
LINE
  5
771
330
1F
100
AcDbEntity
  8
DIM
100
AcDbLine
 10
30.50888235963619
 20
4.909672183366161
 30
0.0
 11
30.81897316235588
 21
4.909672183366161
 31
0.0
  0
SOLID
  5
773
330
1F
100
AcDbEntity
  8
DIM
100
AcDbTrace
 10
30.50888235963619
 20
4.939672183366161
 30
0.0
 11
30.50888235963619
 21
4.879672183366162
 31
0.0
 12
30.32888235963619
 22
4.909672183366161
 32
0.0
 13
30.32888235963619
 23
4.909672183366161
 33
0.0
  0
SOLID
  5
774
330
1F
100
AcDbEntity
  8
DIM
100
AcDbTrace
 10
32.24188230112226
 20
4.939672183366161
 30
0.0
 11
32.24188230112226
 21
4.879672183366162
 31
0.0
 12
32.42188230112226
 22
4.909672183366161
 32
0.0
 13
32.42188230112226
 23
4.909672183366161
 33
0.0
  0
MTEXT
  5
775
330
1F
100
AcDbEntity
  8
DIM
100
AcDbMText
 10
31.37079187241627
 20
4.744672412280593
 30
0.0
 40
0.18
 41
0.0
 71
     5
 72
     1
  1
(53.16)
1001
ACAD
1000
MTEXTBEGIN
1070
    73
1070
     1
1070
    44
1040
1.0
1070
    74
1070
     0
1000
MTEXTEND
  0
MTEXT
  5
776
330
1F
100
AcDbEntity
  8
DIM
100
AcDbMText
 10
31.37079187241627
 20
5.025171987270141
 30
0.0
 40
0.18
 41
0.0
 71
     5
 72
     1
  1
2.093
1001
ACAD
1000
MTEXTBEGIN
1070
    73
1070
     1
1070
    44
1040
1.0
1070
    74
1070
     0
1000
MTEXTEND
  0
LINE
  5
77A
330
1F
100
AcDbEntity
  8
DIM
100
AcDbLine
 10
31.96412877071146
 20
4.909672183366161
 30
0.0
 11
32.24188230112226
 21
4.909672183366161
 31
0.0
  0
LINE
  5
77B
330
1F
100
AcDbEntity
  8
DIM
100
AcDbLine
 10
24.75716713108417
 20
7.281453035930987
 30
0.0
 11
24.93716713108417
 21
7.281453035930987
 31
0.0
  0
LINE
  5
77C
330
1F
100
AcDbEntity
  8
DIM
100
AcDbLine
 10
24.84716713108417
 20
7.191453035930987
 30
0.0
 11
24.84716713108417
 21
7.371453035930986
 31
0.0
  0
LINE
  5
7A8
330
1F
100
AcDbEntity
  8
DIM
100
AcDbLine
 10
6.389167399472153
 20
7.128953035930987
 30
0.0
 11
6.389167399472153
 21
4.988964006629714
 31
0.0
  0
LINE
  5
7A9
330
1F
100
AcDbEntity
  8
DIM
100
AcDbLine
 10
5.118167282173967
 20
5.834452883448227
 30
0.0
 11
5.118167282173967
 21
4.988964006629714
 31
0.0
  0
LINE
  5
7AB
330
1F
100
AcDbEntity
  8
DIM
100
AcDbLine
 10
5.118167282173967
 20
5.168964006629714
 30
0.0
 11
4.938167282173967
 21
5.168964006629714
 31
0.0
  0
MTEXT
  5
7AE
330
1F
100
AcDbEntity
  8
DIM
100
AcDbMText
 10
5.774531790822948
 20
5.316878278569184
 30
0.0
 40
0.18
 41
0.0
 71
     5
 72
     1
  1
1.271
1001
ACAD
1000
MTEXTBEGIN
1070
    73
1070
     1
1070
    44
1040
1.0
1070
    74
1070
     0
1000
MTEXTEND
  0
LINE
  5
7AF
330
1F
100
AcDbEntity
  8
DIM
100
AcDbLine
 10
6.389167399472153
 20
7.128953035930987
 30
0.0
 11
6.389167399472153
 21
4.986120837131608
 31
0.0
  0
LINE
  5
7B0
330
1F
100
AcDbEntity
  8
DIM
100
AcDbLine
 10
24.84716713108417
 20
7.128953035930987
 30
0.0
 11
24.84716713108417
 21
4.986120837131608
 31
0.0
  0
LINE
  5
7B1
330
1F
100
AcDbEntity
  8
DIM
100
AcDbLine
 10
6.569167399472153
 20
5.166120837131607
 30
0.0
 11
14.85694271666775
 21
5.166120837131607
 31
0.0
  0
LINE
  5
7B2
330
1F
100
AcDbEntity
  8
DIM
100
AcDbLine
 10
24.66716713108418
 20
5.166120837131607
 30
0.0
 11
16.35263270304025
 21
5.166120837131607
 31
0.0
  0
SOLID
  5
7B3
330
1F
100
AcDbEntity
  8
DIM
100
AcDbTrace
 10
6.569167399472153
 20
5.196120837131608
 30
0.0
 11
6.569167399472153
 21
5.136120837131607
 31
0.0
 12
6.389167399472153
 22
5.166120837131607
 32
0.0
 13
6.389167399472153
 23
5.166120837131607
 33
0.0
  0
SOLID
  5
7B4
330
1F
100
AcDbEntity
  8
DIM
100
AcDbTrace
 10
24.66716713108418
 20
5.196120837131608
 30
0.0
 11
24.66716713108418
 21
5.136120837131607
 31
0.0
 12
24.84716713108417
 22
5.166120837131607
 32
0.0
 13
24.84716713108417
 23
5.166120837131607
 33
0.0
  0
MTEXT
  5
7B5
330
1F
100
AcDbEntity
  8
DIM
100
AcDbMText
 10
15.61816726527816
 20
5.314035109071078
 30
0.0
 40
0.18
 41
0.0
 71
     5
 72
     1
  1
18.458
1001
ACAD
1000
MTEXTBEGIN
1070
    73
1070
     1
1070
    44
1040
1.0
1070
    74
1070
     0
1000
MTEXTEND
  0
LINE
  5
7B6
330
1F
100
AcDbEntity
  8
DIM
100
AcDbLine
 10
5.118167282173967
 20
5.834452883448227
 30
0.0
 11
5.118167282173967
 21
3.813169380811174
 31
0.0
  0
LINE
  5
7B7
330
1F
100
AcDbEntity
  8
DIM
100
AcDbLine
 10
26.11816724838236
 20
5.834452883448227
 30
0.0
 11
26.11816724838236
 21
3.813169380811174
 31
0.0
  0
LINE
  5
7B8
330
1F
100
AcDbEntity
  8
DIM
100
AcDbLine
 10
5.298167282173967
 20
3.993169380811174
 30
0.0
 11
14.91694271666775
 21
3.993169380811174
 31
0.0
  0
LINE
  5
7B9
330
1F
100
AcDbEntity
  8
DIM
100
AcDbLine
 10
25.93816724838235
 20
3.993169380811174
 30
0.0
 11
16.29263270304025
 21
3.993169380811174
 31
0.0
  0
SOLID
  5
7BA
330
1F
100
AcDbEntity
  8
DIM
100
AcDbTrace
 10
5.298167282173967
 20
4.023169380811174
 30
0.0
 11
5.298167282173967
 21
3.963169380811174
 31
0.0
 12
5.118167282173967
 22
3.993169380811174
 32
0.0
 13
5.118167282173967
 23
3.993169380811174
 33
0.0
  0
SOLID
  5
7BB
330
1F
100
AcDbEntity
  8
DIM
100
AcDbTrace
 10
25.93816724838235
 20
4.023169380811174
 30
0.0
 11
25.93816724838235
 21
3.963169380811174
 31
0.0
 12
26.11816724838236
 22
3.993169380811174
 32
0.0
 13
26.11816724838236
 23
3.993169380811174
 33
0.0
  0
MTEXT
  5
7BC
330
1F
100
AcDbEntity
  8
DIM
100
AcDbMText
 10
15.61816726527816
 20
4.141083652750644
 30
0.0
 40
0.18
 41
0.0
 71
     5
 72
     1
  1
21.000
1001
ACAD
1000
MTEXTBEGIN
1070
    73
1070
     1
1070
    44
1040
1.0
1070
    74
1070
     0
1000
MTEXTEND
  0
MTEXT
  5
7BD
330
1F
100
AcDbEntity
  8
DIM
100
AcDbMText
 10
5.774531790822948
 20
5.021049683467509
 30
0.0
 40
0.18
 41
0.0
 71
     5
 72
     1
  1
(32.28)
1001
ACAD
1000
MTEXTBEGIN
1070
    73
1070
     1
1070
    44
1040
1.0
1070
    74
1070
     0
1000
MTEXTEND
  0
MTEXT
  5
7BE
330
1F
100
AcDbEntity
  8
DIM
100
AcDbMText
 10
15.61816726527816
 20
5.018206513969403
 30
0.0
 40
0.18
 41
0.0
 71
     5
 72
     1
  1
(468.83])
1001
ACAD
1000
MTEXTBEGIN
1070
    73
1070
     1
1070
    44
1040
1.0
1070
    74
1070
     0
1000
MTEXTEND
  0
MTEXT
  5
7BF
330
1F
100
AcDbEntity
  8
DIM
100
AcDbMText
 10
15.61816726527816
 20
3.845255057648969
 30
0.0
 40
0.18
 41
0.0
 71
     5
 72
     1
  1
(533.40)
1001
ACAD
1000
MTEXTBEGIN
1070
    73
1070
     1
1070
    44
1040
1.0
1070
    74
1070
     0
1000
MTEXTEND
  0
SOLID
  5
7C0
330
1F
100
AcDbEntity
  8
DIM
100
AcDbTrace
 10
4.938167282173967
 20
5.198964006629714
 30
0.0
 11
4.938167282173967
 21
5.138964006629714
 31
0.0
 12
5.118167282173967
 22
5.168964006629714
 32
0.0
 13
5.118167282173967
 23
5.168964006629714
 33
0.0
  0
LINE
  5
7C1
330
1F
100
AcDbEntity
  8
DIM
100
AcDbLine
 10
4.807323503105724
 20
5.168964006629714
 30
0.0
 11
4.938167282173967
 21
5.168964006629714
 31
0.0
  0
LINE
  5
7CB
330
1F
100
AcDbEntity
  8
DIM
100
AcDbLine
 10
8.799643871436924
 20
19.43497426039338
 30
0.0
 11
4.43171739279584
 21
19.43497426039338
 31
0.0
  0
LINE
  5
7CC
330
1F
100
AcDbEntity
  8
DIM
100
AcDbLine
 10
5.055667282173969
 20
17.3419743189073
 30
0.0
 11
4.431717392795839
 21
17.3419743189073
 31
0.0
  0
LINE
  5
7CD
330
1F
100
AcDbEntity
  8
DIM
100
AcDbLine
 10
4.611717392795839
 20
19.25497426039338
 30
0.0
 11
4.611717392795839
 21
18.91948274003022
 31
0.0
  0
LINE
  5
7CE
330
1F
100
AcDbEntity
  8
DIM
100
AcDbLine
 10
4.611717392795839
 20
17.5219743189073
 30
0.0
 11
4.611717392795839
 21
18.20847428965034
 31
0.0
  0
SOLID
  5
7CF
330
1F
100
AcDbEntity
  8
DIM
100
AcDbTrace
 10
4.581717392795839
 20
19.25497426039338
 30
0.0
 11
4.64171739279584
 21
19.25497426039338
 31
0.0
 12
4.611717392795839
 22
19.43497426039338
 32
0.0
 13
4.611717392795839
 23
19.43497426039338
 33
0.0
  0
SOLID
  5
7D0
330
1F
100
AcDbEntity
  8
DIM
100
AcDbTrace
 10
4.581717392795838
 20
17.5219743189073
 30
0.0
 11
4.641717392795839
 21
17.5219743189073
 31
0.0
 12
4.611717392795839
 22
17.3419743189073
 32
0.0
 13
4.611717392795839
 23
17.3419743189073
 33
0.0
  0
MTEXT
  5
7D1
330
1F
100
AcDbEntity
  8
DIM
100
AcDbMText
 10
4.611717392795836
 20
18.38847428965034
 30
0.0
 40
0.18
 41
0.0
 71
     5
 72
     1
  1
(53.16)
1001
ACAD
1000
MTEXTBEGIN
1070
    73
1070
     1
1070
    44
1040
1.0
1070
    74
1070
     0
1000
MTEXTEND
  0
MTEXT
  5
7D2
330
1F
100
AcDbEntity
  8
DIM
100
AcDbMText
 10
4.611717392795836
 20
18.66826360761957
 30
0.0
 40
0.18
 41
0.0
 71
     5
 72
     1
  1
2.093
1001
ACAD
1000
MTEXTBEGIN
1070
    73
1070
     1
1070
    44
1040
1.0
1070
    74
1070
     0
1000
MTEXTEND
  0
ENDSEC
  0
SECTION
  2
OBJECTS
  0
DICTIONARY
  5
C
330
0
100
AcDbDictionary
  3
ACAD_GROUP
350
D
  3
ACAD_LAYOUT
350
265
  3
ACAD_MLINESTYLE
350
17
  3
ACAD_PLOTSETTINGS
350
266
  3
ACAD_PLOTSTYLENAME
350
263
  3
ACAD_SCALELIST
350
23E
  3
ACDBHEADERROUNDTRIPXREC
350
7D6
  3
ACDBVARIABLEDICTIONARY
350
260
  0
DICTIONARY
  5
7F8
330
1F
100
AcDbDictionary
280
     1
  3
ACAD_LAYOUTSELFREF
360
7F9
  0
DICTIONARY
  5
7F6
330
1B
100
AcDbDictionary
280
     1
  3
ACAD_LAYOUTSELFREF
360
7F7
  0
DICTIONARY
  5
D
102
{ACAD_REACTORS
330
C
102
}
330
C
100
AcDbDictionary
  0
DICTIONARY
  5
265
102
{ACAD_REACTORS
330
C
102
}
330
C
100
AcDbDictionary
  0
DICTIONARY
  5
17
102
{ACAD_REACTORS
330
C
102
}
330
C
100
AcDbDictionary
  3
STANDARD
350
18
  0
DICTIONARY
  5
266
102
{ACAD_REACTORS
330
C
102
}
330
C
100
AcDbDictionary
  0
ACDBDICTIONARYWDFLT
  5
263
102
{ACAD_REACTORS
330
C
102
}
330
C
100
AcDbDictionary
281
     1
  3
Normal
350
264
100
AcDbDictionaryWithDefault
340
264
  0
DICTIONARY
  5
23E
102
{ACAD_REACTORS
330
C
102
}
330
C
100
AcDbDictionary
  0
DICTIONARY
  5
7D6
102
{ACAD_REACTORS
330
C
102
}
330
C
100
AcDbDictionary
  3
CEPSNTYPE
350
7E0
  3
FINGERPRINTGUID
350
7E1
  3
HYPERLINKBASE
350
7D9
  3
INSUNITS
350
7DF
  3
LAYOUTDICT
350
7DB
  3
LWETCUNION
350
7DE
  3
PLOTSETDICT
350
7DC
  3
PLOTSTYLNAMDICT
350
7DD
  3
PSVPSCALE
350
7E3
  3
PUCSBASE
350
7E6
  3
PUCSORGBACK
350
7EC
  3
PUCSORGBOTTOM
350
7E8
  3
PUCSORGFRONT
350
7EB
  3
PUCSORGLEFT
350
7E9
  3
PUCSORGRIGHT
350
7EA
  3
PUCSORGTOP
350
7E7
  3
PUCSORTHOREF
350
7E4
  3
PUCSORTHOVIEW
350
7E5
  3
STYLESHEET
350
7DA
  3
TSTACKALIGN
350
7D7
  3
TSTACKSIZE
350
7D8
  3
UCSBASE
350
7EF
  3
UCSORGBACK
350
7F5
  3
UCSORGBOTTOM
350
7F1
  3
UCSORGFRONT
350
7F4
  3
UCSORGLEFT
350
7F2
  3
UCSORGRIGHT
350
7F3
  3
UCSORGTOP
350
7F0
  3
UCSORTHOREF
350
7ED
  3
UCSORTHOVIEW
350
7EE
  3
VERSIONGUID
350
7E2
  0
DICTIONARY
  5
260
102
{ACAD_REACTORS
330
C
102
}
330
C
100
AcDbDictionary
  3
CANNOSCALE
350
261
  3
DIMASSOC
350
7C3
  0
XRECORD
  5
7F9
102
{ACAD_REACTORS
330
7F8
102
}
330
7F8
100
AcDbXrecord
340
1F
  0
XRECORD
  5
7F7
102
{ACAD_REACTORS
330
7F6
102
}
330
7F6
100
AcDbXrecord
340
1B
  0
MLINESTYLE
  5
18
102
{ACAD_REACTORS
330
17
102
}
330
17
100
AcDbMlineStyle
  2
STANDARD
 70
     0
  3

 62
   256
 51
90.0
 52
90.0
 71
     2
 49
0.5
 62
   256
  6
BYLAYER
 49
-0.5
 62
   256
  6
BYLAYER
  0
ACDBPLACEHOLDER
  5
264
102
{ACAD_REACTORS
330
263
102
}
330
263
100
AcDbPlaceHolder
280
     0
  0
XRECORD
  5
7E0
102
{ACAD_REACTORS
330
7D6
102
}
330
7D6
100
AcDbXrecord
 90
        0
  0
XRECORD
  5
7E1
102
{ACAD_REACTORS
330
7D6
102
}
330
7D6
100
AcDbXrecord
  1
{87A68DD6-2E07-412D-A240-2E5144D46529}
  0
XRECORD
  5
7D9
102
{ACAD_REACTORS
330
7D6
102
}
330
7D6
100
AcDbXrecord
  1

  0
XRECORD
  5
7DF
102
{ACAD_REACTORS
330
7D6
102
}
330
7D6
100
AcDbXrecord
 90
        0
  0
XRECORD
  5
7DB
102
{ACAD_REACTORS
330
7D6
102
}
330
7D6
100
AcDbXrecord
340
265
  0
XRECORD
  5
7DE
102
{ACAD_REACTORS
330
7D6
102
}
330
7D6
100
AcDbXrecord
 90
    14877
  0
XRECORD
  5
7DC
102
{ACAD_REACTORS
330
7D6
102
}
330
7D6
100
AcDbXrecord
340
266
  0
XRECORD
  5
7DD
102
{ACAD_REACTORS
330
7D6
102
}
330
7D6
100
AcDbXrecord
340
263
  0
XRECORD
  5
7E3
102
{ACAD_REACTORS
330
7D6
102
}
330
7D6
100
AcDbXrecord
 40
0.0
  0
XRECORD
  5
7E6
102
{ACAD_REACTORS
330
7D6
102
}
330
7D6
100
AcDbXrecord
340
0
  0
XRECORD
  5
7EC
102
{ACAD_REACTORS
330
7D6
102
}
330
7D6
100
AcDbXrecord
 10
0.0
 20
0.0
 30
0.0
  0
XRECORD
  5
7E8
102
{ACAD_REACTORS
330
7D6
102
}
330
7D6
100
AcDbXrecord
 10
0.0
 20
0.0
 30
0.0
  0
XRECORD
  5
7EB
102
{ACAD_REACTORS
330
7D6
102
}
330
7D6
100
AcDbXrecord
 10
0.0
 20
0.0
 30
0.0
  0
XRECORD
  5
7E9
102
{ACAD_REACTORS
330
7D6
102
}
330
7D6
100
AcDbXrecord
 10
0.0
 20
0.0
 30
0.0
  0
XRECORD
  5
7EA
102
{ACAD_REACTORS
330
7D6
102
}
330
7D6
100
AcDbXrecord
 10
0.0
 20
0.0
 30
0.0
  0
XRECORD
  5
7E7
102
{ACAD_REACTORS
330
7D6
102
}
330
7D6
100
AcDbXrecord
 10
0.0
 20
0.0
 30
0.0
  0
XRECORD
  5
7E4
102
{ACAD_REACTORS
330
7D6
102
}
330
7D6
100
AcDbXrecord
340
0
  0
XRECORD
  5
7E5
102
{ACAD_REACTORS
330
7D6
102
}
330
7D6
100
AcDbXrecord
 70
     0
  0
XRECORD
  5
7DA
102
{ACAD_REACTORS
330
7D6
102
}
330
7D6
100
AcDbXrecord
  1

  0
XRECORD
  5
7D7
102
{ACAD_REACTORS
330
7D6
102
}
330
7D6
100
AcDbXrecord
 90
        1
  0
XRECORD
  5
7D8
102
{ACAD_REACTORS
330
7D6
102
}
330
7D6
100
AcDbXrecord
 90
       70
  0
XRECORD
  5
7EF
102
{ACAD_REACTORS
330
7D6
102
}
330
7D6
100
AcDbXrecord
340
0
  0
XRECORD
  5
7F5
102
{ACAD_REACTORS
330
7D6
102
}
330
7D6
100
AcDbXrecord
 10
0.0
 20
0.0
 30
0.0
  0
XRECORD
  5
7F1
102
{ACAD_REACTORS
330
7D6
102
}
330
7D6
100
AcDbXrecord
 10
0.0
 20
0.0
 30
0.0
  0
XRECORD
  5
7F4
102
{ACAD_REACTORS
330
7D6
102
}
330
7D6
100
AcDbXrecord
 10
0.0
 20
0.0
 30
0.0
  0
XRECORD
  5
7F2
102
{ACAD_REACTORS
330
7D6
102
}
330
7D6
100
AcDbXrecord
 10
0.0
 20
0.0
 30
0.0
  0
XRECORD
  5
7F3
102
{ACAD_REACTORS
330
7D6
102
}
330
7D6
100
AcDbXrecord
 10
0.0
 20
0.0
 30
0.0
  0
XRECORD
  5
7F0
102
{ACAD_REACTORS
330
7D6
102
}
330
7D6
100
AcDbXrecord
 10
0.0
 20
0.0
 30
0.0
  0
XRECORD
  5
7ED
102
{ACAD_REACTORS
330
7D6
102
}
330
7D6
100
AcDbXrecord
340
0
  0
XRECORD
  5
7EE
102
{ACAD_REACTORS
330
7D6
102
}
330
7D6
100
AcDbXrecord
 70
     0
  0
XRECORD
  5
7E2
102
{ACAD_REACTORS
330
7D6
102
}
330
7D6
100
AcDbXrecord
  1
{19284BF5-A050-41C4-AB10-C9258F9BE176}
  0
DICTIONARYVAR
  5
261
102
{ACAD_REACTORS
330
260
102
}
330
260
100
DictionaryVariables
280
     0
  1
1:1
  0
DICTIONARYVAR
  5
7C3
102
{ACAD_REACTORS
330
260
102
}
330
260
100
DictionaryVariables
280
     0
  1
1
  0
ENDSEC
  0
EOF
