  0
SECTION
  2
HEADER
  9
$ACADVER
  1
AC1014
  9
$ACADMAINTVER
 70
     9
  9
$DWGCODEPAGE
  3
ANSI_1252
  9
$INSBASE
 10
0.0
 20
0.0
 30
0.0
  9
$EXTMIN
 10
-0.002206733919806
 20
-0.001829455836905
 30
-0.0000000000112498
  9
$EXTMAX
 10
34.00211554650346
 20
22.0016467575998
 30
0.0000000000002956
  9
$LIMMIN
 10
-0.0011691468586008
 20
-0.001158055241639
  9
$LIMMAX
 10
34.00107780110693
 20
22.00097525454911
  9
$ORTHOMODE
 70
     1
  9
$REGENMODE
 70
     1
  9
$FILLMODE
 70
     1
  9
$QTEXTMODE
 70
     0
  9
$MIRRTEXT
 70
     1
  9
$DRAGMODE
 70
     2
  9
$LTSCALE
 40
0.2
  9
$OSMODE
 70
    37
  9
$ATTMODE
 70
     1
  9
$TEXTSIZE
 40
0.12
  9
$TRACEWID
 40
0.05
  9
$TEXTSTYLE
  7
ARIAL
  9
$CLAYER
  8
DIM
  9
$CELTYPE
  6
BYLAYER
  9
$CECOLOR
 62
   256
  9
$CELTSCALE
 40
1.0
  9
$DELOBJ
 70
     1
  9
$DISPSILH
 70
     0
  9
$DIMSCALE
 40
1.0
  9
$DIMASZ
 40
0.12
  9
$DIMEXO
 40
0.1
  9
$DIMDLI
 40
0.38
  9
$DIMRND
 40
0.0
  9
$DIMDLE
 40
0.0
  9
$DIMEXE
 40
0.1
  9
$DIMTP
 40
0.0
  9
$DIMTM
 40
0.0
  9
$DIMTXT
 40
0.12
  9
$DIMCEN
 40
0.09
  9
$DIMTSZ
 40
0.0
  9
$DIMTOL
 70
     0
  9
$DIMLIM
 70
     0
  9
$DIMTIH
 70
     1
  9
$DIMTOH
 70
     1
  9
$DIMSE1
 70
     0
  9
$DIMSE2
 70
     0
  9
$DIMTAD
 70
     0
  9
$DIMZIN
 70
     0
  9
$DIMBLK
  1

  9
$DIMASO
 70
     0
  9
$DIMSHO
 70
     0
  9
$DIMPOST
  1

  9
$DIMAPOST
  1

  9
$DIMALT
 70
     0
  9
$DIMALTD
 70
     2
  9
$DIMALTF
 40
25.4
  9
$DIMLFAC
 40
1.0
  9
$DIMTOFL
 70
     0
  9
$DIMTVP
 40
0.0
  9
$DIMTIX
 70
     0
  9
$DIMSOXD
 70
     0
  9
$DIMSAH
 70
     0
  9
$DIMBLK1
  1

  9
$DIMBLK2
  1

  9
$DIMSTYLE
  2
STANDARD
  9
$DIMCLRD
 70
   256
  9
$DIMCLRE
 70
   256
  9
$DIMCLRT
 70
   256
  9
$DIMTFAC
 40
1.0
  9
$DIMGAP
 40
0.09
  9
$DIMJUST
 70
     0
  9
$DIMSD1
 70
     0
  9
$DIMSD2
 70
     0
  9
$DIMTOLJ
 70
     1
  9
$DIMTZIN
 70
     0
  9
$DIMALTZ
 70
     0
  9
$DIMALTTZ
 70
     0
  9
$DIMFIT
 70
     3
  9
$DIMUPT
 70
     1
  9
$DIMUNIT
 70
     2
  9
$DIMDEC
 70
     3
  9
$DIMTDEC
 70
     4
  9
$DIMALTU
 70
     2
  9
$DIMALTTD
 70
     2
  9
$DIMTXSTY
  7
ROMANS
  9
$DIMAUNIT
 70
     0
  9
$LUNITS
 70
     2
  9
$LUPREC
 70
     3
  9
$SKETCHINC
 40
0.1
  9
$FILLETRAD
 40
0.0
  9
$AUNITS
 70
     0
  9
$AUPREC
 70
     1
  9
$MENU
  1
ACAD
  9
$ELEVATION
 40
0.0
  9
$PELEVATION
 40
0.0
  9
$THICKNESS
 40
0.0
  9
$LIMCHECK
 70
     0
  9
$BLIPMODE
 70
     0
  9
$CHAMFERA
 40
0.0
  9
$CHAMFERB
 40
0.0
  9
$CHAMFERC
 40
1.0
  9
$CHAMFERD
 40
0.0
  9
$SKPOLY
 70
     0
  9
$TDCREATE
 40
2456457.489174421
  9
$TDUPDATE
 40
2456507.493778182
  9
$TDINDWG
 40
0.1115565394
  9
$TDUSRTIMER
 40
0.1115564236
  9
$USRTIMER
 70
     1
  9
$ANGBASE
 50
0.0
  9
$ANGDIR
 70
     0
  9
$PDMODE
 70
     2
  9
$PDSIZE
 40
0.085
  9
$PLINEWID
 40
0.0
  9
$COORDS
 70
     1
  9
$SPLFRAME
 70
     0
  9
$SPLINETYPE
 70
     6
  9
$SPLINESEGS
 70
    16
  9
$ATTDIA
 70
     0
  9
$ATTREQ
 70
     1
  9
$HANDLING
 70
 22529
  9
$HANDSEED
  5
1D15
  9
$SURFTAB1
 70
     6
  9
$SURFTAB2
 70
     6
  9
$SURFTYPE
 70
     6
  9
$SURFU
 70
     6
  9
$SURFV
 70
     6
  9
$UCSNAME
  2

  9
$UCSORG
 10
0.0
 20
0.0
 30
0.0
  9
$UCSXDIR
 10
1.0
 20
0.0
 30
0.0
  9
$UCSYDIR
 10
0.0
 20
1.0
 30
0.0
  9
$PUCSNAME
  2

  9
$PUCSORG
 10
0.0
 20
0.0
 30
0.0
  9
$PUCSXDIR
 10
1.0
 20
0.0
 30
0.0
  9
$PUCSYDIR
 10
0.0
 20
1.0
 30
0.0
  9
$USERI1
 70
     0
  9
$USERI2
 70
     0
  9
$USERI3
 70
     0
  9
$USERI4
 70
     0
  9
$USERI5
 70
     0
  9
$USERR1
 40
0.0
  9
$USERR2
 40
0.0
  9
$USERR3
 40
0.0
  9
$USERR4
 40
0.0
  9
$USERR5
 40
0.0
  9
$WORLDVIEW
 70
     1
  9
$SHADEDGE
 70
     3
  9
$SHADEDIF
 70
    70
  9
$TILEMODE
 70
     1
  9
$MAXACTVP
 70
    48
  9
$PINSBASE
 10
0.0
 20
0.0
 30
0.0
  9
$PLIMCHECK
 70
     0
  9
$PEXTMIN
 10
1.000000000000000E+20
 20
1.000000000000000E+20
 30
1.000000000000000E+20
  9
$PEXTMAX
 10
-1.000000000000000E+20
 20
-1.000000000000000E+20
 30
-1.000000000000000E+20
  9
$PLIMMIN
 10
0.0
 20
0.0
  9
$PLIMMAX
 10
12.0
 20
9.0
  9
$UNITMODE
 70
     0
  9
$VISRETAIN
 70
     0
  9
$PLINEGEN
 70
     0
  9
$PSLTSCALE
 70
     1
  9
$TREEDEPTH
 70
  3020
  9
$PICKSTYLE
 70
     1
  9
$CMLSTYLE
  2
STANDARD
  9
$CMLJUST
 70
     0
  9
$CMLSCALE
 40
1.0
  9
$PROXYGRAPHICS
 70
     1
  9
$MEASUREMENT
 70
     0
  0
ENDSEC
  0
SECTION
  2
CLASSES
  0
CLASS
  1
DICTIONARYVAR
  2
AcDbDictionaryVar
  3
AutoCAD 2000
 90
        0
280
     0
281
     0
  0
CLASS
  1
HATCH
  2
AcDbHatch
  3
AutoCAD 2000
 90
        0
280
     0
281
     1
  0
CLASS
  1
LWPOLYLINE
  2
AcDbPolyline
  3
AutoCAD 2000
 90
        0
280
     0
281
     1
  0
CLASS
  1
ACDBDICTIONARYWDFLT
  2
AcDbDictionaryWithDefault
  3
AutoCAD 2000
 90
        0
280
     0
281
     0
  0
CLASS
  1
ACDBPLACEHOLDER
  2
AcDbPlaceHolder
  3
AutoCAD 2000
 90
        0
280
     0
281
     0
  0
CLASS
  1
LAYOUT
  2
AcDbLayout
  3
AutoCAD 2000
 90
        0
280
     0
281
     0
  0
CLASS
  1
LONG_TRANSACTION
  2
AcDbLongTransaction
  3
AutoCAD 2000
 90
        0
280
     0
281
     0
  0
CLASS
  1
LWPOLYLINE
  2
AcDbPolyline
  3
AutoCAD 2000
 90
        0
280
     0
281
     1
  0
CLASS
  1
HATCH
  2
AcDbHatch
  3
AutoCAD 2000
 90
        0
280
     0
281
     1
  0
CLASS
  1
XRECORD
  2
AcDbXrecord
  3
AutoCAD 2000
 90
        0
280
     0
281
     0
  0
CLASS
  1
LONG_TRANSACTION
  2
AcDbLongTransaction
  3
AutoCAD 2000
 90
        0
280
     0
281
     0
  0
CLASS
  1
LWPOLYLINE
  2
AcDbPolyline
  3
AutoCAD 2000
 90
        0
280
     0
281
     1
  0
CLASS
  1
HATCH
  2
AcDbHatch
  3
AutoCAD 2000
 90
        0
280
     0
281
     1
  0
CLASS
  1
XRECORD
  2
AcDbXrecord
  3
AutoCAD 2000
 90
        0
280
     0
281
     0
  0
ENDSEC
  0
SECTION
  2
TABLES
  0
TABLE
  2
VPORT
  5
1D
330
0
100
AcDbSymbolTable
 70
     2
  0
VPORT
  5
1CF2
330
1D
100
AcDbSymbolTableRecord
100
AcDbViewportTableRecord
  2
*ACTIVE
 70
     0
 10
0.0
 20
0.0
 11
1.0
 21
1.0
 12
13.73413015746082
 22
8.988627950815008
 13
0.0
 23
0.0
 14
0.025
 24
0.025
 15
0.1
 25
0.1
 16
0.0
 26
0.0
 36
1.0
 17
0.0
 27
0.0
 37
0.0
 40
33.27827433766822
 41
1.437415881561238
 42
50.0
 43
0.0
 44
0.0
 50
0.0
 51
0.0
 71
     0
 72
  5000
 73
     1
 74
     0
 75
     0
 76
     0
 77
     0
 78
     0
  0
ENDTAB
  0
TABLE
  2
LTYPE
  5
18
330
0
100
AcDbSymbolTable
 70
     9
  0
LTYPE
  5
19
330
18
100
AcDbSymbolTableRecord
100
AcDbLinetypeTableRecord
  2
BYBLOCK
 70
     0
  3

 72
    65
 73
     0
 40
0.0
  0
LTYPE
  5
1A
330
18
100
AcDbSymbolTableRecord
100
AcDbLinetypeTableRecord
  2
BYLAYER
 70
     0
  3

 72
    65
 73
     0
 40
0.0
  0
LTYPE
  5
A
330
18
100
AcDbSymbolTableRecord
100
AcDbLinetypeTableRecord
  2
CONTINUOUS
 70
     0
  3
Solid line
 72
    65
 73
     0
 40
0.0
  0
LTYPE
  5
3B
330
18
100
AcDbSymbolTableRecord
100
AcDbLinetypeTableRecord
  2
PHANTOM
 70
     0
  3
_____ _ _ _____ _ _ _____ _ _ _____
 72
    65
 73
     6
 40
0.8
 49
0.45
 74
     0
 49
-0.05
 74
     0
 49
0.1
 74
     0
 49
-0.05
 74
     0
 49
0.1
 74
     0
 49
-0.05
 74
     0
  0
LTYPE
  5
2E
330
18
100
AcDbSymbolTableRecord
100
AcDbLinetypeTableRecord
  2
SLD-SOLID
 70
     0
  3
SolidWorks Line Style
 72
    65
 73
     0
 40
0.0
  0
ENDTAB
  0
TABLE
  2
LAYER
  5
14
330
0
100
AcDbSymbolTable
 70
     8
  0
LAYER
  5
6
330
14
100
AcDbSymbolTableRecord
100
AcDbLayerTableRecord
  2
0
 70
     0
 62
     9
  6
CONTINUOUS
  0
LAYER
  5
39
330
14
100
AcDbSymbolTableRecord
100
AcDbLayerTableRecord
  2
FORMAT
 70
     0
 62
     7
  6
CONTINUOUS
  0
LAYER
  5
116
330
14
100
AcDbSymbolTableRecord
100
AcDbLayerTableRecord
  2
TB-TXT
 70
     0
 62
     3
  6
CONTINUOUS
  0
LAYER
  5
2D
330
14
100
AcDbSymbolTableRecord
100
AcDbLayerTableRecord
  2
PART
 70
     0
 62
     4
  6
CONTINUOUS
  0
LAYER
  5
2B
330
14
100
AcDbSymbolTableRecord
100
AcDbLayerTableRecord
  2
DIM
 70
     0
 62
     1
  6
CONTINUOUS
  0
LAYER
  5
36
330
14
100
AcDbSymbolTableRecord
100
AcDbLayerTableRecord
  2
TXT
 70
     0
 62
     3
  6
CONTINUOUS
  0
LAYER
  5
77C
330
14
100
AcDbSymbolTableRecord
100
AcDbLayerTableRecord
  2
DEFPOINTS
 70
     0
 62
     7
  6
CONTINUOUS
  0
ENDTAB
  0
TABLE
  2
STYLE
  5
15
330
0
100
AcDbSymbolTable
 70
    11
  0
STYLE
  5
16
330
15
100
AcDbSymbolTableRecord
100
AcDbTextStyleTableRecord
  2
STANDARD
 70
     0
 40
0.0
 41
1.0
 50
0.0
 71
     0
 42
0.2
  3
txt
  4

  0
STYLE
  5
26
330
15
100
AcDbSymbolTableRecord
100
AcDbTextStyleTableRecord
  2
ROMANS
 70
     0
 40
0.0
 41
1.0
 50
0.0
 71
     0
 42
4.0
  3
ROMANS.SHX
  4

  0
STYLE
  5
27
330
15
100
AcDbSymbolTableRecord
100
AcDbTextStyleTableRecord
  2
ARIAL
 70
     0
 40
0.0
 41
1.0
 50
0.0
 71
     0
 42
0.12
  3
arial.ttf
  4

1001
ACAD
1000
Arial
1071
       34
  0
STYLE
  5
37
330
15
100
AcDbSymbolTableRecord
100
AcDbTextStyleTableRecord
  2
SLDTEXTSTYLE0
 70
     0
 40
0.0
 41
0.913
 50
0.0
 71
     0
 42
0.2
  3
GOTHIC.TTF
  4

1001
ACAD
1000
Century Gothic
1071
      290
  0
STYLE
  5
3B5
330
15
100
AcDbSymbolTableRecord
100
AcDbTextStyleTableRecord
  2
SLDTEXTSTYLE6
 70
     0
 40
0.0
 41
0.913
 50
0.0
 71
     0
 42
0.2
  3
GOTHIC.TTF
  4

1001
ACAD
1000
Century Gothic
1071
      290
  0
ENDTAB
  0
TABLE
  2
VIEW
  5
1B
330
0
100
AcDbSymbolTable
 70
     0
  0
ENDTAB
  0
TABLE
  2
UCS
  5
1C
330
0
100
AcDbSymbolTable
 70
     0
  0
ENDTAB
  0
TABLE
  2
APPID
  5
1F
330
0
100
AcDbSymbolTable
 70
     1
  0
APPID
  5
20
330
1F
100
AcDbSymbolTableRecord
100
AcDbRegAppTableRecord
  2
ACAD
 70
     0
  0
ENDTAB
  0
TABLE
  2
DIMSTYLE
  5
21
330
0
100
AcDbSymbolTable
 70
     6
  0
DIMSTYLE
105
29
330
21
100
AcDbSymbolTableRecord
100
AcDbDimStyleTableRecord
  2
STANDARD
 70
     0
  3

  4

  5

  6

  7

 40
1.0
 41
0.18
 42
0.0625
 43
0.38
 44
0.18
 45
0.0
 46
0.0
 47
0.0
 48
0.0
140
0.18
141
0.09
142
0.0
143
25.4
144
1.0
145
0.0
146
1.0
147
0.09
 71
     0
 72
     0
 73
     1
 74
     1
 75
     0
 76
     0
 77
     0
 78
     0
170
     0
171
     2
172
     0
173
     0
174
     0
175
     0
176
     0
177
     0
178
     0
270
     2
271
     4
272
     4
273
     2
274
     2
340
16
275
     0
280
     0
281
     0
282
     0
283
     1
284
     0
285
     0
286
     0
287
     3
288
     0
  0
ENDTAB
  0
TABLE
  2
BLOCK_RECORD
  5
1
330
0
100
AcDbSymbolTable
 70
    17
  0
BLOCK_RECORD
  5
2
102
{ACAD_XDICTIONARY
360
3
102
}
330
1
100
AcDbSymbolTableRecord
100
AcDbBlockTableRecord
  2
*MODEL_SPACE
  0
BLOCK_RECORD
  5
E
102
{ACAD_XDICTIONARY
360
F
102
}
330
1
100
AcDbSymbolTableRecord
100
AcDbBlockTableRecord
  2
*PAPER_SPACE
  0
BLOCK_RECORD
  5
117
330
1
100
AcDbSymbolTableRecord
100
AcDbBlockTableRecord
  2
TITLE-BLOCK
  0
BLOCK_RECORD
  5
DE1
330
1
100
AcDbSymbolTableRecord
100
AcDbBlockTableRecord
  2
SW_CENTERMARKSYMBOL_0
  0
BLOCK_RECORD
  5
DEC
330
1
100
AcDbSymbolTableRecord
100
AcDbBlockTableRecord
  2
SW_CENTERMARKSYMBOL_1
  0
ENDTAB
  0
ENDSEC
  0
SECTION
  2
BLOCKS
  0
BLOCK
  5
5
330
2
100
AcDbEntity
  8
0
100
AcDbBlockBegin
  2
*MODEL_SPACE
 70
     0
 10
0.0
 20
0.0
 30
0.0
  3
*MODEL_SPACE
  1

  0
ENDBLK
  5
B
330
2
100
AcDbEntity
  8
0
100
AcDbBlockEnd
  0
BLOCK
  5
11
330
E
100
AcDbEntity
 67
     1
  8
0
100
AcDbBlockBegin
  2
*PAPER_SPACE
 70
     0
 10
0.0
 20
0.0
 30
0.0
  3
*PAPER_SPACE
  1

  0
ENDBLK
  5
12
330
E
100
AcDbEntity
 67
     1
  8
0
100
AcDbBlockEnd
  0
BLOCK
  5
121
330
117
100
AcDbEntity
  8
0
100
AcDbBlockBegin
  2
TITLE-BLOCK
 70
     2
 10
0.0
 20
0.0
 30
0.0
  3
TITLE-BLOCK
  1

  0
ATTDEF
  5
118
330
117
100
AcDbEntity
  8
TB-TXT
100
AcDbText
 10
-5.452069740892156
 20
1.724637434505384
 30
0.0
 40
0.15996
  1

  7
ARIAL
100
AcDbAttributeDefinition
  3
TITLE (LINE 1)
  2
LINE1
 70
     0
  0
ATTDEF
  5
119
330
117
100
AcDbEntity
  8
TB-TXT
100
AcDbText
 10
-5.452069740892156
 20
1.465654577362527
 30
0.0
 40
0.15996
  1

  7
ARIAL
100
AcDbAttributeDefinition
  3
TITLE (LINE 2)
  2
LINE2
 70
     0
  0
ATTDEF
  5
11A
330
117
100
AcDbEntity
  8
TB-TXT
100
AcDbText
 10
-5.452069740892156
 20
1.20667172021967
 30
0.0
 40
0.15996
  1

  7
ARIAL
100
AcDbAttributeDefinition
  3
TITLE (LINE 3)
  2
LINE3
 70
     0
  0
ATTDEF
  5
11B
330
117
100
AcDbEntity
  8
TB-TXT
100
AcDbText
 10
-5.452069740892156
 20
0.9476888630768137
 30
0.0
 40
0.15996
  1

  7
ARIAL
100
AcDbAttributeDefinition
  3
TITLE (LINE 4)
  2
LINE4
 70
     0
  0
ATTDEF
  5
11C
330
117
100
AcDbEntity
  8
TB-TXT
100
AcDbText
 10
-2.607663526262058
 20
0.495823930069566
 30
0.0
 40
0.12
  1

  7
ARIAL
100
AcDbAttributeDefinition
  3
DWG NO.
  2
DWG#
 70
     0
  0
ATTDEF
  5
11D
330
117
100
AcDbEntity
  8
TB-TXT
100
AcDbText
 10
-5.506905230490374
 20
0.1136078675417114
 30
0.0
 40
0.12
  1

  7
ARIAL
100
AcDbAttributeDefinition
  3
FILE NO.
  2
FILE#
 70
     0
  0
ATTDEF
  5
11E
330
117
100
AcDbEntity
  8
TB-TXT
100
AcDbText
 10
-0.2425360425092862
 20
0.4881363695403174
 30
0.0
 40
0.12
  1

  7
ARIAL
 72
     4
 11
-0.2425360425092862
 21
0.4881363695403174
 31
0.0
100
AcDbAttributeDefinition
  3
REV
  2
REV
 70
     0
  0
ATTDEF
  5
11F
330
117
100
AcDbEntity
  8
TB-TXT
100
AcDbText
 10
-4.485055143223689
 20
0.495823930069566
 30
0.0
 40
0.12
  1
FULL
  7
ARIAL
100
AcDbAttributeDefinition
  3
SCALE
  2
SCALE
 70
     0
  0
ATTDEF
  5
120
330
117
100
AcDbEntity
  8
TB-TXT
100
AcDbText
 10
-1.004564496465349
 20
0.0916846763858388
 30
0.0
 40
0.12
  1
1 OF 1
  7
ARIAL
100
AcDbAttributeDefinition
  3
SHEET N0.
  2
SHT#
 70
     0
  0
ENDBLK
  5
122
330
117
100
AcDbEntity
  8
0
100
AcDbBlockEnd
  0
BLOCK
  5
DEA
330
DE1
100
AcDbEntity
  8
0
100
AcDbBlockBegin
  2
SW_CENTERMARKSYMBOL_0
 70
     0
 10
0.0
 20
0.0
 30
0.0
  3
SW_CENTERMARKSYMBOL_0
  1

  0
LINE
  5
DE2
330
DE1
100
AcDbEntity
  8
FORMAT
 62
     0
100
AcDbLine
 10
0.0
 20
0.0
 30
0.0
 11
0.0
 21
0.0999999999999995
 31
0.0
  0
LINE
  5
DE3
330
DE1
100
AcDbEntity
  8
FORMAT
 62
     0
100
AcDbLine
 10
0.0
 20
0.0
 30
0.0
 11
-0.1000000000000006
 21
0.0
 31
0.0
  0
LINE
  5
DE4
330
DE1
100
AcDbEntity
  8
FORMAT
 62
     0
100
AcDbLine
 10
0.0
 20
0.0
 30
0.0
 11
0.0
 21
-0.0999999999999995
 31
0.0
  0
LINE
  5
DE5
330
DE1
100
AcDbEntity
  8
FORMAT
 62
     0
100
AcDbLine
 10
0.0
 20
0.0
 30
0.0
 11
0.1000000000000006
 21
0.0
 31
0.0
  0
LINE
  5
DE6
330
DE1
100
AcDbEntity
  8
FORMAT
 62
     0
100
AcDbLine
 10
0.0
 20
0.2000000000000011
 30
0.0
 11
0.0
 21
0.2359999999996267
 31
0.0
  0
LINE
  5
DE7
330
DE1
100
AcDbEntity
  8
FORMAT
 62
     0
100
AcDbLine
 10
-0.2
 20
0.0
 30
0.0
 11
-0.2359999999996256
 21
0.0
 31
0.0
  0
LINE
  5
DE8
330
DE1
100
AcDbEntity
  8
FORMAT
 62
     0
100
AcDbLine
 10
0.0
 20
-0.199999999999999
 30
0.0
 11
0.0
 21
-0.2359999999996267
 31
0.0
  0
LINE
  5
DE9
330
DE1
100
AcDbEntity
  8
FORMAT
 62
     0
100
AcDbLine
 10
0.2
 20
0.0
 30
0.0
 11
0.2359999999996256
 21
0.0
 31
0.0
  0
ENDBLK
  5
DEB
330
DE1
100
AcDbEntity
  8
0
100
AcDbBlockEnd
  0
BLOCK
  5
DF5
330
DEC
100
AcDbEntity
  8
0
100
AcDbBlockBegin
  2
SW_CENTERMARKSYMBOL_1
 70
     0
 10
0.0
 20
0.0
 30
0.0
  3
SW_CENTERMARKSYMBOL_1
  1

  0
LINE
  5
DED
330
DEC
100
AcDbEntity
  8
FORMAT
 62
     0
100
AcDbLine
 10
0.0
 20
0.0
 30
0.0
 11
0.0
 21
0.0999999999999995
 31
0.0
  0
LINE
  5
DEE
330
DEC
100
AcDbEntity
  8
FORMAT
 62
     0
100
AcDbLine
 10
0.0
 20
0.0
 30
0.0
 11
-0.0999999999999995
 21
0.0
 31
0.0
  0
LINE
  5
DEF
330
DEC
100
AcDbEntity
  8
FORMAT
 62
     0
100
AcDbLine
 10
0.0
 20
0.0
 30
0.0
 11
0.0
 21
-0.1000000000000017
 31
0.0
  0
LINE
  5
DF0
330
DEC
100
AcDbEntity
  8
FORMAT
 62
     0
100
AcDbLine
 10
0.0
 20
0.0
 30
0.0
 11
0.1000000000000017
 21
0.0
 31
0.0
  0
LINE
  5
DF1
330
DEC
100
AcDbEntity
  8
FORMAT
 62
     0
100
AcDbLine
 10
0.0
 20
0.199999999999999
 30
0.0
 11
0.0
 21
0.2359999999996245
 31
0.0
  0
LINE
  5
DF2
330
DEC
100
AcDbEntity
  8
FORMAT
 62
     0
100
AcDbLine
 10
-0.199999999999999
 20
0.0
 30
0.0
 11
-0.2359999999996245
 21
0.0
 31
0.0
  0
LINE
  5
DF3
330
DEC
100
AcDbEntity
  8
FORMAT
 62
     0
100
AcDbLine
 10
0.0
 20
-0.2000000000000011
 30
0.0
 11
0.0
 21
-0.2359999999996267
 31
0.0
  0
LINE
  5
DF4
330
DEC
100
AcDbEntity
  8
FORMAT
 62
     0
100
AcDbLine
 10
0.2000000000000011
 20
0.0
 30
0.0
 11
0.2359999999996267
 21
0.0
 31
0.0
  0
ENDBLK
  5
DF6
330
DEC
100
AcDbEntity
  8
0
100
AcDbBlockEnd
  0
ENDSEC
  0
SECTION
  2
ENTITIES
  0
MTEXT
  5
35
330
2
100
AcDbEntity
  8
TXT
100
AcDbMText
 10
12.48775363406185
 20
4.486629342360419
 30
0.0
 40
0.375
 41
0.0
 71
     1
 72
     1
  1
KINSINGTON LOCK OPTION
  7
SLDTEXTSTYLE0
1001
ACAD
1000
MTEXTBEGIN
1070
    73
1070
     1
1070
    44
1040
1.0
1070
    74
1070
     0
1000
MTEXTEND
  0
LWPOLYLINE
  5
38
330
2
100
AcDbEntity
  8
FORMAT
100
AcDbPolyline
 90
        4
 70
     1
 43
0.0290909090909091
 10
0.5
 20
0.5
 10
33.5
 20
0.5
 10
33.5
 20
21.49999999999999
 10
0.5
 20
21.49999999999999
  0
LWPOLYLINE
  5
3A
330
2
100
AcDbEntity
  8
FORMAT
  6
PHANTOM
 48
10.0
100
AcDbPolyline
 90
        2
 70
     0
 43
0.001
 10
34.0
 20
22.0
 10
0.0
 20
22.0
  0
HATCH
  5
3C
330
2
100
AcDbEntity
  8
FORMAT
  6
CONTINUOUS
100
AcDbHatch
 10
0.0
 20
0.0
 30
0.0
210
0.0
220
0.0
230
1.0
  2
ARROW_TOP
 70
     1
 71
     0
 91
        1
 92
        1
 93
        3
 72
     1
 10
17.11349099999999
 20
21.696573
 11
16.88650799999999
 21
21.696573
 72
     1
 10
16.88650799999999
 20
21.696573
 11
16.99999999999999
 21
21.49999999999999
 72
     1
 10
17.0
 20
21.49999999999999
 11
17.113491
 21
21.696573
 97
        0
 75
     0
 76
     1
 98
        1
 10
0.0
 20
0.0
  0
HATCH
  5
3D
330
2
100
AcDbEntity
  8
FORMAT
  6
CONTINUOUS
100
AcDbHatch
 10
0.0
 20
0.0
 30
0.0
210
0.0
220
0.0
230
1.0
  2
ARROW_BOTTOM
 70
     1
 71
     0
 91
        1
 92
        1
 93
        3
 72
     1
 10
17.11349199999999
 20
0.3034269999999992
 11
16.99999999999999
 21
0.5
 72
     1
 10
17.0
 20
0.5
 11
16.886509
 21
0.3034269999999992
 72
     1
 10
16.88650899999998
 20
0.3034269999999992
 11
17.11349199999999
 21
0.3034269999999992
 97
        0
 75
     0
 76
     1
 98
        1
 10
0.0
 20
0.0
  0
LWPOLYLINE
  5
3E
330
2
100
AcDbEntity
  8
FORMAT
  6
PHANTOM
 48
10.0
100
AcDbPolyline
 90
        2
 70
     0
 43
0.001
 10
0.0
 20
0.0
 10
34.0
 20
0.0
  0
LINE
  5
3F
330
2
100
AcDbEntity
  8
FORMAT
  6
CONTINUOUS
100
AcDbLine
 10
16.88650899999998
 20
0.3034269999999992
 30
0.0
 11
17.11349199999999
 21
0.3034269999999992
 31
0.0
  0
LINE
  5
40
330
2
100
AcDbEntity
  8
FORMAT
  6
CONTINUOUS
100
AcDbLine
 10
17.11349099999999
 20
21.696573
 30
0.0
 11
16.88650799999999
 21
21.696573
 31
0.0
  0
LINE
  5
41
330
2
100
AcDbEntity
  8
FORMAT
  6
CONTINUOUS
100
AcDbLine
 10
17.0
 20
0.5
 30
0.0
 11
16.88650899999998
 21
0.3034269999999992
 31
0.0
  0
LINE
  5
42
330
2
100
AcDbEntity
  8
FORMAT
  6
CONTINUOUS
100
AcDbLine
 10
16.88650799999999
 20
21.696573
 30
0.0
 11
17.0
 21
21.49999999999999
 31
0.0
  0
HATCH
  5
45
330
2
100
AcDbEntity
  8
FORMAT
  6
CONTINUOUS
100
AcDbHatch
 10
0.0
 20
0.0
 30
0.0
210
0.0
220
0.0
230
1.0
  2
ARROW_LEFT
 70
     1
 71
     0
 91
        1
 92
        1
 93
        3
 72
     1
 10
0.3034269999999992
 20
10.88650799999999
 11
0.4999999999999992
 21
10.99999999999999
 72
     1
 10
0.5
 20
10.99999999999999
 11
0.3034270000000001
 21
11.11349099999999
 72
     1
 10
0.3034269999999992
 20
11.11349099999999
 11
0.3034269999999992
 21
10.88650799999999
 97
        0
 75
     0
 76
     1
 98
        1
 10
-0.25
 20
0.0
  0
LWPOLYLINE
  5
46
330
2
100
AcDbEntity
  8
FORMAT
  6
PHANTOM
 48
10.0
100
AcDbPolyline
 90
        2
 70
     0
 43
0.001
 10
0.0
 20
22.0
 10
0.0
 20
0.0
  0
LINE
  5
47
330
2
100
AcDbEntity
  8
FORMAT
  6
CONTINUOUS
100
AcDbLine
 10
0.3034269999999992
 20
11.11349099999999
 30
0.0
 11
0.3034269999999992
 21
10.88650799999999
 31
0.0
  0
LINE
  5
48
330
2
100
AcDbEntity
  8
FORMAT
  6
CONTINUOUS
100
AcDbLine
 10
0.3034269999999992
 20
10.88650799999999
 30
0.0
 11
0.5
 21
11.0
 31
0.0
  0
TEXT
  5
4A
330
2
100
AcDbEntity
  8
FORMAT
  6
CONTINUOUS
100
AcDbText
 10
6.255030695770805
 20
0.1499999999999986
 30
0.0
 40
0.25
  1
B
  7
ARIAL
 72
     1
 11
6.375
 21
0.1499999999999986
 31
0.0
100
AcDbText
  0
TEXT
  5
4B
330
2
100
AcDbEntity
  8
FORMAT
  6
CONTINUOUS
100
AcDbText
 10
0.1226466575716206
 20
2.625
 30
0.0
 40
0.25
  1
4
  7
ARIAL
 72
     2
 11
0.2999999999999971
 21
2.625
 31
0.0
100
AcDbText
  0
TEXT
  5
4C
330
2
100
AcDbEntity
  8
FORMAT
  6
CONTINUOUS
100
AcDbText
 10
2.008526603001364
 20
0.1499999999999986
 30
0.0
 40
0.25
  1
A
  7
ARIAL
 72
     1
 11
2.125
 21
0.1499999999999986
 31
0.0
100
AcDbText
  0
LINE
  5
4D
330
2
100
AcDbEntity
  8
FORMAT
  6
CONTINUOUS
100
AcDbLine
 10
4.25
 20
0.0
 30
0.0
 11
4.25
 21
0.5
 31
0.0
  0
LINE
  5
4E
330
2
100
AcDbEntity
  8
FORMAT
  6
CONTINUOUS
100
AcDbLine
 10
0.0
 20
5.5
 30
0.0
 11
0.5
 21
5.5
 31
0.0
  0
TEXT
  5
4F
330
2
100
AcDbEntity
  8
FORMAT
  6
CONTINUOUS
100
AcDbText
 10
0.1216234652114569
 20
8.125
 30
0.0
 40
0.25
  1
3
  7
ARIAL
 72
     2
 11
0.2999999999999971
 21
8.125
 31
0.0
100
AcDbText
  0
LINE
  5
6E
330
2
100
AcDbEntity
  8
FORMAT
  6
CONTINUOUS
100
AcDbLine
 10
8.5
 20
0.0
 30
0.0
 11
8.5
 21
0.5
 31
0.0
  0
TEXT
  5
6F
330
2
100
AcDbEntity
  8
FORMAT
  6
CONTINUOUS
100
AcDbText
 10
10.49710095497953
 20
0.1499999999999986
 30
0.0
 40
0.25
  1
C
  7
ARIAL
 72
     1
 11
10.625
 21
0.1499999999999986
 31
0.0
100
AcDbText
  0
LINE
  5
70
330
2
100
AcDbEntity
  8
FORMAT
  6
CONTINUOUS
100
AcDbLine
 10
12.75
 20
0.0
 30
0.0
 11
12.75
 21
0.5
 31
0.0
  0
TEXT
  5
71
330
2
100
AcDbEntity
  8
FORMAT
  6
CONTINUOUS
100
AcDbText
 10
14.74471350613915
 20
0.1499999999999986
 30
0.0
 40
0.25
  1
D
  7
ARIAL
 72
     1
 11
14.875
 21
0.1499999999999986
 31
0.0
100
AcDbText
  0
TEXT
  5
76
330
2
100
AcDbEntity
  8
FORMAT
  6
CONTINUOUS
100
AcDbText
 10
6.255030695770805
 20
21.59999999999999
 30
0.0
 40
0.25
  1
B
  7
ARIAL
 72
     1
 11
6.375
 21
21.59999999999999
 31
0.0
100
AcDbText
  0
LINE
  5
79
330
2
100
AcDbEntity
  8
FORMAT
  6
CONTINUOUS
100
AcDbLine
 10
0.5
 20
11.0
 30
0.0
 11
0.3034269999999992
 21
11.11349099999999
 31
0.0
  0
LINE
  5
7A
330
2
100
AcDbEntity
  8
FORMAT
  6
CONTINUOUS
100
AcDbLine
 10
0.0
 20
11.0
 30
0.0
 11
0.5
 21
11.0
 31
0.0
  0
TEXT
  5
7B
330
2
100
AcDbEntity
  8
FORMAT
  6
CONTINUOUS
100
AcDbText
 10
0.1241814461118662
 20
13.625
 30
0.0
 40
0.25
  1
2
  7
ARIAL
 72
     2
 11
0.2999999999999971
 21
13.625
 31
0.0
100
AcDbText
  0
LINE
  5
7C
330
2
100
AcDbEntity
  8
FORMAT
  6
CONTINUOUS
100
AcDbLine
 10
0.0
 20
16.5
 30
0.0
 11
0.5
 21
16.5
 31
0.0
  0
TEXT
  5
9B
330
2
100
AcDbEntity
  8
FORMAT
  6
CONTINUOUS
100
AcDbText
 10
0.1698840381991786
 20
19.125
 30
0.0
 40
0.25
  1
1
  7
ARIAL
 72
     2
 11
0.2999999999999971
 21
19.125
 31
0.0
100
AcDbText
  0
TEXT
  5
A1
330
2
100
AcDbEntity
  8
FORMAT
  6
CONTINUOUS
100
AcDbText
 10
2.008526603001364
 20
21.59999999999999
 30
0.0
 40
0.25
  1
A
  7
ARIAL
 72
     1
 11
2.125
 21
21.59999999999999
 31
0.0
100
AcDbText
  0
LINE
  5
A2
330
2
100
AcDbEntity
  8
FORMAT
  6
CONTINUOUS
100
AcDbLine
 10
4.25
 20
21.49999999999999
 30
0.0
 11
4.25
 21
22.0
 31
0.0
  0
LINE
  5
100
330
2
100
AcDbEntity
  8
FORMAT
  6
CONTINUOUS
100
AcDbLine
 10
8.5
 20
21.49999999999999
 30
0.0
 11
8.5
 21
22.0
 31
0.0
  0
TEXT
  5
101
330
2
100
AcDbEntity
  8
FORMAT
  6
CONTINUOUS
100
AcDbText
 10
10.49710095497953
 20
21.59999999999999
 30
0.0
 40
0.25
  1
C
  7
ARIAL
 72
     1
 11
10.625
 21
21.59999999999999
 31
0.0
100
AcDbText
  0
LINE
  5
102
330
2
100
AcDbEntity
  8
FORMAT
  6
CONTINUOUS
100
AcDbLine
 10
12.75
 20
21.49999999999999
 30
0.0
 11
12.75
 21
22.0
 31
0.0
  0
TEXT
  5
103
330
2
100
AcDbEntity
  8
FORMAT
  6
CONTINUOUS
100
AcDbText
 10
14.74471350613915
 20
21.59999999999999
 30
0.0
 40
0.25
  1
D
  7
ARIAL
 72
     1
 11
14.875
 21
21.59999999999999
 31
0.0
100
AcDbText
  0
LWPOLYLINE
  5
108
330
2
100
AcDbEntity
  8
FORMAT
  6
PHANTOM
 48
10.0
100
AcDbPolyline
 90
        2
 70
     0
 43
0.001
 10
34.0
 20
0.0
 10
34.0
 20
22.0
  0
HATCH
  5
109
330
2
100
AcDbEntity
  8
FORMAT
  6
CONTINUOUS
100
AcDbHatch
 10
0.0
 20
0.0
 30
0.0
210
0.0
220
0.0
230
1.0
  2
ARROW_RIGHT
 70
     1
 71
     0
 91
        1
 92
        1
 93
        3
 72
     1
 10
33.5
 20
10.99999999999999
 11
33.696573
 21
10.88650899999999
 72
     1
 10
33.696573
 20
10.88650899999999
 11
33.696573
 21
11.11349199999999
 72
     1
 10
33.696573
 20
11.11349199999999
 11
33.5
 21
10.99999999999999
 97
        0
 75
     0
 76
     1
 98
        1
 10
0.25
 20
0.0
  0
LINE
  5
10A
330
2
100
AcDbEntity
  8
FORMAT
  6
CONTINUOUS
100
AcDbLine
 10
33.696573
 20
10.88650899999999
 30
0.0
 11
33.696573
 21
11.113492
 31
0.0
  0
LINE
  5
10B
330
2
100
AcDbEntity
  8
FORMAT
  6
CONTINUOUS
100
AcDbLine
 10
33.5
 20
11.0
 30
0.0
 11
33.696573
 21
10.88650899999999
 31
0.0
  0
INSERT
  5
10C
330
2
100
AcDbEntity
  8
TB-TXT
100
AcDbBlockReference
 66
     1
  2
TITLE-BLOCK
 10
32.60259009549838
 20
0.4871808286051192
 30
0.0
 41
0.9696969696969773
 42
0.9696969696969773
 43
0.9696969696969773
  0
ATTRIB
  5
10D
330
10C
100
AcDbEntity
  8
TB-TXT
100
AcDbText
 10
27.31573458917869
 20
2.159556522670953
 30
0.0
 40
0.17
  1
PICTORIAL, 
  7
ARIAL
100
AcDbAttribute
  2
LINE1
 70
     0
  0
ATTRIB
  5
10E
330
10C
100
AcDbEntity
  8
TB-TXT
100
AcDbText
 10
27.31573458917869
 20
1.908421630896071
 30
0.0
 40
0.17
  1
MXA-STMK-07, SECURE TABLE MOUNT KIT, 
  7
ARIAL
100
AcDbAttribute
  2
LINE2
 70
     0
  0
ATTRIB
  5
10F
330
10C
100
AcDbEntity
  8
TB-TXT
100
AcDbText
 10
27.31573458917869
 20
1.657286739121175
 30
0.0
 40
0.17
  1
MODERO X 7.0 
  7
ARIAL
100
AcDbAttribute
  2
LINE3
 70
     0
  0
ATTRIB
  5
110
330
10C
100
AcDbEntity
  8
TB-TXT
100
AcDbText
 10
27.31573458917869
 20
1.406151847346279
 30
0.0
 40
0.17
  1
 
  7
ARIAL
100
AcDbAttribute
  2
LINE4
 70
     0
  0
ATTRIB
  5
111
330
10C
100
AcDbEntity
  8
TB-TXT
100
AcDbText
 10
28.67240744538594
 20
0.9393484331170611
 30
0.0
 40
0.17
  1
95-5968-67
  7
ARIAL
100
AcDbAttribute
  2
DWG#
 70
     0
  0
ATTRIB
  5
112
330
10C
100
AcDbEntity
  8
TB-TXT
100
AcDbText
 10
29.67184955913904
 20
0.6131212011589185
 30
0.0
 40
0.1163636363636373
  1
 
  7
ARIAL
100
AcDbAttribute
  2
FILE#
 70
     0
  0
ATTRIB
  5
113
330
10C
100
AcDbEntity
  8
TB-TXT
100
AcDbText
 10
33.15909260795084
 20
0.8971920186209283
 30
0.0
 40
0.17
  1
A
  7
ARIAL
 72
     4
 11
33.23829451790992
 21
0.9821920186209283
 31
0.0
100
AcDbAttribute
  2
REV
 70
     0
  0
ATTRIB
  5
114
330
10C
100
AcDbEntity
  8
TB-TXT
100
AcDbText
 10
27.7341555078267
 20
0.5791391671473889
 30
0.0
 40
0.17
  1
1/1
  7
ARIAL
100
AcDbAttribute
  2
SCALE
 70
     0
  0
ATTRIB
  5
115
330
10C
100
AcDbEntity
  8
TB-TXT
100
AcDbText
 10
32.56139344279876
 20
0.585935475765524
 30
0.0
 40
0.17
  1
2 OF 2
  7
ARIAL
100
AcDbAttribute
  2
SHT#
 70
     0
  0
SEQEND
  5
123
330
10C
100
AcDbEntity
  8
TB-TXT
  0
HATCH
  5
124
330
2
100
AcDbEntity
  8
FORMAT
100
AcDbHatch
 10
0.0
 20
0.0
 30
0.0
210
0.0
220
0.0
230
1.0
  2
SOLID
 70
     1
 71
     1
 91
        5
 92
        1
 93
        4
 72
     1
 10
27.89524244557755
 20
3.009898395795563
 11
27.99604627712901
 21
2.75012602185323
 72
     2
 10
28.42523413703466
 20
0.4867236379588187
 40
2.303734483509177
 50
100.7369884767685
 51
115.8445848643794
 73
     1
 72
     1
 10
27.42096358594918
 20
2.560038189765119
 11
27.72221440253551
 21
3.009898395795563
 72
     1
 10
27.72221440253551
 20
3.009898395795563
 11
27.89524244557755
 21
3.009898395795563
 97
        1
330
125
 92
       16
 93
        4
 72
     1
 10
27.82625138631124
 20
2.746301120733491
 11
27.82647137730056
 21
2.746087929262984
 72
     1
 10
27.82647137730056
 20
2.746087929262984
 11
27.78730301109048
 21
2.857448970448498
 72
     1
 10
27.78730301109048
 20
2.857448970448498
 11
27.71638256267897
 21
2.746087929262984
 72
     1
 10
27.71638256267897
 20
2.746087929262984
 11
27.82625138631124
 21
2.746301120733491
 97
        1
330
173
 92
        1
 93
        7
 72
     1
 10
27.85379733476327
 20
2.669165529635449
 11
27.89252030058969
 21
2.560038189765117
 72
     1
 10
27.89252030058969
 20
2.560038189765117
 11
28.22439509774364
 21
2.560038189765117
 72
     1
 10
28.22439509774364
 20
2.560038189765117
 11
28.2534481466875
 21
2.734356483428371
 72
     2
 10
28.84418016139653
 20
-2.211762160162989
 40
4.98127031485787
 50
96.81077116038439
 51
98.7658188097698
 73
     1
 72
     1
 10
28.08505320817211
 20
2.711324292315012
 11
28.06284416794594
 21
2.577987260808255
 72
     1
 10
28.06284416794594
 20
2.577987260808255
 11
28.01571075607803
 21
2.699450484025899
 72
     2
 10
28.4520446382265
 20
-0.0812992519853255
 40
2.814774653686729
 50
98.91769894924955
 51
102.2711423007092
 73
     1
 97
        1
330
174
 92
        1
 93
       13
 72
     1
 10
29.38348614891178
 20
3.009898395795563
 11
29.19279654184188
 21
2.849663121732444
 72
     2
 10
29.75206810599112
 20
-32.64549153385557
 40
35.49956040159622
 50
90.90269359832781
 51
91.4276731912744
 73
     1
 72
     1
 10
28.86759586955777
 20
2.843048835812439
 11
28.73192948971407
 21
2.999019518033357
 72
     1
 10
28.73192948971407
 20
2.999019518033357
 11
28.70471702376885
 21
2.835744722362004
 72
     2
 10
29.00055122292874
 20
-2.744979632338445
 40
5.588559939424407
 50
93.03440911951204
 51
99.32746877910854
 73
     1
 72
     1
 10
28.09477463227537
 20
2.769689076148374
 11
28.13478466086577
 21
3.009898395795563
 72
     1
 10
28.13478466086577
 20
3.009898395795563
 11
28.27250800784915
 21
3.009898395795563
 72
     1
 10
28.27250800784915
 20
3.009898395795563
 11
28.40846516441128
 21
2.86109542429461
 72
     1
 10
28.40846516441128
 20
2.86109542429461
 11
28.59422335947938
 21
3.009898395795563
 72
     1
 10
28.59422335947938
 20
3.009898395795563
 11
28.93608238153996
 21
3.009898395795563
 72
     1
 10
28.93608238153996
 20
3.009898395795563
 11
29.03481323325339
 21
2.896391141339901
 72
     1
 10
29.03481323325339
 20
2.896391141339901
 11
29.16989368840465
 21
3.009898395795563
 72
     1
 10
29.16989368840465
 20
3.009898395795563
 11
29.38348614891178
 21
3.009898395795563
 97
        1
330
171
 92
        1
 93
       10
 72
     1
 10
28.84812546490569
 20
2.560038189765117
 11
29.00159362169353
 21
2.6889965139272
 72
     1
 10
29.00159362169353
 20
2.6889965139272
 11
29.11376411899891
 21
2.560038189765117
 72
     1
 10
29.11376411899891
 20
2.560038189765117
 11
29.32737967356207
 21
2.560038189765117
 72
     1
 10
29.32737967356207
 20
2.560038189765117
 11
29.13999480838106
 21
2.775467725762407
 72
     2
 10
29.05510266338243
 20
-3.190012262200435
 40
5.966083988938442
 50
89.18470377236852
 51
91.59664224690866
 73
     1
 72
     1
 10
28.88886932108983
 20
2.773755392477088
 11
28.66271243457582
 21
2.58371718720382
 72
     1
 10
28.66271243457582
 20
2.58371718720382
 11
28.69329665119762
 21
2.76722248693467
 72
     2
 10
28.84418016139635
 20
-2.211762160162928
 40
4.981270314857797
 50
91.73576423011793
 51
93.6434845729463
 73
     1
 72
     1
 10
28.52763063088184
 20
2.75943994238878
 11
28.49439700544456
 21
2.560038189765117
 72
     1
 10
28.49439700544456
 20
2.560038189765117
 11
28.84812546490569
 21
2.560038189765117
 97
        1
330
172
 75
     0
 76
     1
 98
        1
 10
27.40349142259076
 20
2.321955963782295
  0
LWPOLYLINE
  5
125
102
{ACAD_REACTORS
330
124
102
}
330
2
100
AcDbEntity
  8
FORMAT
100
AcDbPolyline
 90
        4
 70
     1
 43
0.0
 10
27.89524244557755
 20
3.009898395795563
 10
27.99604627712901
 20
2.75012602185323
 42
0.0660149720166298
 10
27.42096358594918
 20
2.560038189765119
 10
27.72221440253551
 20
3.009898395795563
  0
TEXT
  5
126
330
2
100
AcDbEntity
  8
FORMAT
100
AcDbText
 10
27.17012525851521
 20
0.6672081632976301
 30
0.0
 40
0.1088
  1
SCALE
  7
ARIAL
100
AcDbText
  0
LWPOLYLINE
  5
127
330
2
100
AcDbEntity
  8
FORMAT
100
AcDbPolyline
 90
        3
 70
     0
 43
0.02
 10
24.07707447757575
 20
0.5000000047629812
 10
24.07707451602714
 20
3.113341425599678
 10
33.5
 20
3.113341435521647
  0
LWPOLYLINE
  5
128
330
2
100
AcDbEntity
  8
FORMAT
100
AcDbPolyline
 90
        2
 70
     0
 43
0.02
 10
27.12431506274814
 20
2.441891417892239
 10
33.5
 20
2.441891417892239
  0
LWPOLYLINE
  5
129
330
2
100
AcDbEntity
  8
FORMAT
100
AcDbPolyline
 90
        2
 70
     0
 43
0.02
 10
27.12431506274814
 20
1.272892106623777
 10
33.5
 20
1.272892106623777
  0
LWPOLYLINE
  5
12A
330
2
100
AcDbEntity
  8
FORMAT
100
AcDbPolyline
 90
        2
 70
     0
 43
0.02
 10
27.12431506274814
 20
0.8236485696487072
 10
33.5
 20
0.8236485696487072
  0
LWPOLYLINE
  5
12B
330
2
100
AcDbEntity
  8
FORMAT
100
AcDbPolyline
 90
        2
 70
     0
 43
0.02
 10
27.61703378072079
 20
1.272892106623777
 10
27.61703378072079
 20
0.8236485696487072
  0
TEXT
  5
12C
330
2
100
AcDbEntity
  8
FORMAT
  6
CONTINUOUS
100
AcDbText
 10
27.49079126875852
 20
0.1499999999999986
 30
0.0
 40
0.25
  1
G
  7
ARIAL
 72
     1
 11
27.625
 21
0.1499999999999986
 31
0.0
100
AcDbText
  0
LINE
  5
12D
330
2
100
AcDbEntity
  8
FORMAT
  6
CONTINUOUS
100
AcDbLine
 10
17.0
 20
0.0
 30
0.0
 11
17.0
 21
0.5
 31
0.0
  0
LINE
  5
12E
330
2
100
AcDbEntity
  8
FORMAT
  6
CONTINUOUS
100
AcDbLine
 10
17.11349199999999
 20
0.3034269999999992
 30
0.0
 11
17.0
 21
0.5
 31
0.0
  0
TEXT
  5
12F
330
2
100
AcDbEntity
  8
FORMAT
  6
CONTINUOUS
100
AcDbText
 10
19.00409276944065
 20
0.1499999999999986
 30
0.0
 40
0.25
  1
E
  7
ARIAL
 72
     1
 11
19.125
 21
0.1499999999999986
 31
0.0
100
AcDbText
  0
LINE
  5
130
330
2
100
AcDbEntity
  8
FORMAT
  6
CONTINUOUS
100
AcDbLine
 10
21.25
 20
0.0
 30
0.0
 11
21.25
 21
0.5
 31
0.0
  0
TEXT
  5
131
330
2
100
AcDbEntity
  8
FORMAT
100
AcDbText
 10
24.27837190414677
 20
0.6510078951555514
 30
0.0
 40
0.131328
  1
written permission.
  7
ARIAL
100
AcDbText
  0
LWPOLYLINE
  5
132
330
2
100
AcDbEntity
  8
FORMAT
100
AcDbPolyline
 90
        2
 70
     0
 43
0.02
 10
27.12431506274814
 20
3.113341435521647
 10
27.12431506274814
 20
0.5
  0
TEXT
  5
133
330
2
100
AcDbEntity
  8
FORMAT
  6
CONTINUOUS
100
AcDbText
 10
23.26202251023192
 20
0.1499999999999986
 30
0.0
 40
0.25
  1
F
  7
ARIAL
 72
     1
 11
23.37499999999999
 21
0.1499999999999986
 31
0.0
100
AcDbText
  0
LINE
  5
134
330
2
100
AcDbEntity
  8
FORMAT
  6
CONTINUOUS
100
AcDbLine
 10
25.5
 20
0.0
 30
0.0
 11
25.5
 21
0.5
 31
0.0
  0
TEXT
  5
135
330
2
100
AcDbEntity
  8
FORMAT
100
AcDbText
 10
24.26672617426953
 20
2.408766585469344
 30
0.0
 40
0.131328
  1
All information contained herein
  7
ARIAL
100
AcDbText
  0
TEXT
  5
136
330
2
100
AcDbEntity
  8
FORMAT
100
AcDbText
 10
24.26699492188211
 20
1.091007458593473
 30
0.0
 40
0.131328
  1
reproduced, or used as the basis
  7
ARIAL
100
AcDbText
  0
TEXT
  5
137
330
2
100
AcDbEntity
  8
FORMAT
100
AcDbText
 10
24.27720733115904
 20
0.8698878951555641
 30
0.0
 40
0.131328
  1
for manufacture or sale without
  7
ARIAL
100
AcDbText
  0
TEXT
  5
138
330
2
100
AcDbEntity
  8
FORMAT
100
AcDbText
 10
24.27460943757102
 20
1.309887458593486
 30
0.0
 40
0.131328
  1
This drawing may not be copied,
  7
ARIAL
100
AcDbText
  0
TEXT
  5
139
330
2
100
AcDbEntity
  8
FORMAT
100
AcDbText
 10
24.26681575680705
 20
1.528767458593485
 30
0.0
 40
0.131328
  1
has been previously established.
  7
ARIAL
100
AcDbText
  0
TEXT
  5
13A
330
2
100
AcDbEntity
  8
FORMAT
100
AcDbText
 10
24.27568442802122
 20
1.747647458593483
 30
0.0
 40
0.131328
  1
to the extent the information
  7
ARIAL
100
AcDbText
  0
TEXT
  5
13B
330
2
100
AcDbEntity
  8
FORMAT
100
AcDbText
 10
24.27568442802122
 20
2.189886585469331
 30
0.0
 40
0.131328
  1
that is not generally known 
  7
ARIAL
100
AcDbText
  0
TEXT
  5
13C
330
2
100
AcDbEntity
  8
FORMAT
100
AcDbText
 10
24.26681575680705
 20
2.629886148907267
 30
0.0
 40
0.131328
  1
property of AMX LLC.
  7
ARIAL
100
AcDbText
  0
TEXT
  5
13D
330
2
100
AcDbEntity
  8
FORMAT
100
AcDbText
 10
24.26493452351919
 20
2.851005712345191
 30
0.0
 40
0.131328
  1
NOTICE:   This drawing is the 
  7
ARIAL
100
AcDbText
  0
TEXT
  5
13E
330
2
100
AcDbEntity
  8
FORMAT
100
AcDbText
 10
24.27326569950829
 20
1.968767022031421
 30
0.0
 40
0.131328
  1
shall be confidential except
  7
ARIAL
100
AcDbText
  0
TEXT
  5
13F
330
2
100
AcDbEntity
  8
FORMAT
100
AcDbText
 10
27.18997948867459
 20
1.112168497683782
 30
0.0
 40
0.1088
  1
SIZE
  7
ARIAL
100
AcDbText
  0
TEXT
  5
140
330
2
100
AcDbEntity
  8
FORMAT
100
AcDbText
 10
27.2922243621056
 20
0.8984635216691145
 30
0.0
 40
0.16
  1
D
  7
ARIAL
100
AcDbText
  0
TEXT
  5
168
330
2
100
AcDbEntity
  8
FORMAT
  6
BYBLOCK
100
AcDbText
 10
31.4299650373904
 20
2.556087548643318
 30
0.0
 40
0.1035906873199564
  1
RICHARDSON, TX 75082
 41
1.018884921437547
  7
ARIAL
100
AcDbText
  0
TEXT
  5
169
330
2
100
AcDbEntity
  8
FORMAT
  6
BYBLOCK
100
AcDbText
 10
31.43486788649962
 20
2.733670985046202
 30
0.0
 40
0.1035906873199564
  1
3000 RESEARCH DRIVE
 41
1.011836867459718
  7
ARIAL
100
AcDbText
  0
TEXT
  5
16A
330
2
100
AcDbEntity
  8
FORMAT
100
AcDbText
 10
31.85237387102683
 20
0.6672081632976301
 30
0.0
 40
0.1163636363636364
  1
SHEET
  7
ARIAL
100
AcDbText
  0
LWPOLYLINE
  5
16B
330
2
100
AcDbEntity
  8
FORMAT
100
AcDbPolyline
 90
        2
 70
     0
 43
0.02
 10
31.81895966809327
 20
0.8236485696487072
 10
31.81895966809327
 20
0.5
  0
LWPOLYLINE
  5
16C
330
2
100
AcDbEntity
  8
FORMAT
100
AcDbPolyline
 90
        2
 70
     0
 43
0.02
 10
28.42063372699124
 20
0.8236485696487072
 10
28.42063372699124
 20
0.5
  0
TEXT
  5
16D
330
2
100
AcDbEntity
  8
FORMAT
100
AcDbText
 10
28.46644392275831
 20
0.6672081632976301
 30
0.0
 40
0.1088
  1
ACAD FILE NO.
  7
ARIAL
100
AcDbText
  0
LINE
  5
16E
330
2
100
AcDbEntity
  8
FORMAT
  6
CONTINUOUS
100
AcDbLine
 10
29.75
 20
0.0
 30
0.0
 11
29.75
 21
0.5
 31
0.0
  0
TEXT
  5
16F
330
2
100
AcDbEntity
  8
FORMAT
  6
CONTINUOUS
100
AcDbText
 10
31.74897680763983
 20
0.1499999999999986
 30
0.0
 40
0.25
  1
H
  7
ARIAL
 72
     1
 11
31.875
 21
0.1499999999999986
 31
0.0
100
AcDbText
  0
TEXT
  5
170
330
2
100
AcDbEntity
  8
FORMAT
100
AcDbText
 10
27.68095276043268
 20
1.112168497683782
 30
0.0
 40
0.1088
  1
DWG. NO.
  7
ARIAL
100
AcDbText
  0
LWPOLYLINE
  5
171
102
{ACAD_REACTORS
330
124
102
}
330
2
100
AcDbEntity
  8
FORMAT
100
AcDbPolyline
 90
       13
 70
     1
 43
0.0
 10
29.38348614891178
 20
3.009898395795563
 10
29.19279654184188
 20
2.849663121732444
 42
0.0022906596071181
 10
28.86759586955777
 20
2.843048835812439
 10
28.73192948971407
 20
2.999019518033357
 10
28.70471702376885
 20
2.835744722362004
 42
0.0274655559228494
 10
28.09477463227537
 20
2.769689076148374
 10
28.13478466086577
 20
3.009898395795563
 10
28.27250800784915
 20
3.009898395795563
 10
28.40846516441128
 20
2.86109542429461
 10
28.59422335947938
 20
3.009898395795563
 10
28.93608238153996
 20
3.009898395795563
 10
29.03481323325339
 20
2.896391141339901
 10
29.16989368840465
 20
3.009898395795563
  0
LWPOLYLINE
  5
172
102
{ACAD_REACTORS
330
124
102
}
330
2
100
AcDbEntity
  8
FORMAT
100
AcDbPolyline
 90
       10
 70
     1
 43
0.0
 10
28.84812546490569
 20
2.560038189765117
 10
29.00159362169353
 20
2.6889965139272
 10
29.11376411899891
 20
2.560038189765117
 10
29.32737967356207
 20
2.560038189765117
 10
29.13999480838106
 20
2.775467725762407
 42
0.0105244554857435
 10
28.88886932108983
 20
2.773755392477088
 10
28.66271243457582
 20
2.58371718720382
 10
28.69329665119762
 20
2.76722248693467
 42
0.0083241925565687
 10
28.52763063088184
 20
2.75943994238878
 10
28.49439700544456
 20
2.560038189765117
  0
LWPOLYLINE
  5
173
102
{ACAD_REACTORS
330
124
102
}
330
2
100
AcDbEntity
  8
FORMAT
100
AcDbPolyline
 90
        4
 70
     1
 43
0.0
 10
27.82625138631124
 20
2.746301120733491
 10
27.82647137730056
 20
2.746087929262984
 10
27.78730301109048
 20
2.857448970448498
 10
27.71638256267897
 20
2.746087929262984
  0
LWPOLYLINE
  5
174
102
{ACAD_REACTORS
330
124
102
}
330
2
100
AcDbEntity
  8
FORMAT
100
AcDbPolyline
 90
        7
 70
     1
 43
0.0
 10
27.85379733476327
 20
2.669165529635449
 10
27.89252030058969
 20
2.560038189765117
 10
28.22439509774364
 20
2.560038189765117
 10
28.2534481466875
 20
2.734356483428371
 42
0.0085307115550227
 10
28.08505320817211
 20
2.711324292315012
 10
28.06284416794594
 20
2.577987260808255
 10
28.01571075607803
 20
2.699450484025899
 42
0.014633201278307
  0
TEXT
  5
175
330
2
100
AcDbEntity
  8
FORMAT
100
AcDbText
 10
29.37565033606138
 20
2.561556359369892
 30
0.0
 40
0.0583271326082317
  1
TM
  7
ARIAL
 11
29.37565033606138
 21
2.590719925674008
 31
0.0
100
AcDbText
 73
     2
  0
TEXT
  5
176
330
2
100
AcDbEntity
  8
FORMAT
  6
BYBLOCK
100
AcDbText
 10
31.43486788649962
 20
2.911254421449086
 30
0.0
 40
0.1035906873199564
  1
AMX LLC
 41
1.011836867459718
  7
ARIAL
100
AcDbText
  0
TEXT
  5
177
330
2
100
AcDbEntity
  8
FORMAT
100
AcDbText
 10
33.07693135410495
 20
1.112168497683782
 30
0.0
 40
0.1088
  1
REV.
  7
ARIAL
 72
     1
 11
33.25367569244056
 21
1.112168497683782
 31
0.0
100
AcDbText
  0
LWPOLYLINE
  5
178
330
2
100
AcDbEntity
  8
FORMAT
100
AcDbPolyline
 90
        2
 70
     0
 43
0.02
 10
32.94931437403055
 20
1.272892106623777
 10
32.94931437403055
 20
0.8236485696487072
  0
TEXT
  5
179
330
2
100
AcDbEntity
  8
FORMAT
  6
CONTINUOUS
100
AcDbText
 10
33.64274376044011
 20
2.625
 30
0.0
 40
0.25
  1
4
  7
ARIAL
 72
     2
 11
33.82009710286848
 21
2.625
 31
0.0
100
AcDbText
  0
LINE
  5
17A
330
2
100
AcDbEntity
  8
FORMAT
  6
CONTINUOUS
100
AcDbLine
 10
33.5
 20
5.5
 30
0.0
 11
34.0
 21
5.5
 31
0.0
  0
TEXT
  5
17B
330
2
100
AcDbEntity
  8
FORMAT
  6
CONTINUOUS
100
AcDbText
 10
33.64172056807994
 20
8.125
 30
0.0
 40
0.25
  1
3
  7
ARIAL
 72
     2
 11
33.82009710286848
 21
8.125
 31
0.0
100
AcDbText
  0
TEXT
  5
17C
330
2
100
AcDbEntity
  8
FORMAT
  6
CONTINUOUS
100
AcDbText
 10
27.49079126875852
 20
21.59999999999999
 30
0.0
 40
0.25
  1
G
  7
ARIAL
 72
     1
 11
27.625
 21
21.59999999999999
 31
0.0
100
AcDbText
  0
LINE
  5
1BF
330
2
100
AcDbEntity
  8
FORMAT
  6
CONTINUOUS
100
AcDbLine
 10
17.0
 20
21.49999999999999
 30
0.0
 11
17.0
 21
22.0
 31
0.0
  0
LINE
  5
1C0
330
2
100
AcDbEntity
  8
FORMAT
  6
CONTINUOUS
100
AcDbLine
 10
17.0
 20
21.49999999999999
 30
0.0
 11
17.11349099999999
 21
21.696573
 31
0.0
  0
TEXT
  5
1C1
330
2
100
AcDbEntity
  8
FORMAT
  6
CONTINUOUS
100
AcDbText
 10
19.00409276944065
 20
21.59999999999999
 30
0.0
 40
0.25
  1
E
  7
ARIAL
 72
     1
 11
19.125
 21
21.59999999999999
 31
0.0
100
AcDbText
  0
LINE
  5
1C2
330
2
100
AcDbEntity
  8
FORMAT
  6
CONTINUOUS
100
AcDbLine
 10
21.25
 20
21.49999999999999
 30
0.0
 11
21.25
 21
22.0
 31
0.0
  0
TEXT
  5
1C3
330
2
100
AcDbEntity
  8
FORMAT
  6
CONTINUOUS
100
AcDbText
 10
23.26202251023192
 20
21.59999999999999
 30
0.0
 40
0.25
  1
F
  7
ARIAL
 72
     1
 11
23.37499999999999
 21
21.59999999999999
 31
0.0
100
AcDbText
  0
LINE
  5
1C4
330
2
100
AcDbEntity
  8
FORMAT
  6
CONTINUOUS
100
AcDbLine
 10
25.5
 20
21.49999999999999
 30
0.0
 11
25.5
 21
22.0
 31
0.0
  0
LINE
  5
1F0
330
2
100
AcDbEntity
  8
FORMAT
  6
CONTINUOUS
100
AcDbLine
 10
33.696573
 20
11.113492
 30
0.0
 11
33.5
 21
11.0
 31
0.0
  0
LINE
  5
1F1
330
2
100
AcDbEntity
  8
FORMAT
  6
CONTINUOUS
100
AcDbLine
 10
33.5
 20
11.0
 30
0.0
 11
34.0
 21
11.0
 31
0.0
  0
TEXT
  5
1F2
330
2
100
AcDbEntity
  8
FORMAT
  6
CONTINUOUS
100
AcDbText
 10
33.64427854898035
 20
13.625
 30
0.0
 40
0.25
  1
2
  7
ARIAL
 72
     2
 11
33.82009710286848
 21
13.625
 31
0.0
100
AcDbText
  0
LINE
  5
1F3
330
2
100
AcDbEntity
  8
FORMAT
  6
CONTINUOUS
100
AcDbLine
 10
33.5
 20
16.5
 30
0.0
 11
34.0
 21
16.5
 31
0.0
  0
LINE
  5
1F7
330
2
100
AcDbEntity
  8
FORMAT
  6
CONTINUOUS
100
AcDbLine
 10
29.75
 20
21.49999999999999
 30
0.0
 11
29.75
 21
22.0
 31
0.0
  0
TEXT
  5
1F8
330
2
100
AcDbEntity
  8
FORMAT
  6
CONTINUOUS
100
AcDbText
 10
31.74897680763983
 20
21.59999999999999
 30
0.0
 40
0.25
  1
H
  7
ARIAL
 72
     1
 11
31.875
 21
21.59999999999999
 31
0.0
100
AcDbText
  0
TEXT
  5
1F9
330
2
100
AcDbEntity
  8
FORMAT
  6
CONTINUOUS
100
AcDbText
 10
33.68998114106767
 20
19.125
 30
0.0
 40
0.25
  1
1
  7
ARIAL
 72
     2
 11
33.82009710286848
 21
19.125
 31
0.0
100
AcDbText
  0
ARC
  5
1979
330
2
100
AcDbEntity
  8
PART
  6
SLD-SOLID
100
AcDbCircle
 10
9.440965214914747
 20
6.720195143335612
 30
0.0
 40
0.0118110236220471
100
AcDbArc
 50
4.999999999986919
 51
76.73852446376527
  0
ARC
  5
197A
330
2
100
AcDbEntity
  8
PART
  6
SLD-SOLID
100
AcDbCircle
 10
9.738201384379724
 20
6.720195143335612
 30
0.0
 40
0.011811023622048
100
AcDbArc
 50
103.2614755362347
 51
175.0000000000135
  0
LINE
  5
197B
330
2
100
AcDbEntity
  8
PART
  6
SLD-SOLID
100
AcDbLine
 10
9.452731294026047
 20
6.721224541871997
 30
0.0
 11
9.458138109256388
 21
6.659424360997576
 31
0.0
  0
LINE
  5
197C
330
2
100
AcDbEntity
  8
PART
  6
SLD-SOLID
100
AcDbLine
 10
9.721028490038086
 20
6.659424360997576
 30
0.0
 11
9.726435305268426
 21
6.721224541871997
 31
0.0
  0
ARC
  5
197D
330
2
100
AcDbEntity
  8
PART
  6
SLD-SOLID
100
AcDbCircle
 10
9.477748241108589
 20
6.661140025225371
 30
0.0
 40
0.0196850393701435
100
AcDbArc
 50
185.0000000013896
 51
270.0000000000008
  0
ARC
  5
197E
330
2
100
AcDbEntity
  8
PART
  6
SLD-SOLID
100
AcDbCircle
 10
9.701418358185883
 20
6.661140025225371
 30
0.0
 40
0.0196850393701435
100
AcDbArc
 50
270.0000000000034
 51
354.9999999986119
  0
ARC
  5
197F
330
2
100
AcDbEntity
  8
PART
  6
SLD-SOLID
100
AcDbCircle
 10
15.89765812830057
 20
6.720195143335612
 30
0.0
 40
0.0118110236220471
100
AcDbArc
 50
4.999999999986919
 51
76.73852446376947
  0
ARC
  5
1980
330
2
100
AcDbEntity
  8
PART
  6
SLD-SOLID
100
AcDbCircle
 10
16.19489429776555
 20
6.720195143335612
 30
0.0
 40
0.0118110236220471
100
AcDbArc
 50
103.2614755362221
 51
175.000000000013
  0
LINE
  5
1981
330
2
100
AcDbEntity
  8
PART
  6
SLD-SOLID
100
AcDbLine
 10
15.90942420741187
 20
6.721224541871997
 30
0.0
 11
15.91483102264221
 21
6.659424360997576
 31
0.0
  0
LINE
  5
1982
330
2
100
AcDbEntity
  8
PART
  6
SLD-SOLID
100
AcDbLine
 10
16.17772140342391
 20
6.659424360997576
 30
0.0
 11
16.18312821865425
 21
6.721224541871997
 31
0.0
  0
ARC
  5
1983
330
2
100
AcDbEntity
  8
PART
  6
SLD-SOLID
100
AcDbCircle
 10
15.93444115449441
 20
6.661140025225371
 30
0.0
 40
0.0196850393701408
100
AcDbArc
 50
185.0000000013904
 51
270.0000000000008
  0
ARC
  5
1984
330
2
100
AcDbEntity
  8
PART
  6
SLD-SOLID
100
AcDbCircle
 10
16.15811127157171
 20
6.661140025225371
 30
0.0
 40
0.0196850393701426
100
AcDbArc
 50
270.0000000000008
 51
354.9999999986115
  0
ARC
  5
1985
330
2
100
AcDbEntity
  8
PART
  6
SLD-SOLID
100
AcDbCircle
 10
15.62206757711947
 20
6.720195143335612
 30
0.0
 40
0.0118110236220466
100
AcDbArc
 50
4.999999999987533
 51
76.73852446376947
  0
LWPOLYLINE
  5
1986
330
2
100
AcDbEntity
  8
PART
  6
SLD-SOLID
100
AcDbPolyline
 90
        3
 70
   128
 43
0.0
 10
15.90753766747313
 20
6.721224541871997
 10
15.90788082265606
 20
6.72319798997286
 10
15.90848093746075
 20
6.724924528250433
  0
LINE
  5
1987
330
2
100
AcDbEntity
  8
PART
  6
SLD-SOLID
100
AcDbLine
 10
15.63383365623077
 20
6.721224541871997
 30
0.0
 11
15.63924047146111
 21
6.659424360997576
 31
0.0
  0
LINE
  5
1988
330
2
100
AcDbEntity
  8
PART
  6
SLD-SOLID
100
AcDbLine
 10
15.90213085224281
 20
6.659424360997576
 30
0.0
 11
15.90753766747315
 21
6.721224541871997
 31
0.0
  0
ARC
  5
1989
330
2
100
AcDbEntity
  8
PART
  6
SLD-SOLID
100
AcDbCircle
 10
15.65885060331331
 20
6.661140025225371
 30
0.0
 40
0.0196850393701408
100
AcDbArc
 50
185.0000000013904
 51
270.0000000000008
  0
ARC
  5
198A
330
2
100
AcDbEntity
  8
PART
  6
SLD-SOLID
100
AcDbCircle
 10
15.88252072039061
 20
6.661140025225371
 30
0.0
 40
0.0196850393701426
100
AcDbArc
 50
270.0000000000008
 51
354.9999999986115
  0
LWPOLYLINE
  5
198B
330
2
100
AcDbEntity
  8
PART
  6
SLD-SOLID
100
AcDbPolyline
 90
        3
 70
   128
 43
0.0
 10
9.727378575237819
 20
6.724924528208624
 10
9.727978690024237
 20
6.72319798997286
 10
9.728321845207169
 20
6.721224541871997
  0
ARC
  5
198C
330
2
100
AcDbEntity
  8
PART
  6
SLD-SOLID
100
AcDbCircle
 10
10.01379193556082
 20
6.720195143335612
 30
0.0
 40
0.0118110236220464
100
AcDbArc
 50
103.2614755362263
 51
175.0000000000126
  0
LINE
  5
198D
330
2
100
AcDbEntity
  8
PART
  6
SLD-SOLID
100
AcDbLine
 10
9.728321845207148
 20
6.721224541871997
 30
0.0
 11
9.733728660437488
 21
6.659424360997576
 31
0.0
  0
LINE
  5
198E
330
2
100
AcDbEntity
  8
PART
  6
SLD-SOLID
100
AcDbLine
 10
9.996619041219188
 20
6.659424360997576
 30
0.0
 11
10.00202585644952
 21
6.721224541871997
 31
0.0
  0
ARC
  5
198F
330
2
100
AcDbEntity
  8
PART
  6
SLD-SOLID
100
AcDbCircle
 10
9.753338792289692
 20
6.661140025225371
 30
0.0
 40
0.0196850393701426
100
AcDbArc
 50
185.0000000013898
 51
270.0000000000008
  0
ARC
  5
1990
330
2
100
AcDbEntity
  8
PART
  6
SLD-SOLID
100
AcDbCircle
 10
9.977008909366986
 20
6.661140025225371
 30
0.0
 40
0.0196850393701426
100
AcDbArc
 50
270.0000000000008
 51
354.9999999986115
  0
LINE
  5
1991
330
2
100
AcDbEntity
  8
PART
  6
SLD-SOLID
100
AcDbLine
 10
16.47147306538027
 20
7.223722671840917
 30
0.0
 11
9.164386447299998
 21
7.223722671840917
 31
0.0
  0
LINE
  5
1992
330
2
100
AcDbEntity
  8
PART
  6
SLD-SOLID
100
AcDbLine
 10
16.47147306538027
 20
6.731691206327734
 30
0.0
 11
16.47147306538027
 21
7.223722671840917
 31
0.0
  0
LINE
  5
1993
330
2
100
AcDbEntity
  8
PART
  6
SLD-SOLID
100
AcDbLine
 10
16.47147306538027
 20
6.731691206327734
 30
0.0
 11
9.164386447299998
 21
6.731691206327734
 31
0.0
  0
LINE
  5
1994
330
2
100
AcDbEntity
  8
PART
  6
SLD-SOLID
100
AcDbLine
 10
9.164386447299998
 20
6.731691206327734
 30
0.0
 11
9.164386447299998
 21
7.223722671840917
 31
0.0
  0
SPLINE
  5
1995
330
2
100
AcDbEntity
  8
PART
  6
SLD-SOLID
100
AcDbSpline
210
0.0
220
0.0
230
1.0
 70
    24
 71
     3
 72
    30
 73
    26
 74
     0
 42
0.0000000001
 43
0.0000000001
 40
0.0
 40
0.0
 40
0.0
 40
0.0
 40
0.0451290920644273
 40
0.0897637352175286
 40
0.1343379227838606
 40
0.179287399242893
 40
0.224297746248588
 40
0.268890176718756
 40
0.3135029340628597
 40
0.35857366875172
 40
0.4035827112410195
 40
0.4481754679484748
 40
0.4927901012714161
 40
0.5378641356272903
 40
0.5828701682161678
 40
0.6274618379152692
 40
0.6720775077841347
 40
0.7171548407051575
 40
0.7621657977132245
 40
0.8067591253198933
 40
0.8513731369995733
 40
0.8964455427944612
 40
0.9414531713175614
 40
0.9860454518663972
 40
1.0
 40
1.0
 40
1.0
 40
1.0
 10
9.52464742335881
 20
6.641454985855293
 30
0.0
 10
9.527708479699047
 20
6.641454985855293
 30
0.0
 10
9.533797054457398
 20
6.641454985855293
 30
0.0
 10
9.543608597466661
 20
6.641454985855293
 30
0.0
 10
9.553812459298898
 20
6.641454985855293
 30
0.0
 10
9.56440128163457
 20
6.641454985855293
 30
0.0
 10
9.575224362497097
 20
6.641454985855293
 30
0.0
 10
9.586162762519624
 20
6.641454985855293
 30
0.0
 10
9.59713918325345
 20
6.641454985855293
 30
0.0
 10
9.608073823018969
 20
6.641454985855293
 30
0.0
 10
9.618834169606275
 20
6.641454985855293
 30
0.0
 10
9.629277057141749
 20
6.641454985855293
 30
0.0
 10
9.63933651205844
 20
6.641454985855293
 30
0.0
 10
9.648942224942995
 20
6.641454985855293
 30
0.0
 10
9.657991747872241
 20
6.641454985855293
 30
0.0
 10
9.666349180857785
 20
6.641454985855293
 30
0.0
 10
9.673959786569202
 20
6.641454985855293
 30
0.0
 10
9.68077427600752
 20
6.641454985855293
 30
0.0
 10
9.686735234319316
 20
6.641454985855293
 30
0.0
 10
9.691736526978605
 20
6.641454985855293
 30
0.0
 10
9.695734978143642
 20
6.641454985855293
 30
0.0
 10
9.698736568482612
 20
6.641454985855293
 30
0.0
 10
9.700638601558555
 20
6.641454985855293
 30
0.0
 10
9.701496473922132
 20
6.641454985855293
 30
0.0
 10
9.701354924394658
 20
6.641454985855293
 30
0.0
 10
9.701321186278713
 20
6.641454985855293
 30
0.0
  0
SPLINE
  5
1996
330
2
100
AcDbEntity
  8
PART
  6
SLD-SOLID
100
AcDbSpline
210
0.0
220
0.0
230
1.0
 70
    24
 71
     3
 72
    17
 73
    13
 74
     0
 42
0.0000000001
 43
0.0000000001
 40
0.0
 40
0.0
 40
0.0
 40
0.0
 40
0.0705957281509568
 40
0.1743816363051245
 40
0.2780038483969164
 40
0.3806729634529784
 40
0.4833981679299964
 40
0.5871870121481799
 40
0.6906086895380338
 40
0.7932149701513875
 40
0.8960119020521133
 40
0.9999999999999998
 40
0.9999999999999998
 40
0.9999999999999998
 40
0.9999999999999998
 10
9.477845413015758
 20
6.641454985855293
 30
0.0
 10
9.477850568194385
 20
6.641454985855293
 30
0.0
 10
9.47786330222955
 20
6.641454985855293
 30
0.0
 10
9.479135620278595
 20
6.641454985855293
 30
0.0
 10
9.481433368749133
 20
6.641454985855293
 30
0.0
 10
9.484813614286727
 20
6.641454985855293
 30
0.0
 10
9.489209608910446
 20
6.641454985855293
 30
0.0
 10
9.494590869637761
 20
6.641454985855293
 30
0.0
 10
9.500854612444076
 20
6.641454985855293
 30
0.0
 10
9.507971945015366
 20
6.641454985855293
 30
0.0
 10
9.515855669807585
 20
6.641454985855293
 30
0.0
 10
9.521705606169206
 20
6.641454985855293
 30
0.0
 10
9.52464742335881
 20
6.641454985855293
 30
0.0
  0
SPLINE
  5
1997
330
2
100
AcDbEntity
  8
PART
  6
SLD-SOLID
100
AcDbSpline
210
0.0
220
0.0
230
1.0
 70
    24
 71
     3
 72
    30
 73
    26
 74
     0
 42
0.0000000001
 43
0.0000000001
 40
0.0
 40
0.0
 40
0.0
 40
0.0
 40
0.0451290920644273
 40
0.0897637352175306
 40
0.1343379227838626
 40
0.1792873992428928
 40
0.2242977462485879
 40
0.2688901767187559
 40
0.3135029340628596
 40
0.3585736687517198
 40
0.4035827112410194
 40
0.4481754679484747
 40
0.492790101271416
 40
0.5378641356272884
 40
0.5828701682161676
 40
0.627461837915269
 40
0.6720775077841346
 40
0.7171548407051574
 40
0.7621657977132243
 40
0.8067591253198932
 40
0.8513731369995731
 40
0.896445542794461
 40
0.9414531713175612
 40
0.9860454518663971
 40
1.0
 40
1.0
 40
1.0
 40
1.0
 10
15.98134033674464
 20
6.641454985855293
 30
0.0
 10
15.98440139308487
 20
6.641454985855293
 30
0.0
 10
15.99048996784322
 20
6.641454985855293
 30
0.0
 10
16.00030151085249
 20
6.641454985855293
 30
0.0
 10
16.01050537268472
 20
6.641454985855293
 30
0.0
 10
16.0210941950204
 20
6.641454985855293
 30
0.0
 10
16.03191727588292
 20
6.641454985855293
 30
0.0
 10
16.04285567590545
 20
6.641454985855293
 30
0.0
 10
16.05383209663927
 20
6.641454985855293
 30
0.0
 10
16.0647667364048
 20
6.641454985855293
 30
0.0
 10
16.0755270829921
 20
6.641454985855293
 30
0.0
 10
16.08596997052758
 20
6.641454985855293
 30
0.0
 10
16.09602942544427
 20
6.641454985855293
 30
0.0
 10
16.10563513832882
 20
6.641454985855293
 30
0.0
 10
16.11468466125806
 20
6.641454985855293
 30
0.0
 10
16.12304209424361
 20
6.641454985855293
 30
0.0
 10
16.13065269995503
 20
6.641454985855293
 30
0.0
 10
16.13746718939334
 20
6.641454985855293
 30
0.0
 10
16.14342814770514
 20
6.641454985855293
 30
0.0
 10
16.14842944036443
 20
6.641454985855293
 30
0.0
 10
16.15242789152947
 20
6.641454985855293
 30
0.0
 10
16.15542948186844
 20
6.641454985855293
 30
0.0
 10
16.15733151494438
 20
6.641454985855293
 30
0.0
 10
16.15818938730796
 20
6.641454985855293
 30
0.0
 10
16.15804783778049
 20
6.641454985855293
 30
0.0
 10
16.15801409966454
 20
6.641454985855293
 30
0.0
  0
SPLINE
  5
1998
330
2
100
AcDbEntity
  8
PART
  6
SLD-SOLID
100
AcDbSpline
210
0.0
220
0.0
230
1.0
 70
    24
 71
     3
 72
    17
 73
    13
 74
     0
 42
0.0000000001
 43
0.0000000001
 40
0.0
 40
0.0
 40
0.0
 40
0.0
 40
0.0705957281509568
 40
0.1743816363051246
 40
0.2780038483969166
 40
0.3806729634529785
 40
0.4833981679299966
 40
0.5871870121481802
 40
0.690608689538032
 40
0.7932149701513876
 40
0.8960119020521135
 40
1.0
 40
1.0
 40
1.0
 40
1.0
 10
15.93453832640158
 20
6.641454985855293
 30
0.0
 10
15.93454348158021
 20
6.641454985855293
 30
0.0
 10
15.93455621561537
 20
6.641454985855293
 30
0.0
 10
15.93582853366442
 20
6.641454985855293
 30
0.0
 10
15.93812628213496
 20
6.641454985855293
 30
0.0
 10
15.94150652767255
 20
6.641454985855293
 30
0.0
 10
15.94590252229627
 20
6.641454985855293
 30
0.0
 10
15.95128378302359
 20
6.641454985855293
 30
0.0
 10
15.9575475258299
 20
6.641454985855293
 30
0.0
 10
15.96466485840119
 20
6.641454985855293
 30
0.0
 10
15.97254858319341
 20
6.641454985855293
 30
0.0
 10
15.97839851955503
 20
6.641454985855293
 30
0.0
 10
15.98134033674464
 20
6.641454985855293
 30
0.0
  0
SPLINE
  5
1999
330
2
100
AcDbEntity
  8
PART
  6
SLD-SOLID
100
AcDbSpline
210
0.0
220
0.0
230
1.0
 70
    24
 71
     3
 72
    30
 73
    26
 74
     0
 42
0.0000000001
 43
0.0000000001
 40
0.0
 40
0.0
 40
0.0
 40
0.0
 40
0.0451290920644273
 40
0.0897637352175286
 40
0.1343379227838627
 40
0.179287399242893
 40
0.224297746248588
 40
0.268890176718756
 40
0.3135029340628597
 40
0.35857366875172
 40
0.4035827112410195
 40
0.4481754679484748
 40
0.4927901012714161
 40
0.5378641356272884
 40
0.5828701682161676
 40
0.627461837915269
 40
0.6720775077841346
 40
0.7171548407051574
 40
0.7621657977132243
 40
0.8067591253198932
 40
0.8513731369995731
 40
0.896445542794461
 40
0.9414531713175612
 40
0.9860454518663971
 40
1.0
 40
1.0
 40
1.0
 40
1.0
 10
15.70574978556353
 20
6.641454985855293
 30
0.0
 10
15.70881084190377
 20
6.641454985855293
 30
0.0
 10
15.71489941666212
 20
6.641454985855293
 30
0.0
 10
15.72471095967139
 20
6.641454985855293
 30
0.0
 10
15.73491482150362
 20
6.641454985855293
 30
0.0
 10
15.74550364383929
 20
6.641454985855293
 30
0.0
 10
15.75632672470182
 20
6.641454985855293
 30
0.0
 10
15.76726512472435
 20
6.641454985855293
 30
0.0
 10
15.77824154545817
 20
6.641454985855293
 30
0.0
 10
15.78917618522369
 20
6.641454985855293
 30
0.0
 10
15.799936531811
 20
6.641454985855293
 30
0.0
 10
15.81037941934647
 20
6.641454985855293
 30
0.0
 10
15.82043887426316
 20
6.641454985855293
 30
0.0
 10
15.83004458714772
 20
6.641454985855293
 30
0.0
 10
15.83909411007696
 20
6.641454985855293
 30
0.0
 10
15.84745154306251
 20
6.641454985855293
 30
0.0
 10
15.85506214877393
 20
6.641454985855293
 30
0.0
 10
15.86187663821224
 20
6.641454985855293
 30
0.0
 10
15.86783759652404
 20
6.641454985855293
 30
0.0
 10
15.87283888918333
 20
6.641454985855293
 30
0.0
 10
15.87683734034837
 20
6.641454985855293
 30
0.0
 10
15.87983893068733
 20
6.641454985855293
 30
0.0
 10
15.88174096376328
 20
6.641454985855293
 30
0.0
 10
15.88259883612685
 20
6.641454985855293
 30
0.0
 10
15.88245728659938
 20
6.641454985855293
 30
0.0
 10
15.88242354848343
 20
6.641454985855293
 30
0.0
  0
SPLINE
  5
199A
330
2
100
AcDbEntity
  8
PART
  6
SLD-SOLID
100
AcDbSpline
210
0.0
220
0.0
230
1.0
 70
    24
 71
     3
 72
    17
 73
    13
 74
     0
 42
0.0000000001
 43
0.0000000001
 40
0.0
 40
0.0
 40
0.0
 40
0.0
 40
0.0705957281509568
 40
0.1743816363051245
 40
0.2780038483969164
 40
0.3806729634529784
 40
0.4833981679299964
 40
0.5871870121481799
 40
0.6906086895380338
 40
0.7932149701513875
 40
0.8960119020521133
 40
0.9999999999999998
 40
0.9999999999999998
 40
0.9999999999999998
 40
0.9999999999999998
 10
15.65894777522048
 20
6.641454985855293
 30
0.0
 10
15.65895293039911
 20
6.641454985855293
 30
0.0
 10
15.65896566443427
 20
6.641454985855293
 30
0.0
 10
15.66023798248331
 20
6.641454985855293
 30
0.0
 10
15.66253573095385
 20
6.641454985855293
 30
0.0
 10
15.66591597649145
 20
6.641454985855293
 30
0.0
 10
15.67031197111517
 20
6.641454985855293
 30
0.0
 10
15.67569323184248
 20
6.641454985855293
 30
0.0
 10
15.6819569746488
 20
6.641454985855293
 30
0.0
 10
15.68907430722009
 20
6.641454985855293
 30
0.0
 10
15.69695803201231
 20
6.641454985855293
 30
0.0
 10
15.70280796837393
 20
6.641454985855293
 30
0.0
 10
15.70574978556353
 20
6.641454985855293
 30
0.0
  0
SPLINE
  5
199B
330
2
100
AcDbEntity
  8
PART
  6
SLD-SOLID
100
AcDbSpline
210
0.0
220
0.0
230
1.0
 70
    24
 71
     3
 72
    30
 73
    26
 74
     0
 42
0.0000000001
 43
0.0000000001
 40
0.0
 40
0.0
 40
0.0
 40
0.0
 40
0.0451290920644273
 40
0.0897637352175286
 40
0.1343379227838627
 40
0.179287399242893
 40
0.224297746248588
 40
0.268890176718756
 40
0.3135029340628597
 40
0.35857366875172
 40
0.4035827112410195
 40
0.4481754679484748
 40
0.4927901012714161
 40
0.5378641356272884
 40
0.5828701682161676
 40
0.627461837915269
 40
0.6720775077841346
 40
0.7171548407051574
 40
0.7621657977132243
 40
0.8067591253198932
 40
0.8513731369995731
 40
0.896445542794461
 40
0.9414531713175612
 40
0.9860454518663971
 40
1.0
 40
1.0
 40
1.0
 40
1.0
 10
9.800237974539911
 20
6.641454985855293
 30
0.0
 10
9.803299030880147
 20
6.641454985855293
 30
0.0
 10
9.8093876056385
 20
6.641454985855293
 30
0.0
 10
9.819199148647765
 20
6.641454985855293
 30
0.0
 10
9.829403010479998
 20
6.641454985855293
 30
0.0
 10
9.839991832815673
 20
6.641454985855293
 30
0.0
 10
9.850814913678199
 20
6.641454985855293
 30
0.0
 10
9.861753313700727
 20
6.641454985855293
 30
0.0
 10
9.87272973443455
 20
6.641454985855293
 30
0.0
 10
9.883664374200069
 20
6.641454985855293
 30
0.0
 10
9.894424720787377
 20
6.641454985855293
 30
0.0
 10
9.904867608322852
 20
6.641454985855293
 30
0.0
 10
9.914927063239542
 20
6.641454985855293
 30
0.0
 10
9.924532776124099
 20
6.641454985855293
 30
0.0
 10
9.933582299053343
 20
6.641454985855293
 30
0.0
 10
9.941939732038889
 20
6.641454985855293
 30
0.0
 10
9.949550337750306
 20
6.641454985855293
 30
0.0
 10
9.956364827188622
 20
6.641454985855293
 30
0.0
 10
9.962325785500418
 20
6.641454985855293
 30
0.0
 10
9.967327078159707
 20
6.641454985855293
 30
0.0
 10
9.971325529324744
 20
6.641454985855293
 30
0.0
 10
9.974327119663715
 20
6.641454985855293
 30
0.0
 10
9.976229152739657
 20
6.641454985855293
 30
0.0
 10
9.977087025103234
 20
6.641454985855293
 30
0.0
 10
9.97694547557576
 20
6.641454985855293
 30
0.0
 10
9.976911737459815
 20
6.641454985855293
 30
0.0
  0
SPLINE
  5
199C
330
2
100
AcDbEntity
  8
PART
  6
SLD-SOLID
100
AcDbSpline
210
0.0
220
0.0
230
1.0
 70
    24
 71
     3
 72
    17
 73
    13
 74
     0
 42
0.0000000001
 43
0.0000000001
 40
0.0
 40
0.0
 40
0.0
 40
0.0
 40
0.0705957281509568
 40
0.1743816363051245
 40
0.2780038483969164
 40
0.3806729634529784
 40
0.4833981679299964
 40
0.5871870121481799
 40
0.6906086895380338
 40
0.7932149701513875
 40
0.8960119020521133
 40
0.9999999999999998
 40
0.9999999999999998
 40
0.9999999999999998
 40
0.9999999999999998
 10
9.75343596419686
 20
6.641454985855293
 30
0.0
 10
9.753441119375487
 20
6.641454985855293
 30
0.0
 10
9.753453853410652
 20
6.641454985855293
 30
0.0
 10
9.754726171459697
 20
6.641454985855293
 30
0.0
 10
9.757023919930233
 20
6.641454985855293
 30
0.0
 10
9.760404165467829
 20
6.641454985855293
 30
0.0
 10
9.764800160091548
 20
6.641454985855293
 30
0.0
 10
9.770181420818863
 20
6.641454985855293
 30
0.0
 10
9.776445163625179
 20
6.641454985855293
 30
0.0
 10
9.783562496196466
 20
6.641454985855293
 30
0.0
 10
9.791446220988685
 20
6.641454985855293
 30
0.0
 10
9.797296157350309
 20
6.641454985855293
 30
0.0
 10
9.800237974539911
 20
6.641454985855293
 30
0.0
  0
LINE
  5
199D
330
2
100
AcDbEntity
  8
PART
  6
SLD-SOLID
100
AcDbLine
 10
9.726435305268404
 20
6.721224541871997
 30
0.0
 11
9.452731294026069
 21
6.721224541871997
 31
0.0
  0
LINE
  5
199E
330
2
100
AcDbEntity
  8
PART
  6
SLD-SOLID
100
AcDbLine
 10
9.513261002029047
 20
6.659424360997576
 30
0.0
 11
9.721028490038086
 21
6.659424360997576
 31
0.0
  0
LINE
  5
199F
330
2
100
AcDbEntity
  8
PART
  6
SLD-SOLID
100
AcDbLine
 10
9.458138109256388
 20
6.659424360997576
 30
0.0
 11
9.513261002029047
 21
6.659424360997576
 31
0.0
  0
LINE
  5
19A0
330
2
100
AcDbEntity
  8
PART
  6
SLD-SOLID
100
AcDbLine
 10
16.18312821865423
 20
6.721224541871997
 30
0.0
 11
15.90942420741189
 21
6.721224541871997
 31
0.0
  0
LINE
  5
19A1
330
2
100
AcDbEntity
  8
PART
  6
SLD-SOLID
100
AcDbLine
 10
15.96995391541487
 20
6.659424360997576
 30
0.0
 11
16.17772140342391
 21
6.659424360997576
 31
0.0
  0
LINE
  5
19A2
330
2
100
AcDbEntity
  8
PART
  6
SLD-SOLID
100
AcDbLine
 10
15.91483102264221
 20
6.659424360997576
 30
0.0
 11
15.96995391541487
 21
6.659424360997576
 31
0.0
  0
LINE
  5
19A3
330
2
100
AcDbEntity
  8
PART
  6
SLD-SOLID
100
AcDbLine
 10
15.90753766747313
 20
6.721224541871997
 30
0.0
 11
15.63383365623079
 21
6.721224541871997
 31
0.0
  0
LINE
  5
19A4
330
2
100
AcDbEntity
  8
PART
  6
SLD-SOLID
100
AcDbLine
 10
15.69436336423377
 20
6.659424360997576
 30
0.0
 11
15.90213085224281
 21
6.659424360997576
 31
0.0
  0
LINE
  5
19A5
330
2
100
AcDbEntity
  8
PART
  6
SLD-SOLID
100
AcDbLine
 10
15.63924047146111
 20
6.659424360997576
 30
0.0
 11
15.69436336423377
 21
6.659424360997576
 31
0.0
  0
LINE
  5
19A6
330
2
100
AcDbEntity
  8
PART
  6
SLD-SOLID
100
AcDbLine
 10
10.0020258564495
 20
6.721224541871997
 30
0.0
 11
9.728321845207169
 21
6.721224541871997
 31
0.0
  0
LINE
  5
19A7
330
2
100
AcDbEntity
  8
PART
  6
SLD-SOLID
100
AcDbLine
 10
9.788851553210147
 20
6.659424360997576
 30
0.0
 11
9.996619041219188
 21
6.659424360997576
 31
0.0
  0
LINE
  5
19A8
330
2
100
AcDbEntity
  8
PART
  6
SLD-SOLID
100
AcDbLine
 10
9.733728660437488
 20
6.659424360997576
 30
0.0
 11
9.788851553210147
 21
6.659424360997576
 31
0.0
  0
LINE
  5
19AB
330
2
100
AcDbEntity
  8
PART
  6
SLD-SOLID
100
AcDbLine
 10
10.7976935358677
 20
15.82876094969105
 30
0.0
 11
10.89193448474245
 21
15.82876094969105
 31
0.0
  0
ARC
  5
19AC
330
2
100
AcDbEntity
  8
PART
  6
SLD-SOLID
100
AcDbCircle
 10
10.78292975634014
 20
15.8435247292186
 30
0.0
 40
0.1100000000000003
100
AcDbArc
 50
352.2867023136068
 51
7.71329768639368
  0
LINE
  5
19AD
330
2
100
AcDbEntity
  8
PART
  6
SLD-SOLID
100
AcDbLine
 10
10.89193448474245
 20
15.85828850874617
 30
0.0
 11
10.7976935358677
 21
15.85828850874617
 31
0.0
  0
LINE
  5
19AE
330
2
100
AcDbEntity
  8
PART
  6
SLD-SOLID
100
AcDbLine
 10
10.7976935358677
 20
15.85828850874617
 30
0.0
 11
10.7976935358677
 21
15.95252945762092
 31
0.0
  0
ARC
  5
19AF
330
2
100
AcDbEntity
  8
PART
  6
SLD-SOLID
100
AcDbCircle
 10
10.78292975634014
 20
15.8435247292186
 30
0.0
 40
0.1100000000000003
100
AcDbArc
 50
82.28670231360625
 51
97.71329768639375
  0
LINE
  5
19B0
330
2
100
AcDbEntity
  8
PART
  6
SLD-SOLID
100
AcDbLine
 10
10.76816597681258
 20
15.95252945762092
 30
0.0
 11
10.76816597681258
 21
15.85828850874617
 31
0.0
  0
LINE
  5
19B1
330
2
100
AcDbEntity
  8
PART
  6
SLD-SOLID
100
AcDbLine
 10
10.76816597681258
 20
15.85828850874617
 30
0.0
 11
10.67392502793782
 21
15.85828850874617
 31
0.0
  0
ARC
  5
19B2
330
2
100
AcDbEntity
  8
PART
  6
SLD-SOLID
100
AcDbCircle
 10
10.78292975634014
 20
15.8435247292186
 30
0.0
 40
0.1100000000000003
100
AcDbArc
 50
172.2867023136063
 51
187.7132976863945
  0
LINE
  5
19B3
330
2
100
AcDbEntity
  8
PART
  6
SLD-SOLID
100
AcDbLine
 10
10.67392502793782
 20
15.82876094969105
 30
0.0
 11
10.76816597681258
 21
15.82876094969105
 31
0.0
  0
LINE
  5
19B4
330
2
100
AcDbEntity
  8
PART
  6
SLD-SOLID
100
AcDbLine
 10
10.76816597681258
 20
15.82876094969105
 30
0.0
 11
10.76816597681258
 21
15.73452000081629
 31
0.0
  0
ARC
  5
19B5
330
2
100
AcDbEntity
  8
PART
  6
SLD-SOLID
100
AcDbCircle
 10
10.78292975634014
 20
15.8435247292186
 30
0.0
 40
0.1100000000000003
100
AcDbArc
 50
262.286702313607
 51
277.7132976863945
  0
LINE
  5
19B6
330
2
100
AcDbEntity
  8
PART
  6
SLD-SOLID
100
AcDbLine
 10
10.7976935358677
 20
15.73452000081629
 30
0.0
 11
10.7976935358677
 21
15.82876094969105
 31
0.0
  0
CIRCLE
  5
19B7
330
2
100
AcDbEntity
  8
PART
  6
SLD-SOLID
100
AcDbCircle
 10
10.78292975634014
 20
15.8435247292186
 30
0.0
 40
0.1395000000000017
  0
LINE
  5
19B8
330
2
100
AcDbEntity
  8
PART
  6
SLD-SOLID
100
AcDbLine
 10
10.78390992291081
 20
15.84450489578928
 30
0.0
 11
10.7976935358677
 21
15.85828850874617
 31
0.0
  0
LINE
  5
19B9
330
2
100
AcDbEntity
  8
PART
  6
SLD-SOLID
100
AcDbLine
 10
10.78390992291081
 20
15.84450489578928
 30
0.0
 11
10.78390992291081
 21
15.93973612360162
 31
0.0
  0
SPLINE
  5
19BA
330
2
100
AcDbEntity
  8
PART
  6
SLD-SOLID
100
AcDbSpline
210
0.0
220
0.0
230
1.0
 70
     8
 71
     3
 72
     9
 73
     5
 74
     0
 42
0.0000000001
 43
0.0000000001
 40
0.0
 40
0.0
 40
0.0
 40
0.0
 40
0.4998244189333219
 40
0.9999999999999998
 40
0.9999999999999998
 40
0.9999999999999998
 40
0.9999999999999998
 10
10.78390992291081
 20
15.93973612360162
 30
0.0
 10
10.78618268463913
 20
15.94194521248587
 30
0.0
 10
10.79072980487221
 20
15.9463649422961
 30
0.0
 10
10.79537174884422
 20
15.95047413818132
 30
0.0
 10
10.7976935358677
 20
15.95252945762092
 30
0.0
  0
ARC
  5
19BB
330
2
100
AcDbEntity
  8
PART
  6
SLD-SOLID
100
AcDbCircle
 10
10.78292975634014
 20
15.8435247292186
 30
0.0
 40
0.096216387043118
100
AcDbArc
 50
89.41631170287577
 51
90.58368829712424
  0
SPLINE
  5
19BC
330
2
100
AcDbEntity
  8
PART
  6
SLD-SOLID
100
AcDbSpline
210
0.0
220
0.0
230
1.0
 70
     8
 71
     3
 72
     9
 73
     5
 74
     0
 42
0.0000000001
 43
0.0000000001
 40
0.0
 40
0.0
 40
0.0
 40
0.0
 40
0.4998244189333219
 40
0.9999999999999998
 40
0.9999999999999998
 40
0.9999999999999998
 40
0.9999999999999998
 10
10.78194958976946
 20
15.93973612360162
 30
0.0
 10
10.77967682804114
 20
15.94194521248587
 30
0.0
 10
10.77512970780806
 20
15.9463649422961
 30
0.0
 10
10.77048776383605
 20
15.95047413818132
 30
0.0
 10
10.76816597681258
 20
15.95252945762092
 30
0.0
  0
LINE
  5
19BD
330
2
100
AcDbEntity
  8
PART
  6
SLD-SOLID
100
AcDbLine
 10
10.78194958976946
 20
15.93973612360162
 30
0.0
 11
10.78194958976946
 21
15.84450489578928
 31
0.0
  0
LINE
  5
19BE
330
2
100
AcDbEntity
  8
PART
  6
SLD-SOLID
100
AcDbLine
 10
10.78194958976946
 20
15.84450489578928
 30
0.0
 11
10.76816597681258
 21
15.85828850874617
 31
0.0
  0
SPLINE
  5
19BF
330
2
100
AcDbEntity
  8
PART
  6
SLD-SOLID
100
AcDbSpline
210
0.0
220
0.0
230
1.0
 70
     8
 71
     3
 72
     9
 73
     5
 74
     0
 42
0.0000000001
 43
0.0000000001
 40
0.0
 40
0.0
 40
0.0
 40
0.0
 40
0.4998244189333344
 40
0.9999999999999998
 40
0.9999999999999998
 40
0.9999999999999998
 40
0.9999999999999998
 10
10.68671836195712
 20
15.84450489578928
 30
0.0
 10
10.68450927307288
 20
15.8467776575176
 30
0.0
 10
10.68008954326265
 20
15.85132477775069
 30
0.0
 10
10.67598034737743
 20
15.85596672172269
 30
0.0
 10
10.67392502793782
 20
15.85828850874617
 30
0.0
  0
ARC
  5
19C0
330
2
100
AcDbEntity
  8
PART
  6
SLD-SOLID
100
AcDbCircle
 10
10.78292975634014
 20
15.8435247292186
 30
0.0
 40
0.0962163870431162
100
AcDbArc
 50
179.4163117028769
 51
180.5836882971239
  0
SPLINE
  5
19C1
330
2
100
AcDbEntity
  8
PART
  6
SLD-SOLID
100
AcDbSpline
210
0.0
220
0.0
230
1.0
 70
     8
 71
     3
 72
     9
 73
     5
 74
     0
 42
0.0000000001
 43
0.0000000001
 40
0.0
 40
0.0
 40
0.0
 40
0.0
 40
0.4998244189333293
 40
1.0
 40
1.0
 40
1.0
 40
1.0
 10
10.68671836195712
 20
15.84254456264793
 30
0.0
 10
10.68450927307288
 20
15.84027180091961
 30
0.0
 10
10.68008954326265
 20
15.83572468068653
 30
0.0
 10
10.67598034737743
 20
15.83108273671452
 30
0.0
 10
10.67392502793782
 20
15.82876094969105
 30
0.0
  0
SPLINE
  5
19C2
330
2
100
AcDbEntity
  8
PART
  6
SLD-SOLID
100
AcDbSpline
210
0.0
220
0.0
230
1.0
 70
     8
 71
     3
 72
     9
 73
     5
 74
     0
 42
0.0000000001
 43
0.0000000001
 40
0.0
 40
0.0
 40
0.0
 40
0.0
 40
0.4998244189333344
 40
0.9999999999999998
 40
0.9999999999999998
 40
0.9999999999999998
 40
0.9999999999999998
 10
10.87914115072315
 20
15.84254456264793
 30
0.0
 10
10.88135023960739
 20
15.84027180091961
 30
0.0
 10
10.88576996941762
 20
15.83572468068653
 30
0.0
 10
10.88987916530284
 20
15.83108273671452
 30
0.0
 10
10.89193448474245
 20
15.82876094969105
 30
0.0
  0
ARC
  5
19C3
330
2
100
AcDbEntity
  8
PART
  6
SLD-SOLID
100
AcDbCircle
 10
10.78292975634014
 20
15.8435247292186
 30
0.0
 40
0.0962163870431162
100
AcDbArc
 50
359.4163117028776
 51
0.5836882971231154
  0
SPLINE
  5
19C4
330
2
100
AcDbEntity
  8
PART
  6
SLD-SOLID
100
AcDbSpline
210
0.0
220
0.0
230
1.0
 70
     8
 71
     3
 72
     9
 73
     5
 74
     0
 42
0.0000000001
 43
0.0000000001
 40
0.0
 40
0.0
 40
0.0
 40
0.0
 40
0.4998244189333344
 40
0.9999999999999998
 40
0.9999999999999998
 40
0.9999999999999998
 40
0.9999999999999998
 10
10.87914115072315
 20
15.84450489578928
 30
0.0
 10
10.88135023960739
 20
15.8467776575176
 30
0.0
 10
10.88576996941762
 20
15.85132477775069
 30
0.0
 10
10.88987916530284
 20
15.85596672172269
 30
0.0
 10
10.89193448474245
 20
15.85828850874617
 30
0.0
  0
LINE
  5
19C5
330
2
100
AcDbEntity
  8
PART
  6
SLD-SOLID
100
AcDbLine
 10
10.78194958976946
 20
15.84450489578928
 30
0.0
 11
10.68671836195712
 21
15.84450489578928
 31
0.0
  0
LINE
  5
19C6
330
2
100
AcDbEntity
  8
PART
  6
SLD-SOLID
100
AcDbLine
 10
10.87914115072315
 20
15.84450489578928
 30
0.0
 11
10.78390992291081
 21
15.84450489578928
 31
0.0
  0
LINE
  5
19C7
330
2
100
AcDbEntity
  8
PART
  6
SLD-SOLID
100
AcDbLine
 10
10.78390992291081
 20
15.84254456264793
 30
0.0
 11
10.7976935358677
 21
15.82876094969105
 31
0.0
  0
LINE
  5
19C8
330
2
100
AcDbEntity
  8
PART
  6
SLD-SOLID
100
AcDbLine
 10
10.78390992291081
 20
15.84254456264793
 30
0.0
 11
10.87914115072315
 21
15.84254456264793
 31
0.0
  0
LINE
  5
19C9
330
2
100
AcDbEntity
  8
PART
  6
SLD-SOLID
100
AcDbLine
 10
10.68671836195712
 20
15.84254456264793
 30
0.0
 11
10.78194958976946
 21
15.84254456264793
 31
0.0
  0
LINE
  5
19CA
330
2
100
AcDbEntity
  8
PART
  6
SLD-SOLID
100
AcDbLine
 10
10.78194958976946
 20
15.84254456264793
 30
0.0
 11
10.76816597681258
 21
15.82876094969105
 31
0.0
  0
SPLINE
  5
19CB
330
2
100
AcDbEntity
  8
PART
  6
SLD-SOLID
100
AcDbSpline
210
0.0
220
0.0
230
1.0
 70
     8
 71
     3
 72
     9
 73
     5
 74
     0
 42
0.0000000001
 43
0.0000000001
 40
0.0
 40
0.0
 40
0.0
 40
0.0
 40
0.4998244189333219
 40
0.9999999999999998
 40
0.9999999999999998
 40
0.9999999999999998
 40
0.9999999999999998
 10
10.78390992291081
 20
15.74731333483559
 30
0.0
 10
10.78618268463913
 20
15.74510424595135
 30
0.0
 10
10.79072980487221
 20
15.74068451614112
 30
0.0
 10
10.79537174884422
 20
15.7365753202559
 30
0.0
 10
10.7976935358677
 20
15.73452000081629
 30
0.0
  0
LINE
  5
19CC
330
2
100
AcDbEntity
  8
PART
  6
SLD-SOLID
100
AcDbLine
 10
10.78390992291081
 20
15.74731333483559
 30
0.0
 11
10.78390992291081
 21
15.84254456264793
 31
0.0
  0
LINE
  5
19CD
330
2
100
AcDbEntity
  8
PART
  6
SLD-SOLID
100
AcDbLine
 10
10.78194958976946
 20
15.84254456264793
 30
0.0
 11
10.78194958976946
 21
15.74731333483559
 31
0.0
  0
SPLINE
  5
19CE
330
2
100
AcDbEntity
  8
PART
  6
SLD-SOLID
100
AcDbSpline
210
0.0
220
0.0
230
1.0
 70
     8
 71
     3
 72
     9
 73
     5
 74
     0
 42
0.0000000001
 43
0.0000000001
 40
0.0
 40
0.0
 40
0.0
 40
0.0
 40
0.4998244189333219
 40
0.9999999999999998
 40
0.9999999999999998
 40
0.9999999999999998
 40
0.9999999999999998
 10
10.78194958976946
 20
15.74731333483559
 30
0.0
 10
10.77967682804114
 20
15.74510424595135
 30
0.0
 10
10.77512970780806
 20
15.74068451614112
 30
0.0
 10
10.77048776383605
 20
15.7365753202559
 30
0.0
 10
10.76816597681258
 20
15.73452000081629
 30
0.0
  0
ARC
  5
19CF
330
2
100
AcDbEntity
  8
PART
  6
SLD-SOLID
100
AcDbCircle
 10
10.78292975634014
 20
15.8435247292186
 30
0.0
 40
0.0962163870431144
100
AcDbArc
 50
269.4163117028765
 51
270.583688297125
  0
LINE
  5
19D0
330
2
100
AcDbEntity
  8
PART
  6
SLD-SOLID
100
AcDbLine
 10
10.7976935358677
 20
16.32876094969105
 30
0.0
 11
10.89193448474245
 21
16.32876094969105
 31
0.0
  0
ARC
  5
19D1
330
2
100
AcDbEntity
  8
PART
  6
SLD-SOLID
100
AcDbCircle
 10
10.78292975634014
 20
16.3435247292186
 30
0.0
 40
0.1100000000000003
100
AcDbArc
 50
352.2867023136068
 51
7.71329768639368
  0
LINE
  5
19D2
330
2
100
AcDbEntity
  8
PART
  6
SLD-SOLID
100
AcDbLine
 10
10.89193448474245
 20
16.35828850874617
 30
0.0
 11
10.7976935358677
 21
16.35828850874617
 31
0.0
  0
LINE
  5
19D3
330
2
100
AcDbEntity
  8
PART
  6
SLD-SOLID
100
AcDbLine
 10
10.7976935358677
 20
16.35828850874617
 30
0.0
 11
10.7976935358677
 21
16.45252945762091
 31
0.0
  0
ARC
  5
19D4
330
2
100
AcDbEntity
  8
PART
  6
SLD-SOLID
100
AcDbCircle
 10
10.78292975634014
 20
16.3435247292186
 30
0.0
 40
0.1100000000000003
100
AcDbArc
 50
82.28670231360625
 51
97.71329768639288
  0
LINE
  5
19D5
330
2
100
AcDbEntity
  8
PART
  6
SLD-SOLID
100
AcDbLine
 10
10.76816597681258
 20
16.45252945762091
 30
0.0
 11
10.76816597681258
 21
16.35828850874617
 31
0.0
  0
LINE
  5
19D6
330
2
100
AcDbEntity
  8
PART
  6
SLD-SOLID
100
AcDbLine
 10
10.76816597681258
 20
16.35828850874617
 30
0.0
 11
10.67392502793782
 21
16.35828850874617
 31
0.0
  0
ARC
  5
19D7
330
2
100
AcDbEntity
  8
PART
  6
SLD-SOLID
100
AcDbCircle
 10
10.78292975634014
 20
16.3435247292186
 30
0.0
 40
0.1100000000000003
100
AcDbArc
 50
172.2867023136063
 51
187.7132976863945
  0
LINE
  5
19D8
330
2
100
AcDbEntity
  8
PART
  6
SLD-SOLID
100
AcDbLine
 10
10.67392502793782
 20
16.32876094969105
 30
0.0
 11
10.76816597681258
 21
16.32876094969105
 31
0.0
  0
LINE
  5
19D9
330
2
100
AcDbEntity
  8
PART
  6
SLD-SOLID
100
AcDbLine
 10
10.76816597681258
 20
16.32876094969105
 30
0.0
 11
10.76816597681258
 21
16.23452000081629
 31
0.0
  0
ARC
  5
19DA
330
2
100
AcDbEntity
  8
PART
  6
SLD-SOLID
100
AcDbCircle
 10
10.78292975634014
 20
16.3435247292186
 30
0.0
 40
0.1100000000000003
100
AcDbArc
 50
262.2867023136079
 51
277.7132976863945
  0
LINE
  5
19DB
330
2
100
AcDbEntity
  8
PART
  6
SLD-SOLID
100
AcDbLine
 10
10.7976935358677
 20
16.23452000081629
 30
0.0
 11
10.7976935358677
 21
16.32876094969105
 31
0.0
  0
CIRCLE
  5
19DC
330
2
100
AcDbEntity
  8
PART
  6
SLD-SOLID
100
AcDbCircle
 10
10.78292975634014
 20
16.3435247292186
 30
0.0
 40
0.1395000000000017
  0
SPLINE
  5
19DD
330
2
100
AcDbEntity
  8
PART
  6
SLD-SOLID
100
AcDbSpline
210
0.0
220
0.0
230
1.0
 70
     8
 71
     3
 72
     9
 73
     5
 74
     0
 42
0.0000000001
 43
0.0000000001
 40
0.0
 40
0.0
 40
0.0
 40
0.0
 40
0.4998244189333219
 40
0.9999999999999998
 40
0.9999999999999998
 40
0.9999999999999998
 40
0.9999999999999998
 10
10.78194958976946
 20
16.43973612360162
 30
0.0
 10
10.77967682804114
 20
16.44194521248587
 30
0.0
 10
10.77512970780806
 20
16.44636494229609
 30
0.0
 10
10.77048776383605
 20
16.45047413818131
 30
0.0
 10
10.76816597681258
 20
16.45252945762091
 30
0.0
  0
LINE
  5
19DE
330
2
100
AcDbEntity
  8
PART
  6
SLD-SOLID
100
AcDbLine
 10
10.78194958976946
 20
16.43973612360162
 30
0.0
 11
10.78194958976946
 21
16.34450489578929
 31
0.0
  0
LINE
  5
19DF
330
2
100
AcDbEntity
  8
PART
  6
SLD-SOLID
100
AcDbLine
 10
10.78194958976946
 20
16.34450489578929
 30
0.0
 11
10.76816597681258
 21
16.35828850874617
 31
0.0
  0
SPLINE
  5
19E0
330
2
100
AcDbEntity
  8
PART
  6
SLD-SOLID
100
AcDbSpline
210
0.0
220
0.0
230
1.0
 70
     8
 71
     3
 72
     9
 73
     5
 74
     0
 42
0.0000000001
 43
0.0000000001
 40
0.0
 40
0.0
 40
0.0
 40
0.0
 40
0.4998244189333219
 40
0.9999999999999998
 40
0.9999999999999998
 40
0.9999999999999998
 40
0.9999999999999998
 10
10.78390992291081
 20
16.43973612360162
 30
0.0
 10
10.78618268463913
 20
16.44194521248587
 30
0.0
 10
10.79072980487221
 20
16.44636494229609
 30
0.0
 10
10.79537174884422
 20
16.45047413818131
 30
0.0
 10
10.7976935358677
 20
16.45252945762091
 30
0.0
  0
ARC
  5
19E1
330
2
100
AcDbEntity
  8
PART
  6
SLD-SOLID
100
AcDbCircle
 10
10.78292975634014
 20
16.3435247292186
 30
0.0
 40
0.096216387043118
100
AcDbArc
 50
89.41631170287577
 51
90.58368829712424
  0
LINE
  5
19E2
330
2
100
AcDbEntity
  8
PART
  6
SLD-SOLID
100
AcDbLine
 10
10.78390992291081
 20
16.34450489578929
 30
0.0
 11
10.7976935358677
 21
16.35828850874617
 31
0.0
  0
LINE
  5
19E3
330
2
100
AcDbEntity
  8
PART
  6
SLD-SOLID
100
AcDbLine
 10
10.78390992291081
 20
16.34450489578929
 30
0.0
 11
10.78390992291081
 21
16.43973612360162
 31
0.0
  0
SPLINE
  5
19E4
330
2
100
AcDbEntity
  8
PART
  6
SLD-SOLID
100
AcDbSpline
210
0.0
220
0.0
230
1.0
 70
     8
 71
     3
 72
     9
 73
     5
 74
     0
 42
0.0000000001
 43
0.0000000001
 40
0.0
 40
0.0
 40
0.0
 40
0.0
 40
0.4998244189333344
 40
0.9999999999999998
 40
0.9999999999999998
 40
0.9999999999999998
 40
0.9999999999999998
 10
10.87914115072315
 20
16.34450489578929
 30
0.0
 10
10.88135023960739
 20
16.34677765751761
 30
0.0
 10
10.88576996941762
 20
16.35132477775069
 30
0.0
 10
10.88987916530284
 20
16.35596672172269
 30
0.0
 10
10.89193448474245
 20
16.35828850874617
 30
0.0
  0
LINE
  5
19E5
330
2
100
AcDbEntity
  8
PART
  6
SLD-SOLID
100
AcDbLine
 10
10.87914115072315
 20
16.34450489578929
 30
0.0
 11
10.78390992291081
 21
16.34450489578929
 31
0.0
  0
SPLINE
  5
19E6
330
2
100
AcDbEntity
  8
PART
  6
SLD-SOLID
100
AcDbSpline
210
0.0
220
0.0
230
1.0
 70
     8
 71
     3
 72
     9
 73
     5
 74
     0
 42
0.0000000001
 43
0.0000000001
 40
0.0
 40
0.0
 40
0.0
 40
0.0
 40
0.4998244189333344
 40
0.9999999999999998
 40
0.9999999999999998
 40
0.9999999999999998
 40
0.9999999999999998
 10
10.68671836195712
 20
16.34450489578929
 30
0.0
 10
10.68450927307288
 20
16.34677765751761
 30
0.0
 10
10.68008954326265
 20
16.35132477775069
 30
0.0
 10
10.67598034737743
 20
16.35596672172269
 30
0.0
 10
10.67392502793782
 20
16.35828850874617
 30
0.0
  0
ARC
  5
19E7
330
2
100
AcDbEntity
  8
PART
  6
SLD-SOLID
100
AcDbCircle
 10
10.78292975634014
 20
16.3435247292186
 30
0.0
 40
0.0962163870431162
100
AcDbArc
 50
179.4163117028746
 51
180.5836882971239
  0
SPLINE
  5
19E8
330
2
100
AcDbEntity
  8
PART
  6
SLD-SOLID
100
AcDbSpline
210
0.0
220
0.0
230
1.0
 70
     8
 71
     3
 72
     9
 73
     5
 74
     0
 42
0.0000000001
 43
0.0000000001
 40
0.0
 40
0.0
 40
0.0
 40
0.0
 40
0.4998244189333293
 40
1.0
 40
1.0
 40
1.0
 40
1.0
 10
10.68671836195712
 20
16.34254456264793
 30
0.0
 10
10.68450927307288
 20
16.34027180091961
 30
0.0
 10
10.68008954326265
 20
16.33572468068653
 30
0.0
 10
10.67598034737743
 20
16.33108273671452
 30
0.0
 10
10.67392502793782
 20
16.32876094969105
 30
0.0
  0
SPLINE
  5
19E9
330
2
100
AcDbEntity
  8
PART
  6
SLD-SOLID
100
AcDbSpline
210
0.0
220
0.0
230
1.0
 70
     8
 71
     3
 72
     9
 73
     5
 74
     0
 42
0.0000000001
 43
0.0000000001
 40
0.0
 40
0.0
 40
0.0
 40
0.0
 40
0.4998244189333344
 40
0.9999999999999998
 40
0.9999999999999998
 40
0.9999999999999998
 40
0.9999999999999998
 10
10.87914115072315
 20
16.34254456264793
 30
0.0
 10
10.88135023960739
 20
16.34027180091961
 30
0.0
 10
10.88576996941762
 20
16.33572468068653
 30
0.0
 10
10.88987916530284
 20
16.33108273671452
 30
0.0
 10
10.89193448474245
 20
16.32876094969105
 30
0.0
  0
ARC
  5
19EA
330
2
100
AcDbEntity
  8
PART
  6
SLD-SOLID
100
AcDbCircle
 10
10.78292975634014
 20
16.3435247292186
 30
0.0
 40
0.0962163870431162
100
AcDbArc
 50
359.4163117028776
 51
0.5836882971253547
  0
LINE
  5
19EB
330
2
100
AcDbEntity
  8
PART
  6
SLD-SOLID
100
AcDbLine
 10
10.78194958976946
 20
16.34450489578929
 30
0.0
 11
10.68671836195712
 21
16.34450489578929
 31
0.0
  0
LINE
  5
19EC
330
2
100
AcDbEntity
  8
PART
  6
SLD-SOLID
100
AcDbLine
 10
10.78390992291081
 20
16.34254456264793
 30
0.0
 11
10.7976935358677
 21
16.32876094969105
 31
0.0
  0
LINE
  5
19ED
330
2
100
AcDbEntity
  8
PART
  6
SLD-SOLID
100
AcDbLine
 10
10.78390992291081
 20
16.34254456264793
 30
0.0
 11
10.87914115072315
 21
16.34254456264793
 31
0.0
  0
LINE
  5
19EE
330
2
100
AcDbEntity
  8
PART
  6
SLD-SOLID
100
AcDbLine
 10
10.68671836195712
 20
16.34254456264793
 30
0.0
 11
10.78194958976946
 21
16.34254456264793
 31
0.0
  0
LINE
  5
19EF
330
2
100
AcDbEntity
  8
PART
  6
SLD-SOLID
100
AcDbLine
 10
10.78194958976946
 20
16.34254456264793
 30
0.0
 11
10.76816597681258
 21
16.32876094969105
 31
0.0
  0
SPLINE
  5
19F0
330
2
100
AcDbEntity
  8
PART
  6
SLD-SOLID
100
AcDbSpline
210
0.0
220
0.0
230
1.0
 70
     8
 71
     3
 72
     9
 73
     5
 74
     0
 42
0.0000000001
 43
0.0000000001
 40
0.0
 40
0.0
 40
0.0
 40
0.0
 40
0.4998244189333219
 40
0.9999999999999998
 40
0.9999999999999998
 40
0.9999999999999998
 40
0.9999999999999998
 10
10.78390992291081
 20
16.24731333483559
 30
0.0
 10
10.78618268463913
 20
16.24510424595135
 30
0.0
 10
10.79072980487221
 20
16.24068451614112
 30
0.0
 10
10.79537174884422
 20
16.2365753202559
 30
0.0
 10
10.7976935358677
 20
16.23452000081629
 30
0.0
  0
LINE
  5
19F1
330
2
100
AcDbEntity
  8
PART
  6
SLD-SOLID
100
AcDbLine
 10
10.78390992291081
 20
16.24731333483559
 30
0.0
 11
10.78390992291081
 21
16.34254456264793
 31
0.0
  0
LINE
  5
19F2
330
2
100
AcDbEntity
  8
PART
  6
SLD-SOLID
100
AcDbLine
 10
10.78194958976946
 20
16.34254456264793
 30
0.0
 11
10.78194958976946
 21
16.24731333483559
 31
0.0
  0
SPLINE
  5
19F3
330
2
100
AcDbEntity
  8
PART
  6
SLD-SOLID
100
AcDbSpline
210
0.0
220
0.0
230
1.0
 70
     8
 71
     3
 72
     9
 73
     5
 74
     0
 42
0.0000000001
 43
0.0000000001
 40
0.0
 40
0.0
 40
0.0
 40
0.0
 40
0.4998244189333219
 40
0.9999999999999998
 40
0.9999999999999998
 40
0.9999999999999998
 40
0.9999999999999998
 10
10.78194958976946
 20
16.24731333483559
 30
0.0
 10
10.77967682804114
 20
16.24510424595135
 30
0.0
 10
10.77512970780806
 20
16.24068451614112
 30
0.0
 10
10.77048776383605
 20
16.2365753202559
 30
0.0
 10
10.76816597681258
 20
16.23452000081629
 30
0.0
  0
ARC
  5
19F4
330
2
100
AcDbEntity
  8
PART
  6
SLD-SOLID
100
AcDbCircle
 10
10.78292975634014
 20
16.3435247292186
 30
0.0
 40
0.0962163870431144
100
AcDbArc
 50
269.4163117028765
 51
270.583688297125
  0
ARC
  5
19F5
330
2
100
AcDbEntity
  8
PART
  6
SLD-SOLID
100
AcDbCircle
 10
10.78292975634014
 20
17.2185247292186
 30
0.0
 40
0.4000000000000004
100
AcDbArc
 50
0.0
 51
180.0
  0
LINE
  5
19F6
330
2
100
AcDbEntity
  8
PART
  6
SLD-SOLID
100
AcDbLine
 10
10.38292975634014
 20
17.2185247292186
 30
0.0
 11
10.33292975634013
 21
17.2185247292186
 31
0.0
  0
ARC
  5
19F7
330
2
100
AcDbEntity
  8
PART
  6
SLD-SOLID
100
AcDbCircle
 10
10.78292975634014
 20
17.2185247292186
 30
0.0
 40
0.4500000000000011
100
AcDbArc
 50
0.0
 51
180.0
  0
LINE
  5
19F8
330
2
100
AcDbEntity
  8
PART
  6
SLD-SOLID
100
AcDbLine
 10
11.18292975634014
 20
17.2185247292186
 30
0.0
 11
11.23292975634014
 21
17.2185247292186
 31
0.0
  0
LINE
  5
19F9
330
2
100
AcDbEntity
  8
PART
  6
SLD-SOLID
100
AcDbLine
 10
10.38292975634014
 20
15.59352472921861
 30
0.0
 11
11.18292975634014
 21
15.59352472921861
 31
0.0
  0
LINE
  5
19FA
330
2
100
AcDbEntity
  8
PART
  6
SLD-SOLID
100
AcDbLine
 10
10.63292975634013
 20
17.24852472921861
 30
0.0
 11
10.63292975634013
 21
17.1885247292186
 31
0.0
  0
ARC
  5
19FB
330
2
100
AcDbEntity
  8
PART
  6
SLD-SOLID
100
AcDbCircle
 10
10.66292975634014
 20
17.1885247292186
 30
0.0
 40
0.0300000000000011
100
AcDbArc
 50
180.0
 51
270.0000000000008
  0
LINE
  5
19FC
330
2
100
AcDbEntity
  8
PART
  6
SLD-SOLID
100
AcDbLine
 10
10.66292975634014
 20
17.15852472921861
 30
0.0
 11
10.90292975634014
 21
17.15852472921861
 31
0.0
  0
ARC
  5
19FD
330
2
100
AcDbEntity
  8
PART
  6
SLD-SOLID
100
AcDbCircle
 10
10.90292975634014
 20
17.1885247292186
 30
0.0
 40
0.0299999999999994
100
AcDbArc
 50
270.0000000000008
 51
0.0
  0
LINE
  5
19FE
330
2
100
AcDbEntity
  8
PART
  6
SLD-SOLID
100
AcDbLine
 10
10.93292975634014
 20
17.1885247292186
 30
0.0
 11
10.93292975634014
 21
17.24852472921861
 31
0.0
  0
ARC
  5
19FF
330
2
100
AcDbEntity
  8
PART
  6
SLD-SOLID
100
AcDbCircle
 10
10.90292975634014
 20
17.24852472921861
 30
0.0
 40
0.0300000000000047
100
AcDbArc
 50
0.0
 51
90.0
  0
LINE
  5
1A00
330
2
100
AcDbEntity
  8
PART
  6
SLD-SOLID
100
AcDbLine
 10
10.90292975634014
 20
17.27852472921861
 30
0.0
 11
10.66292975634014
 21
17.27852472921861
 31
0.0
  0
ARC
  5
1A01
330
2
100
AcDbEntity
  8
PART
  6
SLD-SOLID
100
AcDbCircle
 10
10.66292975634014
 20
17.24852472921861
 30
0.0
 40
0.0300000000000047
100
AcDbArc
 50
90.0
 51
180.0
  0
LINE
  5
1A02
330
2
100
AcDbEntity
  8
PART
  6
SLD-SOLID
100
AcDbLine
 10
10.38292975634014
 20
15.59352472921861
 30
0.0
 11
10.33292975634013
 21
15.59352472921861
 31
0.0
  0
LINE
  5
1A03
330
2
100
AcDbEntity
  8
PART
  6
SLD-SOLID
100
AcDbLine
 10
10.33292975634013
 20
15.59352472921861
 30
0.0
 11
10.33292975634013
 21
16.52100504417971
 31
0.0
  0
LINE
  5
1A04
330
2
100
AcDbEntity
  8
PART
  6
SLD-SOLID
100
AcDbLine
 10
10.33292975634013
 20
16.59352472921876
 30
0.0
 11
10.33292975634013
 21
17.2185247292186
 31
0.0
  0
LINE
  5
1A05
330
2
100
AcDbEntity
  8
PART
  6
SLD-SOLID
100
AcDbLine
 10
11.23292975634014
 20
17.2185247292186
 30
0.0
 11
11.23292975634014
 21
16.59352472921876
 31
0.0
  0
LINE
  5
1A06
330
2
100
AcDbEntity
  8
PART
  6
SLD-SOLID
100
AcDbLine
 10
11.23292975634014
 20
16.52100504417971
 30
0.0
 11
11.23292975634014
 21
15.59352472921861
 31
0.0
  0
LINE
  5
1A07
330
2
100
AcDbEntity
  8
PART
  6
SLD-SOLID
100
AcDbLine
 10
11.23292975634014
 20
15.59352472921861
 30
0.0
 11
11.18292975634014
 21
15.59352472921861
 31
0.0
  0
LINE
  5
1A08
330
2
100
AcDbEntity
  8
PART
  6
SLD-SOLID
100
AcDbLine
 10
16.47147306538027
 20
12.4726596123309
 30
0.0
 11
9.164386447299998
 21
12.4726596123309
 31
0.0
  0
LINE
  5
1A09
330
2
100
AcDbEntity
  8
PART
  6
SLD-SOLID
100
AcDbLine
 10
16.47147306538027
 20
12.49131504524144
 30
0.0
 11
9.164386447299998
 21
12.49131504524144
 31
0.0
  0
LINE
  5
1A0A
330
2
100
AcDbEntity
  8
PART
  6
SLD-SOLID
100
AcDbLine
 10
16.47147306538027
 20
12.4726596123309
 30
0.0
 11
16.47147306538027
 21
12.49131504524144
 31
0.0
  0
LINE
  5
1A0B
330
2
100
AcDbEntity
  8
PART
  6
SLD-SOLID
100
AcDbLine
 10
9.164386447299998
 20
12.49131504524144
 30
0.0
 11
9.164386447299998
 21
12.4726596123309
 31
0.0
  0
LINE
  5
1A0C
330
2
100
AcDbEntity
  8
PART
  6
SLD-SOLID
100
AcDbLine
 10
16.47147306538027
 20
12.46565961233091
 30
0.0
 11
9.164386447299998
 21
12.46565961233091
 31
0.0
  0
LINE
  5
1A0D
330
2
100
AcDbEntity
  8
PART
  6
SLD-SOLID
100
AcDbLine
 10
16.47147306538027
 20
12.46565961233091
 30
0.0
 11
16.47147306538027
 21
12.4726596123309
 31
0.0
  0
LINE
  5
1A0E
330
2
100
AcDbEntity
  8
PART
  6
SLD-SOLID
100
AcDbLine
 10
9.164386447299998
 20
12.4726596123309
 30
0.0
 11
9.164386447299998
 21
12.46565961233091
 31
0.0
  0
LINE
  5
1A0F
330
2
100
AcDbEntity
  8
PART
  6
SLD-SOLID
100
AcDbLine
 10
9.164386447299998
 20
12.50045344832866
 30
0.0
 11
16.47147306538027
 21
12.50045344832866
 31
0.0
  0
LINE
  5
1A10
330
2
100
AcDbEntity
  8
PART
  6
SLD-SOLID
100
AcDbLine
 10
16.47147306538027
 20
12.50045344832866
 30
0.0
 11
16.47147306538027
 21
12.49131504524144
 31
0.0
  0
LINE
  5
1A11
330
2
100
AcDbEntity
  8
PART
  6
SLD-SOLID
100
AcDbLine
 10
9.164386447299998
 20
12.49131504524144
 30
0.0
 11
9.164386447299998
 21
12.50045344832866
 31
0.0
  0
CIRCLE
  5
1A12
330
2
100
AcDbEntity
  8
PART
  6
SLD-SOLID
100
AcDbCircle
 10
15.47147306342678
 20
13.19103492306314
 30
0.0
 40
0.0885000000000016
  0
CIRCLE
  5
1A13
330
2
100
AcDbEntity
  8
PART
  6
SLD-SOLID
100
AcDbCircle
 10
10.16438644925352
 20
13.19103492306314
 30
0.0
 40
0.0885000000000016
  0
LINE
  5
1A14
330
2
100
AcDbEntity
  8
PART
  6
SLD-SOLID
100
AcDbLine
 10
14.32890322394347
 20
13.09960917414378
 30
0.0
 11
14.41724485703385
 21
12.94659697720762
 31
0.0
  0
ARC
  5
1A15
330
2
100
AcDbEntity
  8
PART
  6
SLD-SOLID
100
AcDbCircle
 10
14.45592380411737
 20
12.9416030756757
 30
0.0
 40
0.0390000000000007
100
AcDbArc
 50
172.643148027098
 51
307.3568519729038
  0
LINE
  5
1A16
330
2
100
AcDbEntity
  8
PART
  6
SLD-SOLID
100
AcDbLine
 10
14.47958812324977
 20
12.9106030756757
 30
0.0
 11
14.65627138943054
 21
12.9106030756757
 31
0.0
  0
ARC
  5
1A17
330
2
100
AcDbEntity
  8
PART
  6
SLD-SOLID
100
AcDbCircle
 10
14.67993570856295
 20
12.9416030756757
 30
0.0
 40
0.0390000000000061
100
AcDbArc
 50
232.6431480270872
 51
7.356851972901952
  0
LINE
  5
1A18
330
2
100
AcDbEntity
  8
PART
  6
SLD-SOLID
100
AcDbLine
 10
14.71861465564647
 20
12.94659697720762
 30
0.0
 11
14.80695628873686
 21
13.09960917414378
 31
0.0
  0
ARC
  5
1A19
330
2
100
AcDbEntity
  8
PART
  6
SLD-SOLID
100
AcDbCircle
 10
14.79194166078574
 20
13.1356030756757
 30
0.0
 40
0.0389999999999994
100
AcDbArc
 50
292.6431480270968
 51
67.35685197290395
  0
LINE
  5
1A1A
330
2
100
AcDbEntity
  8
PART
  6
SLD-SOLID
100
AcDbLine
 10
14.80695628873686
 20
13.17159697720762
 30
0.0
 11
14.71861465564647
 21
13.32460917414378
 31
0.0
  0
ARC
  5
1A1B
330
2
100
AcDbEntity
  8
PART
  6
SLD-SOLID
100
AcDbCircle
 10
14.67993570856295
 20
13.3296030756757
 30
0.0
 40
0.0390000000000047
100
AcDbArc
 50
352.6431480270963
 51
127.3568519729151
  0
LINE
  5
1A1C
330
2
100
AcDbEntity
  8
PART
  6
SLD-SOLID
100
AcDbLine
 10
14.65627138943054
 20
13.3606030756757
 30
0.0
 11
14.47958812324977
 21
13.3606030756757
 31
0.0
  0
ARC
  5
1A1D
330
2
100
AcDbEntity
  8
PART
  6
SLD-SOLID
100
AcDbCircle
 10
14.45592380411737
 20
13.3296030756757
 30
0.0
 40
0.0389999999999996
100
AcDbArc
 50
52.64314802709526
 51
187.3568519729027
  0
LINE
  5
1A1E
330
2
100
AcDbEntity
  8
PART
  6
SLD-SOLID
100
AcDbLine
 10
14.41724485703385
 20
13.32460917414378
 30
0.0
 11
14.32890322394347
 21
13.17159697720762
 31
0.0
  0
ARC
  5
1A1F
330
2
100
AcDbEntity
  8
PART
  6
SLD-SOLID
100
AcDbCircle
 10
14.34391785189458
 20
13.1356030756757
 30
0.0
 40
0.0389999999999987
100
AcDbArc
 50
112.6431480270936
 51
247.3568519729071
  0
LINE
  5
1A20
330
2
100
AcDbEntity
  8
PART
  6
SLD-SOLID
100
AcDbLine
 10
10.91724485703383
 20
13.32460917414378
 30
0.0
 11
10.82890322394344
 21
13.17159697720762
 31
0.0
  0
ARC
  5
1A21
330
2
100
AcDbEntity
  8
PART
  6
SLD-SOLID
100
AcDbCircle
 10
10.84391785189456
 20
13.1356030756757
 30
0.0
 40
0.0389999999999994
100
AcDbArc
 50
112.643148027096
 51
247.3568519729071
  0
LINE
  5
1A22
330
2
100
AcDbEntity
  8
PART
  6
SLD-SOLID
100
AcDbLine
 10
10.82890322394344
 20
13.09960917414378
 30
0.0
 11
10.91724485703383
 21
12.94659697720762
 31
0.0
  0
ARC
  5
1A23
330
2
100
AcDbEntity
  8
PART
  6
SLD-SOLID
100
AcDbCircle
 10
10.95592380411735
 20
12.9416030756757
 30
0.0
 40
0.039000000000005
100
AcDbArc
 50
172.643148027098
 51
307.3568519729121
  0
LINE
  5
1A24
330
2
100
AcDbEntity
  8
PART
  6
SLD-SOLID
100
AcDbLine
 10
10.97958812324975
 20
12.9106030756757
 30
0.0
 11
11.15627138943053
 21
12.9106030756757
 31
0.0
  0
ARC
  5
1A25
330
2
100
AcDbEntity
  8
PART
  6
SLD-SOLID
100
AcDbCircle
 10
11.17993570856293
 20
12.9416030756757
 30
0.0
 40
0.0390000000000018
100
AcDbArc
 50
232.6431480270955
 51
7.356851972899285
  0
LINE
  5
1A26
330
2
100
AcDbEntity
  8
PART
  6
SLD-SOLID
100
AcDbLine
 10
11.21861465564645
 20
12.94659697720762
 30
0.0
 11
11.30695628873684
 21
13.09960917414378
 31
0.0
  0
ARC
  5
1A27
330
2
100
AcDbEntity
  8
PART
  6
SLD-SOLID
100
AcDbCircle
 10
11.29194166078572
 20
13.1356030756757
 30
0.0
 40
0.0390000000000001
100
AcDbArc
 50
292.6431480270992
 51
67.35685197290159
  0
LINE
  5
1A28
330
2
100
AcDbEntity
  8
PART
  6
SLD-SOLID
100
AcDbLine
 10
11.30695628873684
 20
13.17159697720762
 30
0.0
 11
11.21861465564645
 21
13.32460917414378
 31
0.0
  0
ARC
  5
1A29
330
2
100
AcDbEntity
  8
PART
  6
SLD-SOLID
100
AcDbCircle
 10
11.17993570856293
 20
13.3296030756757
 30
0.0
 40
0.0390000000000021
100
AcDbArc
 50
352.6431480270988
 51
127.3568519729015
  0
LINE
  5
1A2A
330
2
100
AcDbEntity
  8
PART
  6
SLD-SOLID
100
AcDbLine
 10
11.15627138943053
 20
13.3606030756757
 30
0.0
 11
10.97958812324975
 21
13.3606030756757
 31
0.0
  0
ARC
  5
1A2B
330
2
100
AcDbEntity
  8
PART
  6
SLD-SOLID
100
AcDbCircle
 10
10.95592380411735
 20
13.3296030756757
 30
0.0
 40
0.0390000000000064
100
AcDbArc
 50
52.64314802709016
 51
187.3568519729027
  0
CIRCLE
  5
1A2C
330
2
100
AcDbEntity
  8
PART
  6
SLD-SOLID
100
AcDbCircle
 10
16.04627621303308
 20
13.20769795756551
 30
0.0
 40
0.1669999999999998
  0
LINE
  5
1A2D
330
2
100
AcDbEntity
  8
PART
  6
SLD-SOLID
100
AcDbLine
 10
12.42092975634015
 20
16.59352472921876
 30
0.0
 11
12.42092975634015
 21
16.52100504417971
 31
0.0
  0
LINE
  5
1A2E
330
2
100
AcDbEntity
  8
PART
  6
SLD-SOLID
100
AcDbLine
 10
12.42092975634015
 20
16.52100504417971
 30
0.0
 11
10.02563255948974
 21
16.52100504417971
 31
0.0
  0
ARC
  5
1A2F
330
2
100
AcDbEntity
  8
PART
  6
SLD-SOLID
100
AcDbCircle
 10
10.02563255948974
 20
16.38289480795922
 30
0.0
 40
0.1381102362204842
100
AcDbArc
 50
90.0
 51
154.7793901314457
  0
ARC
  5
1A30
330
2
100
AcDbEntity
  8
PART
  6
SLD-SOLID
100
AcDbCircle
 10
9.865173850828327
 20
16.27856409929781
 30
0.0
 40
0.1670000000000019
100
AcDbArc
 50
77.72179952897712
 51
277.690576081489
  0
LINE
  5
1A31
330
2
100
AcDbEntity
  8
PART
  6
SLD-SOLID
100
AcDbLine
 10
9.887522323269269
 20
16.11306622686569
 30
0.0
 11
9.887522323269269
 21
13.7057294536285
 31
0.0
  0
ARC
  5
1A32
330
2
100
AcDbEntity
  8
PART
  6
SLD-SOLID
100
AcDbCircle
 10
10.02563255948974
 20
13.7057294536285
 30
0.0
 40
0.1381102362204736
100
AcDbArc
 50
180.0
 51
270.0000000000008
  0
LINE
  5
1A33
330
2
100
AcDbEntity
  8
PART
  6
SLD-SOLID
100
AcDbLine
 10
10.02563255948974
 20
13.56761921740803
 30
0.0
 11
15.61022695319056
 21
13.56761921740803
 31
0.0
  0
ARC
  5
1A34
330
2
100
AcDbEntity
  8
PART
  6
SLD-SOLID
100
AcDbCircle
 10
15.61022695319056
 20
13.7057294536285
 30
0.0
 40
0.1381102362204736
100
AcDbArc
 50
270.0000000000008
 51
0.0
  0
LINE
  5
1A35
330
2
100
AcDbEntity
  8
PART
  6
SLD-SOLID
100
AcDbLine
 10
15.74833718941103
 20
13.7057294536285
 30
0.0
 11
15.74833718941103
 21
16.11306622686569
 31
0.0
  0
ARC
  5
1A36
330
2
100
AcDbEntity
  8
PART
  6
SLD-SOLID
100
AcDbCircle
 10
15.77068566185197
 20
16.27856409929781
 30
0.0
 40
0.1670000000000023
100
AcDbArc
 50
262.3094239185125
 51
102.2782004710226
  0
ARC
  5
1A37
330
2
100
AcDbEntity
  8
PART
  6
SLD-SOLID
100
AcDbCircle
 10
15.61022695319056
 20
16.38289480795922
 30
0.0
 40
0.1381102362204842
100
AcDbArc
 50
25.22060986855561
 51
90.0
  0
LINE
  5
1A38
330
2
100
AcDbEntity
  8
PART
  6
SLD-SOLID
100
AcDbLine
 10
15.61022695319056
 20
16.52100504417971
 30
0.0
 11
13.21492975634015
 21
16.52100504417971
 31
0.0
  0
LINE
  5
1A39
330
2
100
AcDbEntity
  8
PART
  6
SLD-SOLID
100
AcDbLine
 10
13.21492975634015
 20
16.59352472921876
 30
0.0
 11
13.21492975634015
 21
16.52100504417971
 31
0.0
  0
CIRCLE
  5
1A3A
330
2
100
AcDbEntity
  8
PART
  6
SLD-SOLID
100
AcDbCircle
 10
9.589583299647223
 20
13.20769795756551
 30
0.0
 40
0.1669999999999998
  0
SPLINE
  5
1A3B
330
2
100
AcDbEntity
  8
PART
  6
SLD-SOLID
100
AcDbSpline
210
0.0
220
0.0
230
1.0
 70
     8
 71
     3
 72
     9
 73
     5
 74
     0
 42
0.0000000001
 43
0.0000000001
 40
0.0
 40
0.0
 40
0.0
 40
0.0
 40
0.500000000328051
 40
1.0
 40
1.0
 40
1.0
 40
1.0
 10
9.164386447299985
 20
12.70310307567538
 30
0.0
 10
9.246688289734329
 20
13.35149242116168
 30
0.0
 10
9.411291974495021
 20
14.64827111128347
 30
0.0
 10
9.5754455403804
 20
15.94510685685725
 30
0.0
 10
9.657522323269237
 20
16.59352472921872
 30
0.0
  0
SPLINE
  5
1A3C
330
2
100
AcDbEntity
  8
PART
  6
SLD-SOLID
100
AcDbSpline
210
0.0
220
0.0
230
1.0
 70
     8
 71
     3
 72
    70
 73
    66
 74
     0
 42
0.0000000001
 43
0.0000000001
 40
0.0
 40
0.0
 40
0.0
 40
0.0
 40
0.0216294035403926
 40
0.042903707917394
 40
0.0638229131312162
 40
0.0843870191820812
 40
0.1045960260702234
 40
0.1244499337958892
 40
0.1428440906637535
 40
0.1609225716235592
 40
0.1786853766755485
 40
0.1961325058199768
 40
0.2132639590571135
 40
0.2300797363872429
 40
0.2465798378106659
 40
0.2627642633277012
 40
0.2786330129386861
 40
0.2941860866439787
 40
0.3091541562585614
 40
0.3238177234457307
 40
0.338176788205894
 40
0.3522313505394851
 40
0.3662285930013423
 40
0.3799101595601579
 40
0.3932760502164904
 40
0.4063262649709392
 40
0.4190608038241482
 40
0.4312606695707853
 40
0.4431560328949298
 40
0.4547468937973451
 40
0.4660332522788557
 40
0.4758530457530693
 40
0.4854300917630372
 40
0.4947643903095005
 40
0.5038837810403805
 40
0.5131457300043689
 40
0.5226525439009757
 40
0.5324042227308263
 40
0.5424007664945002
 40
0.5540992937836
 40
0.5661162505898033
 40
0.5784516369137918
 40
0.5911054527561949
 40
0.6040776981175961
 40
0.6171282471678205
 40
0.6304859547952465
 40
0.644150821000319
 40
0.6581228457834538
 40
0.675156698830541
 40
0.6926258673238895
 40
0.7105303512640658
 40
0.7288701506515959
 40
0.7476452654869697
 40
0.766855695770643
 40
0.786501441503042
 40
0.8065825026845645
 40
0.827098879315584
 40
0.8480505713964497
 40
0.86943757892749
 40
0.8912599019090137
 40
0.9122339484228289
 40
0.9335949814886232
 40
0.955343001106614
 40
0.9774780072770077
 40
1.0
 40
1.0
 40
1.0
 40
1.0
 10
15.97833718941104
 20
16.59352472921876
 30
0.0
 10
15.98188767206699
 20
16.56547493803078
 30
0.0
 10
15.98893034758746
 20
16.50983586106661
 30
0.0
 10
15.99940724868737
 20
16.42706804456042
 30
0.0
 10
16.00970951859885
 20
16.3456817744392
 30
0.0
 10
16.01983717935266
 20
16.26567705349156
 30
0.0
 10
16.02979022518905
 20
16.18705388098843
 30
0.0
 10
16.03938730351772
 20
16.11124480618311
 30
0.0
 10
16.04863486826995
 20
16.0381987013711
 30
0.0
 10
16.05753937336572
 20
15.9678644388463
 30
0.0
 10
16.06628865041016
 20
15.89875834482627
 30
0.0
 10
16.07488269940574
 20
15.83088041931135
 30
0.0
 10
16.08332152034592
 20
15.76423066230068
 30
0.0
 10
16.09160511322609
 20
15.69880907379369
 30
0.0
 10
16.09973347804065
 20
15.63461565378966
 30
0.0
 10
16.10770661478365
 20
15.57165040228783
 30
0.0
 10
16.11552452344894
 20
15.50991331928744
 30
0.0
 10
16.12314297320337
 20
15.44975367671598
 30
0.0
 10
16.13056379298957
 20
15.39115698374701
 30
0.0
 10
16.13778881141802
 20
15.33410874951198
 30
0.0
 10
16.1448640961042
 20
15.27824521224969
 30
0.0
 10
16.15183024774475
 20
15.22324581993033
 30
0.0
 10
16.15868543752756
 20
15.16912506339692
 30
0.0
 10
16.16542783714104
 20
15.11589743355595
 30
0.0
 10
16.17201500860204
 20
15.06389797220686
 30
0.0
 10
16.17844695189699
 20
15.01312667934793
 30
0.0
 10
16.18468768656565
 20
14.96386755441982
 30
0.0
 10
16.19073904103529
 20
14.91610610653067
 30
0.0
 10
16.19660284322729
 20
14.8698278447244
 30
0.0
 10
16.20231691154666
 20
14.82473427987427
 30
0.0
 10
16.20769027492746
 20
14.78233238912312
 30
0.0
 10
16.21273303610736
 20
14.74254208205833
 30
0.0
 10
16.21745529744026
 20
14.70528326821782
 30
0.0
 10
16.222062765795
 20
14.66893278459098
 30
0.0
 10
16.22661879034694
 20
14.63299096563512
 30
0.0
 10
16.23120349618081
 20
14.59682546852814
 30
0.0
 10
16.23589245430053
 20
14.55984005591237
 30
0.0
 10
16.24070248479624
 20
14.52190205610862
 30
0.0
 10
16.24587317685964
 20
14.48112187607527
 30
0.0
 10
16.25141667677911
 20
14.43740412355742
 30
0.0
 10
16.25734512965121
 20
14.39065340614985
 30
0.0
 10
16.26343102824506
 20
14.34266391648306
 30
0.0
 10
16.26967437257225
 20
14.2934356545585
 30
0.0
 10
16.27603566820062
 20
14.24328001438828
 30
0.0
 10
16.28251305441667
 20
14.19221161119645
 30
0.0
 10
16.28910467103667
 20
14.14024506027417
 30
0.0
 10
16.29584816059099
 20
14.087083583951
 30
0.0
 10
16.30319667732451
 20
14.02915495047007
 30
0.0
 10
16.31117137282544
 20
13.96629297590428
 30
0.0
 10
16.31979339888433
 20
13.89833147635301
 30
0.0
 10
16.32863066435592
 20
13.82867648842091
 30
0.0
 10
16.33768316925185
 20
13.75732801210946
 30
0.0
 10
16.34695091358818
 20
13.68428604742069
 30
0.0
 10
16.35643389737797
 20
13.60955059435625
 30
0.0
 10
16.3661321206337
 20
13.53312165291771
 30
0.0
 10
16.37604558336605
 20
13.45499922310642
 30
0.0
 10
16.38617428558727
 20
13.37518330492392
 30
0.0
 10
16.39651822729927
 20
13.29367389837047
 30
0.0
 10
16.40707740853961
 20
13.21047100345081
 30
0.0
 10
16.41764057825657
 20
13.12723915897605
 30
0.0
 10
16.42819976220554
 20
13.04404103440433
 30
0.0
 10
16.43874698591289
 20
12.96093929916456
 30
0.0
 10
16.4494855576385
 20
12.87633208789561
 30
0.0
 10
16.46041545585199
 20
12.79021939786462
 30
0.0
 10
16.46776596297612
 20
12.73230912844863
 30
0.0
 10
16.47147306538028
 20
12.70310307567542
 30
0.0
  0
LINE
  5
1A3D
330
2
100
AcDbEntity
  8
PART
  6
SLD-SOLID
100
AcDbLine
 10
13.21492975634015
 20
16.59352472921876
 30
0.0
 11
15.97833718941105
 21
16.59352472921876
 31
0.0
  0
LINE
  5
1A3E
330
2
100
AcDbEntity
  8
PART
  6
SLD-SOLID
100
AcDbLine
 10
9.657522323269255
 20
16.59352472921876
 30
0.0
 11
12.42092975634015
 21
16.59352472921876
 31
0.0
  0
LINE
  5
1A3F
330
2
100
AcDbEntity
  8
PART
  6
SLD-SOLID
100
AcDbLine
 10
16.47147306538027
 20
12.70310307567542
 30
0.0
 11
16.47147306538027
 21
12.50045344832866
 31
0.0
  0
LINE
  5
1A40
330
2
100
AcDbEntity
  8
PART
  6
SLD-SOLID
100
AcDbLine
 10
9.164386447299998
 20
12.50045344832866
 30
0.0
 11
9.164386447299998
 21
12.70310307567537
 31
0.0
  0
LINE
  5
1A41
330
2
100
AcDbEntity
  8
PART
  6
SLD-SOLID
100
AcDbLine
 10
10.32292975634013
 20
16.52100504417971
 30
0.0
 11
10.32292975634013
 21
14.96852472921863
 31
0.0
  0
ARC
  5
1A42
330
2
100
AcDbEntity
  8
PART
  6
SLD-SOLID
100
AcDbCircle
 10
10.78292975634013
 20
14.96852472921863
 30
0.0
 40
0.460000000000008
100
AcDbArc
 50
180.0
 51
0.0
  0
LINE
  5
1A43
330
2
100
AcDbEntity
  8
PART
  6
SLD-SOLID
100
AcDbLine
 10
11.24292975634014
 20
14.96852472921863
 30
0.0
 11
11.24292975634014
 21
16.52100504417971
 31
0.0
  0
ARC
  5
1A44
330
2
100
AcDbEntity
  8
PART
  6
SLD-SOLID
100
AcDbCircle
 10
15.06838644730003
 20
14.05865961233092
 30
0.0
 40
0.2070000000000043
100
AcDbArc
 50
180.0
 51
0.0
  0
LINE
  5
1A45
330
2
100
AcDbEntity
  8
PART
  6
SLD-SOLID
100
AcDbLine
 10
15.27538644730003
 20
15.40865961233093
 30
0.0
 11
15.27538644730003
 21
14.05865961233092
 31
0.0
  0
ARC
  5
1A46
330
2
100
AcDbEntity
  8
PART
  6
SLD-SOLID
100
AcDbCircle
 10
15.06838644730002
 20
15.40865961233093
 30
0.0
 40
0.2070000000000025
100
AcDbArc
 50
0.0
 51
180.0
  0
LINE
  5
1A47
330
2
100
AcDbEntity
  8
PART
  6
SLD-SOLID
100
AcDbLine
 10
14.86138644730002
 20
14.05865961233092
 30
0.0
 11
14.86138644730002
 21
15.40865961233093
 31
0.0
  0
ARC
  5
1A48
330
2
100
AcDbEntity
  8
PART
  6
SLD-SOLID
100
AcDbCircle
 10
14.06838644730002
 20
14.28365961233092
 30
0.0
 40
0.1820000000000021
100
AcDbArc
 50
180.0
 51
0.0
  0
LINE
  5
1A49
330
2
100
AcDbEntity
  8
PART
  6
SLD-SOLID
100
AcDbLine
 10
14.25038644730002
 20
15.18365961233092
 30
0.0
 11
14.25038644730002
 21
14.28365961233092
 31
0.0
  0
ARC
  5
1A4A
330
2
100
AcDbEntity
  8
PART
  6
SLD-SOLID
100
AcDbCircle
 10
14.06838644730002
 20
15.18365961233092
 30
0.0
 40
0.1820000000000039
100
AcDbArc
 50
0.0
 51
180.0
  0
LINE
  5
1A4B
330
2
100
AcDbEntity
  8
PART
  6
SLD-SOLID
100
AcDbLine
 10
13.88638644730002
 20
14.28365961233092
 30
0.0
 11
13.88638644730002
 21
15.18365961233092
 31
0.0
  0
ARC
  5
1A4C
330
2
100
AcDbEntity
  8
PART
  6
SLD-SOLID
100
AcDbCircle
 10
15.77068566185197
 20
16.27856409929781
 30
0.0
 40
0.1670000000000023
100
AcDbArc
 50
102.2782004710226
 51
262.3094239185125
  0
ARC
  5
1A4D
330
2
100
AcDbEntity
  8
PART
  6
SLD-SOLID
100
AcDbCircle
 10
9.865173850828327
 20
16.27856409929781
 30
0.0
 40
0.167000000000002
100
AcDbArc
 50
277.690576081489
 51
77.72179952897797
  0
LINE
  5
1A4E
330
2
100
AcDbEntity
  8
PART
  6
SLD-SOLID
100
AcDbLine
 10
12.42092975634015
 20
16.59352472921876
 30
0.0
 11
13.21492975634015
 21
16.59352472921876
 31
0.0
  0
ARC
  5
1A4F
330
2
100
AcDbEntity
  8
PART
  6
SLD-SOLID
100
AcDbCircle
 10
15.06838644730002
 20
15.40865961233093
 30
0.0
 40
0.2000000000000011
100
AcDbArc
 50
0.0
 51
180.0
  0
LINE
  5
1A50
330
2
100
AcDbEntity
  8
PART
  6
SLD-SOLID
100
AcDbLine
 10
14.86138644730002
 20
15.40865961233093
 30
0.0
 11
14.86838644730003
 21
15.40865961233093
 31
0.0
  0
LINE
  5
1A51
330
2
100
AcDbEntity
  8
PART
  6
SLD-SOLID
100
AcDbLine
 10
15.26838644730003
 20
15.40865961233093
 30
0.0
 11
15.27538644730003
 21
15.40865961233093
 31
0.0
  0
LINE
  5
1A52
330
2
100
AcDbEntity
  8
PART
  6
SLD-SOLID
100
AcDbLine
 10
15.26838644730003
 20
14.05865961233092
 30
0.0
 11
15.26838644730003
 21
15.40865961233093
 31
0.0
  0
LINE
  5
1A53
330
2
100
AcDbEntity
  8
PART
  6
SLD-SOLID
100
AcDbLine
 10
15.26838644730003
 20
14.05865961233092
 30
0.0
 11
15.27538644730003
 21
14.05865961233092
 31
0.0
  0
LINE
  5
1A54
330
2
100
AcDbEntity
  8
PART
  6
SLD-SOLID
100
AcDbLine
 10
14.86838644730003
 20
15.40865961233093
 30
0.0
 11
14.86838644730003
 21
14.05865961233092
 31
0.0
  0
LINE
  5
1A55
330
2
100
AcDbEntity
  8
PART
  6
SLD-SOLID
100
AcDbLine
 10
14.86138644730002
 20
14.05865961233092
 30
0.0
 11
14.86838644730003
 21
14.05865961233092
 31
0.0
  0
ARC
  5
1A56
330
2
100
AcDbEntity
  8
PART
  6
SLD-SOLID
100
AcDbCircle
 10
14.06838644730002
 20
15.18365961233092
 30
0.0
 40
0.1750000000000007
100
AcDbArc
 50
0.0
 51
180.0
  0
LINE
  5
1A57
330
2
100
AcDbEntity
  8
PART
  6
SLD-SOLID
100
AcDbLine
 10
13.88638644730002
 20
15.18365961233092
 30
0.0
 11
13.89338644730002
 21
15.18365961233092
 31
0.0
  0
LINE
  5
1A58
330
2
100
AcDbEntity
  8
PART
  6
SLD-SOLID
100
AcDbLine
 10
14.24338644730002
 20
15.18365961233092
 30
0.0
 11
14.25038644730002
 21
15.18365961233092
 31
0.0
  0
LINE
  5
1A59
330
2
100
AcDbEntity
  8
PART
  6
SLD-SOLID
100
AcDbLine
 10
14.24338644730002
 20
14.28365961233092
 30
0.0
 11
14.24338644730002
 21
15.18365961233092
 31
0.0
  0
LINE
  5
1A5A
330
2
100
AcDbEntity
  8
PART
  6
SLD-SOLID
100
AcDbLine
 10
14.24338644730002
 20
14.28365961233092
 30
0.0
 11
14.25038644730002
 21
14.28365961233092
 31
0.0
  0
LINE
  5
1A5B
330
2
100
AcDbEntity
  8
PART
  6
SLD-SOLID
100
AcDbLine
 10
13.89338644730002
 20
15.18365961233092
 30
0.0
 11
13.89338644730002
 21
14.28365961233092
 31
0.0
  0
LINE
  5
1A5C
330
2
100
AcDbEntity
  8
PART
  6
SLD-SOLID
100
AcDbLine
 10
13.88638644730002
 20
14.28365961233092
 30
0.0
 11
13.89338644730002
 21
14.28365961233092
 31
0.0
  0
ARC
  5
1A5D
330
2
100
AcDbEntity
  8
PART
  6
SLD-SOLID
100
AcDbCircle
 10
14.06838644730002
 20
14.28365961233092
 30
0.0
 40
0.1750000000000007
100
AcDbArc
 50
180.0
 51
0.0
  0
ARC
  5
1A5E
330
2
100
AcDbEntity
  8
PART
  6
SLD-SOLID
100
AcDbCircle
 10
15.06838644730003
 20
14.05865961233092
 30
0.0
 40
0.2000000000000011
100
AcDbArc
 50
180.0
 51
0.0
  0
CIRCLE
  5
1A5F
330
2
100
AcDbEntity
  8
PART
  6
SLD-SOLID
100
AcDbCircle
 10
11.06792975634014
 20
13.1356030756757
 30
0.0
 40
0.136000000000001
  0
CIRCLE
  5
1A60
330
2
100
AcDbEntity
  8
PART
  6
SLD-SOLID
100
AcDbCircle
 10
14.56792975634016
 20
13.1356030756757
 30
0.0
 40
0.136000000000001
  0
LINE
  5
1A61
330
2
100
AcDbEntity
  8
PART
  6
SLD-SOLID
100
AcDbLine
 10
11.19292975634014
 20
14.96852472921863
 30
0.0
 11
11.24292975634014
 21
14.96852472921863
 31
0.0
  0
LINE
  5
1A62
330
2
100
AcDbEntity
  8
PART
  6
SLD-SOLID
100
AcDbLine
 10
10.37292975634013
 20
14.96852472921863
 30
0.0
 11
10.32292975634013
 21
14.96852472921863
 31
0.0
  0
ARC
  5
1A63
330
2
100
AcDbEntity
  8
PART
  6
SLD-SOLID
100
AcDbCircle
 10
10.78292975634013
 20
14.96852472921863
 30
0.0
 40
0.4100000000000073
100
AcDbArc
 50
180.0
 51
0.0
  0
LINE
  5
1A64
330
2
100
AcDbEntity
  8
PART
  6
SLD-SOLID
100
AcDbLine
 10
11.18292975634014
 20
15.59352472921861
 30
0.0
 11
11.18292975634014
 21
16.52100504417971
 31
0.0
  0
LINE
  5
1A65
330
2
100
AcDbEntity
  8
PART
  6
SLD-SOLID
100
AcDbLine
 10
11.18292975634014
 20
16.59352472921876
 30
0.0
 11
11.18292975634014
 21
17.2185247292186
 31
0.0
  0
LINE
  5
1A66
330
2
100
AcDbEntity
  8
PART
  6
SLD-SOLID
100
AcDbLine
 10
10.38292975634014
 20
17.2185247292186
 30
0.0
 11
10.38292975634014
 21
16.59352472921876
 31
0.0
  0
LINE
  5
1A67
330
2
100
AcDbEntity
  8
PART
  6
SLD-SOLID
100
AcDbLine
 10
10.38292975634014
 20
16.52100504417971
 30
0.0
 11
10.38292975634014
 21
15.59352472921861
 31
0.0
  0
LINE
  5
1A68
330
2
100
AcDbEntity
  8
PART
  6
SLD-SOLID
100
AcDbLine
 10
11.19292975634014
 20
14.96852472921863
 30
0.0
 11
11.19292975634014
 21
15.59352472921861
 31
0.0
  0
LINE
  5
1A69
330
2
100
AcDbEntity
  8
PART
  6
SLD-SOLID
100
AcDbLine
 10
10.37292975634013
 20
15.59352472921862
 30
0.0
 11
10.37292975634013
 21
14.96852472921863
 31
0.0
  0
INSERT
  5
1A72
330
2
100
AcDbEntity
  8
PART
100
AcDbBlockReference
  2
SW_CENTERMARKSYMBOL_0
 10
11.06792975634015
 20
13.13560307567569
 30
0.0
  0
INSERT
  5
1A73
330
2
100
AcDbEntity
  8
PART
100
AcDbBlockReference
  2
SW_CENTERMARKSYMBOL_1
 10
14.56792975634017
 20
13.13560307567571
 30
0.0
  0
LINE
  5
1A74
330
2
100
AcDbEntity
  8
PART
  6
SLD-SOLID
100
AcDbLine
 10
22.91356170305019
 20
17.66852472921861
 30
0.0
 11
22.7635617030502
 21
17.66852472921861
 31
0.0
  0
ARC
  5
1A75
330
2
100
AcDbEntity
  8
PART
  6
SLD-SOLID
100
AcDbCircle
 10
22.91356170305019
 20
17.61852472921861
 30
0.0
 40
0.0500000000000007
100
AcDbArc
 50
0.0
 51
90.0
  0
ARC
  5
1A76
330
2
100
AcDbEntity
  8
PART
  6
SLD-SOLID
100
AcDbCircle
 10
22.7635617030502
 20
17.61852472921861
 30
0.0
 40
0.0500000000000007
100
AcDbArc
 50
90.0
 51
180.0
  0
ARC
  5
1A77
330
2
100
AcDbEntity
  8
PART
  6
SLD-SOLID
100
AcDbCircle
 10
23.11505776604231
 20
13.05907987283303
 30
0.0
 40
0.0118110236220469
100
AcDbArc
 50
94.99999999997827
 51
172.8289312504734
  0
ARC
  5
1A78
330
2
100
AcDbEntity
  8
PART
  6
SLD-SOLID
100
AcDbCircle
 10
23.11505776604231
 20
13.35631604229801
 30
0.0
 40
0.0118110236220469
100
AcDbArc
 50
187.1710687495273
 51
265.0000000000225
  0
LINE
  5
1A79
330
2
100
AcDbEntity
  8
PART
  6
SLD-SOLID
100
AcDbLine
 10
23.11402836750593
 20
13.07084595194433
 30
0.0
 11
23.17582854838036
 21
13.07625276717467
 31
0.0
  0
LINE
  5
1A7A
330
2
100
AcDbEntity
  8
PART
  6
SLD-SOLID
100
AcDbLine
 10
23.17582854838036
 20
13.33914314795637
 30
0.0
 11
23.11402836750593
 21
13.34454996318671
 31
0.0
  0
ARC
  5
1A7B
330
2
100
AcDbEntity
  8
PART
  6
SLD-SOLID
100
AcDbCircle
 10
23.17411288415256
 20
13.09586289902687
 30
0.0
 40
0.0196850393701427
100
AcDbArc
 50
275.000000001395
 51
0.0
  0
ARC
  5
1A7C
330
2
100
AcDbEntity
  8
PART
  6
SLD-SOLID
100
AcDbCircle
 10
23.17411288415256
 20
13.31953301610416
 30
0.0
 40
0.0196850393701445
100
AcDbArc
 50
0.0000000000050889
 51
84.99999999860616
  0
ARC
  5
1A7D
330
2
100
AcDbEntity
  8
PART
  6
SLD-SOLID
100
AcDbCircle
 10
23.11505776604231
 20
16.12994601456532
 30
0.0
 40
0.0118110236220452
100
AcDbArc
 50
94.99999999997902
 51
172.8289312504734
  0
ARC
  5
1A7E
330
2
100
AcDbEntity
  8
PART
  6
SLD-SOLID
100
AcDbCircle
 10
23.11505776604231
 20
16.42718218403029
 30
0.0
 40
0.0118110236220452
100
AcDbArc
 50
187.1710687495189
 51
265.0000000000217
  0
LINE
  5
1A7F
330
2
100
AcDbEntity
  8
PART
  6
SLD-SOLID
100
AcDbLine
 10
23.11402836750593
 20
16.14171209367661
 30
0.0
 11
23.17582854838036
 21
16.14711890890695
 31
0.0
  0
LINE
  5
1A80
330
2
100
AcDbEntity
  8
PART
  6
SLD-SOLID
100
AcDbLine
 10
23.17582854838036
 20
16.41000928968865
 30
0.0
 11
23.11402836750593
 21
16.41541610491899
 31
0.0
  0
ARC
  5
1A81
330
2
100
AcDbEntity
  8
PART
  6
SLD-SOLID
100
AcDbCircle
 10
23.17411288415256
 20
16.16672904075915
 30
0.0
 40
0.0196850393701445
100
AcDbArc
 50
275.0000000013946
 51
0.0
  0
ARC
  5
1A82
330
2
100
AcDbEntity
  8
PART
  6
SLD-SOLID
100
AcDbCircle
 10
23.17411288415256
 20
16.39039915783644
 30
0.0
 40
0.0196850393701427
100
AcDbArc
 50
0.0
 51
84.99999999860571
  0
LINE
  5
1A83
330
2
100
AcDbEntity
  8
PART
  6
SLD-SOLID
100
AcDbLine
 10
22.7635617030502
 20
17.2185247292186
 30
0.0
 11
22.91356170305019
 21
17.2185247292186
 31
0.0
  0
LINE
  5
1A84
330
2
100
AcDbEntity
  8
PART
  6
SLD-SOLID
100
AcDbLine
 10
22.9635617030502
 20
17.2185247292186
 30
0.0
 11
22.91356170305019
 21
17.2185247292186
 31
0.0
  0
LINE
  5
1A85
330
2
100
AcDbEntity
  8
PART
  6
SLD-SOLID
100
AcDbLine
 10
22.9635617030502
 20
17.2185247292186
 30
0.0
 11
22.9635617030502
 21
16.5935247292188
 31
0.0
  0
LINE
  5
1A86
330
2
100
AcDbEntity
  8
PART
  6
SLD-SOLID
100
AcDbLine
 10
22.7135617030502
 20
16.5935247292188
 30
0.0
 11
22.7135617030502
 21
17.2185247292186
 31
0.0
  0
LINE
  5
1A87
330
2
100
AcDbEntity
  8
PART
  6
SLD-SOLID
100
AcDbLine
 10
22.7135617030502
 20
17.2185247292186
 30
0.0
 11
22.7635617030502
 21
17.2185247292186
 31
0.0
  0
LINE
  5
1A88
330
2
100
AcDbEntity
  8
PART
  6
SLD-SOLID
100
AcDbLine
 10
22.9635617030502
 20
17.61852472921861
 30
0.0
 11
22.9635617030502
 21
17.2185247292186
 31
0.0
  0
LINE
  5
1A89
330
2
100
AcDbEntity
  8
PART
  6
SLD-SOLID
100
AcDbLine
 10
22.7135617030502
 20
17.2185247292186
 30
0.0
 11
22.7135617030502
 21
17.61852472921861
 31
0.0
  0
LINE
  5
1A8A
330
2
100
AcDbEntity
  8
PART
  6
SLD-SOLID
100
AcDbLine
 10
23.10356170305019
 20
16.59352472921876
 30
0.0
 11
22.62356170305019
 21
16.59352472921876
 31
0.0
  0
LINE
  5
1A8B
330
2
100
AcDbEntity
  8
PART
  6
SLD-SOLID
100
AcDbLine
 10
23.10356170305019
 20
12.70310307567542
 30
0.0
 11
22.62356170305019
 21
12.70310307567542
 31
0.0
  0
SPLINE
  5
1A8C
330
2
100
AcDbEntity
  8
PART
  6
SLD-SOLID
100
AcDbSpline
210
0.0
220
0.0
230
1.0
 70
    24
 71
     3
 72
    70
 73
    66
 74
     0
 42
0.0000000001
 43
0.0000000001
 40
0.0
 40
0.0
 40
0.0
 40
0.0
 40
0.0216294035403925
 40
0.042903707917394
 40
0.0638229131312161
 40
0.0843870191820811
 40
0.1045960260702234
 40
0.1244499337958892
 40
0.1428440906637533
 40
0.1609225716235591
 40
0.1786853766755484
 40
0.1961325058199767
 40
0.2132639590571134
 40
0.2300797363872428
 40
0.2465798378106658
 40
0.2627642633277011
 40
0.278633012938686
 40
0.2941860866439787
 40
0.3091541562585612
 40
0.3238177234457305
 40
0.3381767882058938
 40
0.3522313505394849
 40
0.3662285930013422
 40
0.3799101595601578
 40
0.3932760502164903
 40
0.4063262649709392
 40
0.4190608038241481
 40
0.4312606695707851
 40
0.4431560328949298
 40
0.454746893797345
 40
0.4660332522788556
 40
0.4758530457530691
 40
0.4854300917630371
 40
0.4947643903095004
 40
0.5038837810403804
 40
0.5131457300043688
 40
0.5226525439009757
 40
0.5324042227308262
 40
0.5424007664945001
 40
0.5540992937835997
 40
0.5661162505898032
 40
0.5784516369137915
 40
0.5911054527561948
 40
0.604077698117596
 40
0.6171282471678202
 40
0.6304859547952462
 40
0.6441508210003189
 40
0.6581228457834536
 40
0.6751566988305409
 40
0.6926258673238893
 40
0.7105303512640655
 40
0.7288701506515958
 40
0.7476452654869696
 40
0.7668556957706429
 40
0.7865014415030418
 40
0.8065825026845644
 40
0.8270988793155837
 40
0.8480505713964495
 40
0.86943757892749
 40
0.8912599019090137
 40
0.9122339484228287
 40
0.9335949814886228
 40
0.955343001106614
 40
0.9774780072770077
 40
1.0
 40
1.0
 40
1.0
 40
1.0
 10
22.62356170305019
 20
16.59352472921876
 30
0.0
 10
22.62356170305019
 20
16.56547493803078
 30
0.0
 10
22.62356170305019
 20
16.50983586106661
 30
0.0
 10
22.62356170305019
 20
16.42706804456042
 30
0.0
 10
22.62356170305019
 20
16.3456817744392
 30
0.0
 10
22.62356170305019
 20
16.26567705349156
 30
0.0
 10
22.62356170305019
 20
16.18705388098843
 30
0.0
 10
22.62356170305019
 20
16.11124480618311
 30
0.0
 10
22.62356170305019
 20
16.0381987013711
 30
0.0
 10
22.62356170305019
 20
15.9678644388463
 30
0.0
 10
22.62356170305019
 20
15.89875834482627
 30
0.0
 10
22.62356170305019
 20
15.83088041931135
 30
0.0
 10
22.62356170305019
 20
15.76423066230068
 30
0.0
 10
22.62356170305019
 20
15.69880907379369
 30
0.0
 10
22.62356170305019
 20
15.63461565378966
 30
0.0
 10
22.62356170305019
 20
15.57165040228783
 30
0.0
 10
22.62356170305019
 20
15.50991331928744
 30
0.0
 10
22.62356170305019
 20
15.44975367671598
 30
0.0
 10
22.62356170305019
 20
15.39115698374701
 30
0.0
 10
22.62356170305019
 20
15.33410874951198
 30
0.0
 10
22.62356170305019
 20
15.27824521224969
 30
0.0
 10
22.62356170305019
 20
15.22324581993033
 30
0.0
 10
22.62356170305019
 20
15.16912506339692
 30
0.0
 10
22.62356170305019
 20
15.11589743355595
 30
0.0
 10
22.62356170305019
 20
15.06389797220686
 30
0.0
 10
22.62356170305019
 20
15.01312667934793
 30
0.0
 10
22.62356170305019
 20
14.96386755441982
 30
0.0
 10
22.62356170305019
 20
14.91610610653067
 30
0.0
 10
22.62356170305019
 20
14.8698278447244
 30
0.0
 10
22.62356170305019
 20
14.82473427987427
 30
0.0
 10
22.62356170305019
 20
14.78233238912312
 30
0.0
 10
22.62356170305019
 20
14.74254208205833
 30
0.0
 10
22.62356170305019
 20
14.70528326821782
 30
0.0
 10
22.62356170305019
 20
14.66893278459098
 30
0.0
 10
22.62356170305019
 20
14.63299096563511
 30
0.0
 10
22.62356170305019
 20
14.59682546852814
 30
0.0
 10
22.62356170305019
 20
14.55984005591237
 30
0.0
 10
22.62356170305019
 20
14.52190205610862
 30
0.0
 10
22.62356170305019
 20
14.48112187607527
 30
0.0
 10
22.62356170305019
 20
14.43740412355742
 30
0.0
 10
22.62356170305019
 20
14.39065340614985
 30
0.0
 10
22.62356170305019
 20
14.34266391648306
 30
0.0
 10
22.62356170305019
 20
14.2934356545585
 30
0.0
 10
22.62356170305019
 20
14.24328001438828
 30
0.0
 10
22.62356170305019
 20
14.19221161119645
 30
0.0
 10
22.62356170305019
 20
14.14024506027417
 30
0.0
 10
22.62356170305019
 20
14.087083583951
 30
0.0
 10
22.62356170305019
 20
14.02915495047007
 30
0.0
 10
22.62356170305019
 20
13.96629297590428
 30
0.0
 10
22.62356170305019
 20
13.89833147635301
 30
0.0
 10
22.62356170305019
 20
13.82867648842091
 30
0.0
 10
22.62356170305019
 20
13.75732801210946
 30
0.0
 10
22.62356170305019
 20
13.68428604742069
 30
0.0
 10
22.62356170305019
 20
13.60955059435625
 30
0.0
 10
22.62356170305019
 20
13.5331216529177
 30
0.0
 10
22.62356170305019
 20
13.45499922310642
 30
0.0
 10
22.62356170305019
 20
13.37518330492392
 30
0.0
 10
22.62356170305019
 20
13.29367389837047
 30
0.0
 10
22.62356170305019
 20
13.21047100345081
 30
0.0
 10
22.62356170305019
 20
13.12723915897605
 30
0.0
 10
22.62356170305019
 20
13.04404103440433
 30
0.0
 10
22.62356170305019
 20
12.96093929916456
 30
0.0
 10
22.62356170305019
 20
12.87633208789561
 30
0.0
 10
22.62356170305019
 20
12.79021939786462
 30
0.0
 10
22.62356170305019
 20
12.73230912844863
 30
0.0
 10
22.62356170305019
 20
12.70310307567542
 30
0.0
  0
SPLINE
  5
1A8D
330
2
100
AcDbEntity
  8
PART
  6
SLD-SOLID
100
AcDbSpline
210
0.0
220
0.0
230
1.0
 70
    24
 71
     3
 72
     9
 73
     5
 74
     0
 42
0.0000000001
 43
0.0000000001
 40
0.0
 40
0.0
 40
0.0
 40
0.0
 40
0.499999999671949
 40
1.0
 40
1.0
 40
1.0
 40
1.0
 10
23.10356170305019
 20
16.59352472921876
 30
0.0
 10
23.10356170305019
 20
15.9451068568573
 30
0.0
 10
23.10356170305019
 20
14.64827111128352
 30
0.0
 10
23.10356170305019
 20
13.35149242116173
 30
0.0
 10
23.10356170305019
 20
12.70310307567542
 30
0.0
  0
LINE
  5
1A8E
330
2
100
AcDbEntity
  8
PART
  6
SLD-SOLID
100
AcDbLine
 10
23.10356170305019
 20
12.46565961233091
 30
0.0
 11
22.61153023753701
 21
12.46565961233091
 31
0.0
  0
LINE
  5
1A8F
330
2
100
AcDbEntity
  8
PART
  6
SLD-SOLID
100
AcDbLine
 10
22.61153023753701
 20
12.46565961233091
 30
0.0
 11
22.61153023753701
 21
12.4726596123309
 31
0.0
  0
LINE
  5
1A90
330
2
100
AcDbEntity
  8
PART
  6
SLD-SOLID
100
AcDbLine
 10
22.61153023753701
 20
12.4726596123309
 30
0.0
 11
22.62131133267952
 21
12.49131504524144
 31
0.0
  0
ARC
  5
1A91
330
2
100
AcDbEntity
  8
PART
  6
SLD-SOLID
100
AcDbCircle
 10
22.6038817030502
 20
12.50045344832866
 30
0.0
 40
0.019680000000001
100
AcDbArc
 50
332.3318528744014
 51
0.0
  0
LINE
  5
1A92
330
2
100
AcDbEntity
  8
PART
  6
SLD-SOLID
100
AcDbLine
 10
22.62356170305019
 20
12.70310307567542
 30
0.0
 11
22.62356170305019
 21
12.50045344832866
 31
0.0
  0
LINE
  5
1A93
330
2
100
AcDbEntity
  8
PART
  6
SLD-SOLID
100
AcDbLine
 10
23.10356170305019
 20
12.70310307567542
 30
0.0
 11
23.10356170305019
 21
12.46565961233091
 31
0.0
  0
SPLINE
  5
1A94
330
2
100
AcDbEntity
  8
PART
  6
SLD-SOLID
100
AcDbSpline
210
0.0
220
0.0
230
1.0
 70
    24
 71
     3
 72
    33
 73
    29
 74
     0
 42
0.0000000001
 43
0.0000000001
 40
0.0
 40
0.0
 40
0.0
 40
0.0
 40
0.0266311655667018
 40
0.0657729387389797
 40
0.1048611351923889
 40
0.1435878073937437
 40
0.1823334783872663
 40
0.2214781171622169
 40
0.2605636996613506
 40
0.2992894278480439
 40
0.3380359990320283
 40
0.3771835024527359
 40
0.4162733615739445
 40
0.455000529573908
 40
0.4937456607000496
 40
0.5328888851478288
 40
0.5719758536393523
 40
0.6107021123197674
 40
0.6494481969984732
 40
0.6885940653053408
 40
0.7276781908898983
 40
0.7664028282577262
 40
0.8051486213790266
 40
0.8442955971076278
 40
0.8833040852075921
 40
0.9220050227411977
 40
0.9607778699426797
 40
1.0
 40
1.0
 40
1.0
 40
1.0
 10
23.19379792352263
 20
13.09595959802639
 30
0.0
 10
23.19379792352263
 20
13.09596477786932
 30
0.0
 10
23.19379792352263
 20
13.09597757090649
 30
0.0
 10
23.19379792352263
 20
13.09725039274126
 30
0.0
 10
23.19379792352263
 20
13.09954869525572
 30
0.0
 10
23.19379792352263
 20
13.10292922581742
 30
0.0
 10
23.19379792352263
 20
13.10732526006104
 30
0.0
 10
23.19379792352263
 20
13.11270981320837
 30
0.0
 10
23.19379792352263
 20
13.11898041486359
 30
0.0
 10
23.19379792352263
 20
13.12609184633827
 30
0.0
 10
23.19379792352263
 20
13.1340052625698
 30
0.0
 10
23.19379792352263
 20
13.14265610278439
 30
0.0
 10
23.19379792352263
 20
13.15191337970604
 30
0.0
 10
23.19379792352263
 20
13.16168200965076
 30
0.0
 10
23.19379792352263
 20
13.17190512272378
 30
0.0
 10
23.19379792352263
 20
13.18250447256375
 30
0.0
 10
23.19379792352263
 20
13.19333767190739
 30
0.0
 10
23.19379792352263
 20
13.20427590508489
 30
0.0
 10
23.19379792352263
 20
13.21525291700226
 30
0.0
 10
23.19379792352263
 20
13.22618779293648
 30
0.0
 10
23.19379792352263
 20
13.23694808680011
 30
0.0
 10
23.19379792352263
 20
13.24739044563249
 30
0.0
 10
23.19379792352263
 20
13.25745010383207
 30
0.0
 10
23.19379792352263
 20
13.26704909228416
 30
0.0
 10
23.19379792352263
 20
13.27609374256427
 30
0.0
 10
23.19379792352263
 20
13.28443180378491
 30
0.0
 10
23.19379792352263
 20
13.29209560145294
 30
0.0
 10
23.19379792352263
 20
13.29652313818048
 30
0.0
 10
23.19379792352263
 20
13.29874965875225
 30
0.0
  0
SPLINE
  5
1A95
330
2
100
AcDbEntity
  8
PART
  6
SLD-SOLID
100
AcDbSpline
210
0.0
220
0.0
230
1.0
 70
    24
 71
     3
 72
    14
 73
    10
 74
     0
 42
0.0000000001
 43
0.0000000001
 40
0.0
 40
0.0
 40
0.0
 40
0.0
 40
0.1595581844140865
 40
0.3173681978154493
 40
0.4749644647570055
 40
0.6338876011658902
 40
0.7930259511645027
 40
0.9506867176224371
 40
1.0
 40
1.0
 40
1.0
 40
1.0
 10
23.19379792352263
 20
13.29874965875225
 30
0.0
 10
23.19379792352263
 20
13.30080409302556
 30
0.0
 10
23.19379792352263
 20
13.30489045252663
 30
0.0
 10
23.19379792352263
 20
13.30984734097682
 30
0.0
 10
23.19379792352263
 20
13.31385730572077
 30
0.0
 10
23.19379792352263
 20
13.31685338248893
 30
0.0
 10
23.19379792352263
 20
13.3187537751154
 30
0.0
 10
23.19379792352263
 20
13.31961165899251
 30
0.0
 10
23.19379792352263
 20
13.31947005534674
 30
0.0
 10
23.19379792352263
 20
13.31943631710464
 30
0.0
  0
SPLINE
  5
1A96
330
2
100
AcDbEntity
  8
PART
  6
SLD-SOLID
100
AcDbSpline
210
0.0
220
0.0
230
1.0
 70
    24
 71
     3
 72
    33
 73
    29
 74
     0
 42
0.0000000001
 43
0.0000000001
 40
0.0
 40
0.0
 40
0.0
 40
0.0
 40
0.0266311655667018
 40
0.0657729387389797
 40
0.1048611351923889
 40
0.1435878073937437
 40
0.1823334783872663
 40
0.2214781171622169
 40
0.2605636996613506
 40
0.2992894278480439
 40
0.3380359990320283
 40
0.3771835024527359
 40
0.4162733615739445
 40
0.455000529573908
 40
0.4937456607000496
 40
0.5328888851478288
 40
0.5719758536393523
 40
0.6107021123197674
 40
0.6494481969984732
 40
0.6885940653053408
 40
0.7276781908898983
 40
0.7664028282577262
 40
0.8051486213790266
 40
0.8442955971076278
 40
0.8833040852075921
 40
0.9220050227411977
 40
0.9607778699426797
 40
1.0
 40
1.0
 40
1.0
 40
1.0
 10
23.19379792352263
 20
16.16682573975867
 30
0.0
 10
23.19379792352263
 20
16.1668309196016
 30
0.0
 10
23.19379792352263
 20
16.16684371263878
 30
0.0
 10
23.19379792352263
 20
16.16811653447354
 30
0.0
 10
23.19379792352263
 20
16.170414836988
 30
0.0
 10
23.19379792352263
 20
16.1737953675497
 30
0.0
 10
23.19379792352263
 20
16.17819140179332
 30
0.0
 10
23.19379792352263
 20
16.18357595494065
 30
0.0
 10
23.19379792352263
 20
16.18984655659587
 30
0.0
 10
23.19379792352263
 20
16.19695798807055
 30
0.0
 10
23.19379792352263
 20
16.20487140430209
 30
0.0
 10
23.19379792352263
 20
16.21352224451667
 30
0.0
 10
23.19379792352263
 20
16.22277952143833
 30
0.0
 10
23.19379792352263
 20
16.23254815138305
 30
0.0
 10
23.19379792352263
 20
16.24277126445606
 30
0.0
 10
23.19379792352263
 20
16.25337061429603
 30
0.0
 10
23.19379792352263
 20
16.26420381363967
 30
0.0
 10
23.19379792352263
 20
16.27514204681718
 30
0.0
 10
23.19379792352263
 20
16.28611905873454
 30
0.0
 10
23.19379792352263
 20
16.29705393466877
 30
0.0
 10
23.19379792352263
 20
16.3078142285324
 30
0.0
 10
23.19379792352263
 20
16.31825658736477
 30
0.0
 10
23.19379792352263
 20
16.32831624556435
 30
0.0
 10
23.19379792352263
 20
16.33791523401645
 30
0.0
 10
23.19379792352263
 20
16.34695988429655
 30
0.0
 10
23.19379792352263
 20
16.3552979455172
 30
0.0
 10
23.19379792352263
 20
16.36296174318523
 30
0.0
 10
23.19379792352263
 20
16.36738927991276
 30
0.0
 10
23.19379792352263
 20
16.36961580048453
 30
0.0
  0
SPLINE
  5
1A97
330
2
100
AcDbEntity
  8
PART
  6
SLD-SOLID
100
AcDbSpline
210
0.0
220
0.0
230
1.0
 70
    24
 71
     3
 72
    14
 73
    10
 74
     0
 42
0.0000000001
 43
0.0000000001
 40
0.0
 40
0.0
 40
0.0
 40
0.0
 40
0.1595581844140865
 40
0.3173681978154493
 40
0.4749644647570055
 40
0.6338876011658902
 40
0.7930259511645027
 40
0.9506867176224371
 40
1.0
 40
1.0
 40
1.0
 40
1.0
 10
23.19379792352263
 20
16.36961580048453
 30
0.0
 10
23.19379792352263
 20
16.37167023475785
 30
0.0
 10
23.19379792352263
 20
16.37575659425892
 30
0.0
 10
23.19379792352263
 20
16.38071348270911
 30
0.0
 10
23.19379792352263
 20
16.38472344745305
 30
0.0
 10
23.19379792352263
 20
16.38771952422122
 30
0.0
 10
23.19379792352263
 20
16.38961991684768
 30
0.0
 10
23.19379792352263
 20
16.3904778007248
 30
0.0
 10
23.19379792352263
 20
16.39033619707903
 30
0.0
 10
23.19379792352263
 20
16.39030245883693
 30
0.0
  0
LINE
  5
1A98
330
2
100
AcDbEntity
  8
PART
  6
SLD-SOLID
100
AcDbLine
 10
22.7635617030502
 20
17.2185247292186
 30
0.0
 11
22.7635617030502
 21
16.59352472921879
 31
0.0
  0
LINE
  5
1A99
330
2
100
AcDbEntity
  8
PART
  6
SLD-SOLID
100
AcDbLine
 10
22.91356170305019
 20
16.59352472921879
 30
0.0
 11
22.91356170305019
 21
17.2185247292186
 31
0.0
  0
LINE
  5
1A9A
330
2
100
AcDbEntity
  8
PART
  6
SLD-SOLID
100
AcDbLine
 10
22.7635617030502
 20
17.66852472921861
 30
0.0
 11
22.7635617030502
 21
17.2185247292186
 31
0.0
  0
LINE
  5
1A9B
330
2
100
AcDbEntity
  8
PART
  6
SLD-SOLID
100
AcDbLine
 10
22.91356170305019
 20
17.2185247292186
 30
0.0
 11
22.91356170305019
 21
17.66852472921861
 31
0.0
  0
LINE
  5
1A9C
330
2
100
AcDbEntity
  8
PART
  6
SLD-SOLID
100
AcDbLine
 10
23.11402836750593
 20
13.31867924455692
 30
0.0
 11
23.11402836750593
 21
13.07084595194435
 31
0.0
  0
LINE
  5
1A9D
330
2
100
AcDbEntity
  8
PART
  6
SLD-SOLID
100
AcDbLine
 10
23.11402836750593
 20
13.34454996318668
 30
0.0
 11
23.11402836750593
 21
13.31867924455692
 31
0.0
  0
LINE
  5
1A9E
330
2
100
AcDbEntity
  8
PART
  6
SLD-SOLID
100
AcDbLine
 10
23.17582854838036
 20
13.07625276717467
 30
0.0
 11
23.17582854838036
 21
13.33914314795637
 31
0.0
  0
LINE
  5
1A9F
330
2
100
AcDbEntity
  8
PART
  6
SLD-SOLID
100
AcDbLine
 10
23.11402836750593
 20
16.3895453862892
 30
0.0
 11
23.11402836750593
 21
16.14171209367663
 31
0.0
  0
LINE
  5
1AA0
330
2
100
AcDbEntity
  8
PART
  6
SLD-SOLID
100
AcDbLine
 10
23.11402836750593
 20
16.41541610491897
 30
0.0
 11
23.11402836750593
 21
16.3895453862892
 31
0.0
  0
LINE
  5
1AA1
330
2
100
AcDbEntity
  8
PART
  6
SLD-SOLID
100
AcDbLine
 10
23.17582854838036
 20
16.14711890890695
 30
0.0
 11
23.17582854838036
 21
16.41000928968865
 31
0.0
  0
LINE
  5
1C78
330
2
100
AcDbEntity
  8
DIM
100
AcDbLine
 10
9.164386447300014
 20
12.40315961233088
 30
0.0
 11
9.164386447300014
 21
10.92503300456213
 31
0.0
  0
LINE
  5
1C79
330
2
100
AcDbEntity
  8
DIM
100
AcDbLine
 10
16.47147306538029
 20
12.40315961233093
 30
0.0
 11
16.47147306538029
 21
10.92503300456213
 31
0.0
  0
LINE
  5
1C7A
330
2
100
AcDbEntity
  8
DIM
100
AcDbLine
 10
9.294386447300015
 20
10.99338812441658
 30
0.0
 11
12.18357427131598
 21
10.99338812441658
 31
0.0
  0
LINE
  5
1C7B
330
2
100
AcDbEntity
  8
DIM
100
AcDbLine
 10
16.34147306538029
 20
10.99338812441658
 30
0.0
 11
13.15422593516072
 21
10.99338812441658
 31
0.0
  0
SOLID
  5
1C7C
330
2
100
AcDbEntity
  8
DIM
100
AcDbTrace
 10
9.294386447300015
 20
11.01505479108325
 30
0.0
 11
9.294386447300015
 21
10.97172145774992
 31
0.0
 12
9.164386447300014
 22
10.99338812441658
 32
0.0
 13
9.164386447300014
 23
10.99338812441658
 33
0.0
  0
SOLID
  5
1C7D
330
2
100
AcDbEntity
  8
DIM
100
AcDbTrace
 10
16.34147306538029
 20
11.01505479108325
 30
0.0
 11
16.34147306538029
 21
10.97172145774992
 31
0.0
 12
16.47147306538029
 22
10.99338812441658
 32
0.0
 13
16.47147306538029
 23
10.99338812441658
 33
0.0
  0
MTEXT
  5
1C7E
330
2
100
AcDbEntity
  8
DIM
100
AcDbMText
 10
12.69946308033656
 20
11.21495393618863
 30
0.0
 40
0.156
 41
0.0
 71
     2
 72
     1
  1
{\fCentury Gothic|b0|i0|c0|p34;7.307}
  7
SLDTEXTSTYLE6
1001
ACAD
1000
MTEXTBEGIN
1070
    73
1070
     1
1070
    44
1040
1.0
1070
    74
1070
     0
1000
MTEXTEND
  0
LINE
  5
1C7F
330
2
100
AcDbEntity
  8
DIM
100
AcDbLine
 10
9.164386447300014
 20
12.40315961233088
 30
0.0
 11
9.164386447300014
 21
11.51407297905852
 31
0.0
  0
LINE
  5
1C80
330
2
100
AcDbEntity
  8
DIM
100
AcDbLine
 10
14.56792975634017
 20
12.83710307567572
 30
0.0
 11
14.56792975634017
 21
11.51407297905852
 31
0.0
  0
LINE
  5
1C81
330
2
100
AcDbEntity
  8
DIM
100
AcDbLine
 10
9.294386447300015
 20
11.58242809891298
 30
0.0
 11
11.63386249946949
 21
11.58242809891298
 31
0.0
  0
LINE
  5
1C82
330
2
100
AcDbEntity
  8
DIM
100
AcDbLine
 10
14.43792975634016
 20
11.58242809891298
 30
0.0
 11
12.549584940593
 21
11.58242809891298
 31
0.0
  0
SOLID
  5
1C83
330
2
100
AcDbEntity
  8
DIM
100
AcDbTrace
 10
9.294386447300015
 20
11.60409476557965
 30
0.0
 11
9.294386447300015
 21
11.56076143224631
 31
0.0
 12
9.164386447300014
 22
11.58242809891298
 32
0.0
 13
9.164386447300014
 23
11.58242809891298
 33
0.0
  0
SOLID
  5
1C84
330
2
100
AcDbEntity
  8
DIM
100
AcDbTrace
 10
14.43792975634016
 20
11.60409476557965
 30
0.0
 11
14.43792975634016
 21
11.56076143224631
 31
0.0
 12
14.56792975634017
 22
11.58242809891298
 32
0.0
 13
14.56792975634017
 23
11.58242809891298
 33
0.0
  0
MTEXT
  5
1C85
330
2
100
AcDbEntity
  8
DIM
100
AcDbMText
 10
12.09172372003124
 20
11.80399391068503
 30
0.0
 40
0.156
 41
0.0
 71
     2
 72
     1
  1
{\fCentury Gothic|b0|i0|c0|p34;5.404}
  7
SLDTEXTSTYLE6
1001
ACAD
1000
MTEXTBEGIN
1070
    73
1070
     1
1070
    44
1040
1.0
1070
    74
1070
     0
1000
MTEXTEND
  0
LINE
  5
1C86
330
2
100
AcDbEntity
  8
DIM
100
AcDbLine
 10
9.164386447300014
 20
12.40315961233088
 30
0.0
 11
9.164386447300014
 21
11.86689248111397
 31
0.0
  0
LINE
  5
1C87
330
2
100
AcDbEntity
  8
DIM
100
AcDbLine
 10
11.06792975634015
 20
12.83710307567569
 30
0.0
 11
11.06792975634015
 21
11.86689248111397
 31
0.0
  0
LINE
  5
1C88
330
2
100
AcDbEntity
  8
DIM
100
AcDbLine
 10
9.294386447300015
 20
11.93524760096843
 30
0.0
 11
9.643577176455602
 21
11.93524760096843
 31
0.0
  0
LINE
  5
1C89
330
2
100
AcDbEntity
  8
DIM
100
AcDbLine
 10
10.93792975634015
 20
11.93524760096843
 30
0.0
 11
10.36813912633304
 21
11.93524760096843
 31
0.0
  0
SOLID
  5
1C8A
330
2
100
AcDbEntity
  8
DIM
100
AcDbTrace
 10
9.294386447300015
 20
11.95691426763509
 30
0.0
 11
9.294386447300015
 21
11.91358093430176
 31
0.0
 12
9.164386447300014
 22
11.93524760096843
 32
0.0
 13
9.164386447300014
 23
11.93524760096843
 33
0.0
  0
SOLID
  5
1C8B
330
2
100
AcDbEntity
  8
DIM
100
AcDbTrace
 10
10.93792975634015
 20
11.95691426763509
 30
0.0
 11
10.93792975634015
 21
11.91358093430176
 31
0.0
 12
11.06792975634015
 22
11.93524760096843
 32
0.0
 13
11.06792975634015
 23
11.93524760096843
 33
0.0
  0
MTEXT
  5
1C8C
330
2
100
AcDbEntity
  8
DIM
100
AcDbMText
 10
10.01895652225605
 20
12.15681341274047
 30
0.0
 40
0.156
 41
0.0
 71
     2
 72
     1
  1
{\fCentury Gothic|b0|i0|c0|p34;1.904}
  7
SLDTEXTSTYLE6
1001
ACAD
1000
MTEXTBEGIN
1070
    73
1070
     1
1070
    44
1040
1.0
1070
    74
1070
     0
1000
MTEXTEND
  0
LINE
  5
1C8D
330
2
100
AcDbEntity
  8
DIM
100
AcDbLine
 10
9.101886447300014
 20
12.47265961233088
 30
0.0
 11
7.935995690280342
 21
12.47265961233088
 31
0.0
  0
LINE
  5
1C8E
330
2
100
AcDbEntity
  8
DIM
100
AcDbLine
 10
9.59502232326924
 20
16.59352472921874
 30
0.0
 11
7.935995690280343
 21
16.59352472921874
 31
0.0
  0
LINE
  5
1C8F
330
2
100
AcDbEntity
  8
DIM
100
AcDbLine
 10
8.067583206671663
 20
12.60265961233088
 30
0.0
 11
8.067583206671663
 21
14.1515979748128
 31
0.0
  0
LINE
  5
1C90
330
2
100
AcDbEntity
  8
DIM
100
AcDbLine
 10
8.067583206671663
 20
16.46352472921874
 30
0.0
 11
8.067583206671663
 21
14.60673784075093
 31
0.0
  0
SOLID
  5
1C91
330
2
100
AcDbEntity
  8
DIM
100
AcDbTrace
 10
8.045916540004995
 20
12.60265961233088
 30
0.0
 11
8.089249873338328
 21
12.60265961233088
 31
0.0
 12
8.067583206671663
 22
12.47265961233088
 32
0.0
 13
8.067583206671663
 23
12.47265961233088
 33
0.0
  0
SOLID
  5
1C92
330
2
100
AcDbEntity
  8
DIM
100
AcDbTrace
 10
8.045916540004997
 20
16.46352472921874
 30
0.0
 11
8.08924987333833
 21
16.46352472921874
 31
0.0
 12
8.067583206671663
 22
16.59352472921874
 32
0.0
 13
8.067583206671663
 23
16.59352472921874
 33
0.0
  0
MTEXT
  5
1C93
330
2
100
AcDbEntity
  8
DIM
100
AcDbMText
 10
8.06758320667166
 20
14.56735588048147
 30
0.0
 40
0.156
 41
0.0
 71
     2
 72
     1
  1
{\fCentury Gothic|b0|i0|c0|p34;4.121}
  7
SLDTEXTSTYLE6
1001
ACAD
1000
MTEXTBEGIN
1070
    73
1070
     1
1070
    44
1040
1.0
1070
    74
1070
     0
1000
MTEXTEND
  0
LINE
  5
1C94
330
2
100
AcDbEntity
  8
DIM
100
AcDbLine
 10
9.101886447300014
 20
12.47265961233088
 30
0.0
 11
7.352969124465341
 21
12.47265961233088
 31
0.0
  0
LINE
  5
1C95
330
2
100
AcDbEntity
  8
DIM
100
AcDbLine
 10
10.72042975634012
 20
17.66852472921859
 30
0.0
 11
7.352969124465341
 21
17.66852472921859
 31
0.0
  0
LINE
  5
1C96
330
2
100
AcDbEntity
  8
DIM
100
AcDbLine
 10
7.484556640856661
 20
12.60265961233088
 30
0.0
 11
7.484556640856662
 21
15.18623121223337
 31
0.0
  0
LINE
  5
1C97
330
2
100
AcDbEntity
  8
DIM
100
AcDbLine
 10
7.484556640856662
 20
17.5385247292186
 30
0.0
 11
7.484556640856662
 21
15.81817496459307
 31
0.0
  0
SOLID
  5
1C98
330
2
100
AcDbEntity
  8
DIM
100
AcDbTrace
 10
7.462889974189995
 20
12.60265961233088
 30
0.0
 11
7.506223307523328
 21
12.60265961233088
 31
0.0
 12
7.484556640856661
 22
12.47265961233088
 32
0.0
 13
7.484556640856661
 23
12.47265961233088
 33
0.0
  0
SOLID
  5
1C99
330
2
100
AcDbEntity
  8
DIM
100
AcDbTrace
 10
7.462889974189995
 20
17.5385247292186
 30
0.0
 11
7.506223307523328
 21
17.5385247292186
 31
0.0
 12
7.484556640856662
 22
17.66852472921859
 32
0.0
 13
7.484556640856662
 23
17.66852472921859
 33
0.0
  0
MTEXT
  5
1C9A
330
2
100
AcDbEntity
  8
DIM
100
AcDbMText
 10
7.484556640856659
 20
15.77461668430421
 30
0.0
 40
0.156
 41
0.0
 71
     2
 72
     1
  1
{\fCentury Gothic|b0|i0|c0|p34;5.196}
  7
SLDTEXTSTYLE6
1001
ACAD
1000
MTEXTBEGIN
1070
    73
1070
     1
1070
    44
1040
1.0
1070
    74
1070
     0
1000
MTEXTEND
  0
LINE
  5
1C9B
330
2
100
AcDbEntity
  8
DIM
100
AcDbLine
 10
9.101886447300014
 20
12.47265961233088
 30
0.0
 11
8.534071486670073
 21
12.47265961233088
 31
0.0
  0
LINE
  5
1C9C
330
2
100
AcDbEntity
  8
DIM
100
AcDbLine
 10
10.76942975634015
 20
13.13560307567569
 30
0.0
 11
8.534071486670073
 21
13.13560307567569
 31
0.0
  0
LINE
  5
1C9D
330
2
100
AcDbEntity
  8
DIM
100
AcDbLine
 10
8.665659003061394
 20
12.34265961233088
 30
0.0
 11
8.665659003061394
 21
12.18503979537395
 31
0.0
  0
LINE
  5
1C9E
330
2
100
AcDbEntity
  8
DIM
100
AcDbLine
 10
8.665659003061394
 20
13.26560307567569
 30
0.0
 11
8.665659003061394
 21
13.39469761802579
 31
0.0
  0
SOLID
  5
1C9F
330
2
100
AcDbEntity
  8
DIM
100
AcDbTrace
 10
8.643992336394727
 20
12.34265961233088
 30
0.0
 11
8.68732566972806
 21
12.34265961233088
 31
0.0
 12
8.665659003061394
 22
12.47265961233088
 32
0.0
 13
8.665659003061394
 23
12.47265961233088
 33
0.0
  0
SOLID
  5
1CA0
330
2
100
AcDbEntity
  8
DIM
100
AcDbTrace
 10
8.643992336394727
 20
13.26560307567569
 30
0.0
 11
8.68732566972806
 21
13.26560307567569
 31
0.0
 12
8.665659003061394
 22
13.13560307567569
 32
0.0
 13
8.665659003061394
 23
13.13560307567569
 33
0.0
  0
MTEXT
  5
1CA1
330
2
100
AcDbEntity
  8
DIM
100
AcDbMText
 10
8.66565900306139
 20
13.03012560197349
 30
0.0
 40
0.156
 41
0.0
 71
     2
 72
     1
  1
{\fCentury Gothic|b0|i0|c0|p34;.663}
  7
SLDTEXTSTYLE6
1001
ACAD
1000
MTEXTBEGIN
1070
    73
1070
     1
1070
    44
1040
1.0
1070
    74
1070
     0
1000
MTEXTEND
  0
LINE
  5
1CA2
330
2
100
AcDbEntity
  8
DIM
100
AcDbLine
 10
11.09663422741834
 20
17.70636640930093
 30
0.0
 11
11.3521514056205
 21
18.10372105673585
 31
0.0
  0
LINE
  5
1CA3
330
2
100
AcDbEntity
  8
DIM
100
AcDbLine
 10
11.3521514056205
 20
18.10372105673585
 30
0.0
 11
11.4821514056205
 21
18.10372105673585
 31
0.0
  0
SOLID
  5
1CA5
330
2
100
AcDbEntity
  8
DIM
100
AcDbTrace
 10
11.07841025661066
 20
17.71808525448489
 30
0.0
 11
11.11485819822601
 21
17.69464756411697
 31
0.0
 12
11.0263211563146
 22
17.59702258445489
 32
0.0
 13
11.0263211563146
 23
17.59702258445489
 33
0.0
  0
MTEXT
  5
1CA6
330
2
100
AcDbEntity
  8
DIM
100
AcDbMText
 10
11.5211514056205
 20
18.20478699827221
 30
0.0
 40
0.156
 41
0.0
 71
     1
 72
     1
  1
\A1;R.450 [R11.43]
  7
SLDTEXTSTYLE6
1001
ACAD
1000
MTEXTBEGIN
1070
    73
1070
     1
1070
    44
1040
1.0
1070
    74
1070
     0
1000
MTEXTEND
  0
LINE
  5
1CA7
330
2
100
AcDbEntity
  8
DIM
100
AcDbLine
 10
9.16438644730001
 20
12.76560307567535
 30
0.0
 11
9.16438644730001
 21
18.29844598906115
 31
0.0
  0
LINE
  5
1CA8
330
2
100
AcDbEntity
  8
DIM
100
AcDbLine
 10
10.78292975634012
 20
17.2810247292186
 30
0.0
 11
10.78292975634012
 21
18.29844598906115
 31
0.0
  0
LINE
  5
1CA9
330
2
100
AcDbEntity
  8
DIM
100
AcDbLine
 10
9.294386447300011
 20
18.18291823452323
 30
0.0
 11
9.598038970689055
 21
18.18291823452323
 31
0.0
  0
LINE
  5
1CAA
330
2
100
AcDbEntity
  8
DIM
100
AcDbLine
 10
10.65292975634012
 20
18.18291823452323
 30
0.0
 11
10.34102359529204
 21
18.18291823452323
 31
0.0
  0
SOLID
  5
1CAB
330
2
100
AcDbEntity
  8
DIM
100
AcDbTrace
 10
9.294386447300011
 20
18.2045849011899
 30
0.0
 11
9.294386447300011
 21
18.16125156785656
 31
0.0
 12
9.16438644730001
 22
18.18291823452323
 32
0.0
 13
9.16438644730001
 23
18.18291823452323
 33
0.0
  0
SOLID
  5
1CAC
330
2
100
AcDbEntity
  8
DIM
100
AcDbTrace
 10
10.65292975634012
 20
18.2045849011899
 30
0.0
 11
10.65292975634012
 21
18.16125156785656
 31
0.0
 12
10.78292975634012
 22
18.18291823452323
 32
0.0
 13
10.78292975634012
 23
18.18291823452323
 33
0.0
  0
MTEXT
  5
1CAD
330
2
100
AcDbEntity
  8
DIM
100
AcDbMText
 10
9.976323254353125
 20
18.40448404629528
 30
0.0
 40
0.156
 41
0.0
 71
     2
 72
     1
  1
{\fCentury Gothic|b0|i0|c0|p34;1.619}
  7
SLDTEXTSTYLE6
1001
ACAD
1000
MTEXTBEGIN
1070
    73
1070
     1
1070
    44
1040
1.0
1070
    74
1070
     0
1000
MTEXTEND
  0
LINE
  5
1CAE
330
2
100
AcDbEntity
  8
DIM
100
AcDbLine
 10
22.96356170305019
 20
17.2810247292186
 30
0.0
 11
22.96356170305019
 21
18.77956397987491
 31
0.0
  0
LINE
  5
1CAF
330
2
100
AcDbEntity
  8
DIM
100
AcDbLine
 10
23.10356170305018
 20
16.65602472921879
 30
0.0
 11
23.10356170305018
 21
18.77956397987491
 31
0.0
  0
LINE
  5
1CB0
330
2
100
AcDbEntity
  8
DIM
100
AcDbLine
 10
22.83356170305019
 20
18.70650162605456
 30
0.0
 11
22.70356170305019
 21
18.70650162605456
 31
0.0
  0
LINE
  5
1CB1
330
2
100
AcDbEntity
  8
DIM
100
AcDbLine
 10
23.23356170305018
 20
18.70650162605456
 30
0.0
 11
23.46190140595648
 21
18.70650162605456
 31
0.0
  0
SOLID
  5
1CB2
330
2
100
AcDbEntity
  8
DIM
100
AcDbTrace
 10
22.83356170305019
 20
18.72816829272123
 30
0.0
 11
22.83356170305019
 21
18.68483495938789
 31
0.0
 12
22.96356170305019
 22
18.70650162605456
 32
0.0
 13
22.96356170305019
 23
18.70650162605456
 33
0.0
  0
SOLID
  5
1CB3
330
2
100
AcDbEntity
  8
DIM
100
AcDbTrace
 10
23.23356170305018
 20
18.72816829272123
 30
0.0
 11
23.23356170305018
 21
18.68483495938789
 31
0.0
 12
23.10356170305018
 22
18.70650162605456
 32
0.0
 13
23.10356170305018
 23
18.70650162605456
 33
0.0
  0
MTEXT
  5
1CB4
330
2
100
AcDbEntity
  8
DIM
100
AcDbMText
 10
23.71771403472875
 20
18.80756756759093
 30
0.0
 40
0.156
 41
0.0
 71
     2
 72
     1
  1
{\fCentury Gothic|b0|i0|c0|p34;.140}
  7
SLDTEXTSTYLE6
1001
ACAD
1000
MTEXTBEGIN
1070
    73
1070
     1
1070
    44
1040
1.0
1070
    74
1070
     0
1000
MTEXTEND
  0
LINE
  5
1CB5
330
2
100
AcDbEntity
  8
DIM
100
AcDbLine
 10
9.101886447300014
 20
6.731691206327734
 30
0.0
 11
8.143227795105238
 21
6.731691206327734
 31
0.0
  0
LINE
  5
1CB6
330
2
100
AcDbEntity
  8
DIM
100
AcDbLine
 10
9.101886447300014
 20
7.223722671840917
 30
0.0
 11
8.143227795105238
 21
7.223722671840917
 31
0.0
  0
LINE
  5
1CB7
330
2
100
AcDbEntity
  8
DIM
100
AcDbLine
 10
8.23738805808856
 20
6.601691206327735
 30
0.0
 11
8.23738805808856
 21
6.471691206327735
 31
0.0
  0
LINE
  5
1CB8
330
2
100
AcDbEntity
  8
DIM
100
AcDbLine
 10
8.23738805808856
 20
7.353722671840917
 30
0.0
 11
8.23738805808856
 21
7.483722671840917
 31
0.0
  0
SOLID
  5
1CBB
330
2
100
AcDbEntity
  8
DIM
100
AcDbTrace
 10
8.215721391421894
 20
6.601691206327735
 30
0.0
 11
8.259054724755227
 21
6.601691206327735
 31
0.0
 12
8.23738805808856
 22
6.731691206327734
 32
0.0
 13
8.23738805808856
 23
6.731691206327734
 33
0.0
  0
SOLID
  5
1CBC
330
2
100
AcDbEntity
  8
DIM
100
AcDbTrace
 10
8.215721391421894
 20
7.353722671840917
 30
0.0
 11
8.259054724755227
 21
7.353722671840917
 31
0.0
 12
8.23738805808856
 22
7.223722671840917
 32
0.0
 13
8.23738805808856
 23
7.223722671840917
 33
0.0
  0
MTEXT
  5
1CBD
330
2
100
AcDbEntity
  8
DIM
100
AcDbMText
 10
8.237388058088559
 20
7.183625523410847
 30
0.0
 40
0.156
 41
0.0
 71
     2
 72
     1
  1
{\fCentury Gothic|b0|i0|c0|p34;.492}
  7
SLDTEXTSTYLE6
1001
ACAD
1000
MTEXTBEGIN
1070
    73
1070
     1
1070
    44
1040
1.0
1070
    74
1070
     0
1000
MTEXTEND
  0
LINE
  5
1CBE
330
2
100
AcDbEntity
  8
DIM
100
AcDbLine
 10
9.101886447300014
 20
7.223722671840917
 30
0.0
 11
7.420600141626843
 21
7.223722671840917
 31
0.0
  0
LINE
  5
1CBF
330
2
100
AcDbEntity
  8
DIM
100
AcDbLine
 10
9.415228874505409
 20
6.641454985855293
 30
0.0
 11
7.420600141626843
 21
6.641454985855293
 31
0.0
  0
LINE
  5
1CC0
330
2
100
AcDbEntity
  8
DIM
100
AcDbLine
 10
7.483373575779617
 20
7.353722671840917
 30
0.0
 11
7.483373575779617
 21
7.459460389598603
 31
0.0
  0
SOLID
  5
1CC2
330
2
100
AcDbEntity
  8
DIM
100
AcDbTrace
 10
7.46170690911295
 20
7.353722671840917
 30
0.0
 11
7.505040242446283
 21
7.353722671840917
 31
0.0
 12
7.483373575779617
 22
7.223722671840917
 32
0.0
 13
7.483373575779617
 23
7.223722671840917
 33
0.0
  0
MTEXT
  5
1CC4
330
2
100
AcDbEntity
  8
DIM
100
AcDbMText
 10
7.483373575779615
 20
7.156570479924927
 30
0.0
 40
0.156
 41
0.0
 71
     2
 72
     1
  1
{\fCentury Gothic|b0|i0|c0|p34;.582}
  7
SLDTEXTSTYLE6
1001
ACAD
1000
MTEXTBEGIN
1070
    73
1070
     1
1070
    44
1040
1.0
1070
    74
1070
     0
1000
MTEXTEND
  0
MTEXT
  5
1CC5
330
2
100
AcDbEntity
  8
DIM
100
AcDbMText
 10
7.484556640856659
 20
15.51640274433179
 30
0.0
 40
0.156
 41
0.0
 71
     2
 72
     1
  1
{\fCentury Gothic|b0|i0|c0|p34;(131.97)}
  7
SLDTEXTSTYLE6
1001
ACAD
1000
MTEXTBEGIN
1070
    73
1070
     1
1070
    44
1040
1.0
1070
    74
1070
     0
1000
MTEXTEND
  0
MTEXT
  5
1CC6
330
2
100
AcDbEntity
  8
DIM
100
AcDbMText
 10
8.06758320667166
 20
14.37950600625281
 30
0.0
 40
0.156
 41
0.0
 71
     2
 72
     1
  1
{\fCentury Gothic|b0|i0|c0|p34;(104.67)}
  7
SLDTEXTSTYLE6
1001
ACAD
1000
MTEXTBEGIN
1070
    73
1070
     1
1070
    44
1040
1.0
1070
    74
1070
     0
1000
MTEXTEND
  0
MTEXT
  5
1CC7
330
2
100
AcDbEntity
  8
DIM
100
AcDbMText
 10
8.66565900306139
 20
12.81555894686927
 30
0.0
 40
0.156
 41
0.0
 71
     2
 72
     1
  1
{\fCentury Gothic|b0|i0|c0|p34;(16.84)}
  7
SLDTEXTSTYLE6
1001
ACAD
1000
MTEXTBEGIN
1070
    73
1070
     1
1070
    44
1040
1.0
1070
    74
1070
     0
1000
MTEXTEND
  0
MTEXT
  5
1CC8
330
2
100
AcDbEntity
  8
DIM
100
AcDbMText
 10
10.01895652225605
 20
11.96843519623263
 30
0.0
 40
0.156
 41
0.0
 71
     2
 72
     1
  1
{\fCentury Gothic|b0|i0|c0|p34;(48.35)}
  7
SLDTEXTSTYLE6
1001
ACAD
1000
MTEXTBEGIN
1070
    73
1070
     1
1070
    44
1040
1.0
1070
    74
1070
     0
1000
MTEXTEND
  0
MTEXT
  5
1CC9
330
2
100
AcDbEntity
  8
DIM
100
AcDbMText
 10
12.09172372003124
 20
11.61561569417718
 30
0.0
 40
0.156
 41
0.0
 71
     2
 72
     1
  1
{\fCentury Gothic|b0|i0|c0|p34;(137.25)}
  7
SLDTEXTSTYLE6
1001
ACAD
1000
MTEXTBEGIN
1070
    73
1070
     1
1070
    44
1040
1.0
1070
    74
1070
     0
1000
MTEXTEND
  0
MTEXT
  5
1CCA
330
2
100
AcDbEntity
  8
DIM
100
AcDbMText
 10
12.69946308033656
 20
11.02657571968079
 30
0.0
 40
0.156
 41
0.0
 71
     2
 72
     1
  1
{\fCentury Gothic|b0|i0|c0|p34;(185.60)}
  7
SLDTEXTSTYLE6
1001
ACAD
1000
MTEXTBEGIN
1070
    73
1070
     1
1070
    44
1040
1.0
1070
    74
1070
     0
1000
MTEXTEND
  0
MTEXT
  5
1CCB
330
2
100
AcDbEntity
  8
DIM
100
AcDbMText
 10
9.976323254353125
 20
18.14627010632285
 30
0.0
 40
0.156
 41
0.0
 71
     2
 72
     1
  1
{\fCentury Gothic|b0|i0|c0|p34;(41.11)}
  7
SLDTEXTSTYLE6
1001
ACAD
1000
MTEXTBEGIN
1070
    73
1070
     1
1070
    44
1040
1.0
1070
    74
1070
     0
1000
MTEXTEND
  0
MTEXT
  5
1CCC
330
2
100
AcDbEntity
  8
DIM
100
AcDbMText
 10
8.237388058088559
 20
6.981251278325779
 30
0.0
 40
0.156
 41
0.0
 71
     2
 72
     1
  1
{\fCentury Gothic|b0|i0|c0|p34;(12.50)}
  7
SLDTEXTSTYLE6
1001
ACAD
1000
MTEXTBEGIN
1070
    73
1070
     1
1070
    44
1040
1.0
1070
    74
1070
     0
1000
MTEXTEND
  0
MTEXT
  5
1CCD
330
2
100
AcDbEntity
  8
DIM
100
AcDbMText
 10
7.483373575779615
 20
6.946915641687827
 30
0.0
 40
0.156
 41
0.0
 71
     2
 72
     1
  1
{\fCentury Gothic|b0|i0|c0|p34;(14.79)}
  7
SLDTEXTSTYLE6
1001
ACAD
1000
MTEXTBEGIN
1070
    73
1070
     1
1070
    44
1040
1.0
1070
    74
1070
     0
1000
MTEXTEND
  0
SOLID
  5
1CCE
330
2
100
AcDbEntity
  8
DIM
100
AcDbTrace
 10
7.46170690911295
 20
6.511454985855293
 30
0.0
 11
7.505040242446283
 21
6.511454985855293
 31
0.0
 12
7.483373575779617
 22
6.641454985855293
 32
0.0
 13
7.483373575779617
 23
6.641454985855293
 33
0.0
  0
LINE
  5
1CCF
330
2
100
AcDbEntity
  8
DIM
100
AcDbLine
 10
7.483373575779617
 20
6.511454985855293
 30
0.0
 11
7.483373575779617
 21
6.408764839717297
 31
0.0
  0
MTEXT
  5
1CD0
330
2
100
AcDbEntity
  8
DIM
100
AcDbMText
 10
23.71771403472875
 20
18.58838050612992
 30
0.0
 40
0.156
 41
0.0
 71
     2
 72
     1
  1
{\fCentury Gothic|b0|i0|c0|p34;(3.56)}
  7
SLDTEXTSTYLE6
1001
ACAD
1000
MTEXTBEGIN
1070
    73
1070
     1
1070
    44
1040
1.0
1070
    74
1070
     0
1000
MTEXTEND
  0
LINE
  5
1CDE
330
2
100
AcDbEntity
  8
DIM
100
AcDbLine
 10
23.19379792352263
 20
16.46961580047447
 30
0.0
 11
23.19379792352263
 21
18.22515173892749
 31
0.0
  0
LINE
  5
1CDF
330
2
100
AcDbEntity
  8
DIM
100
AcDbLine
 10
22.9635617030502
 20
17.71852472921861
 30
0.0
 11
22.9635617030502
 21
18.22515173892749
 31
0.0
  0
LINE
  5
1CE0
330
2
100
AcDbEntity
  8
DIM
100
AcDbLine
 10
22.8435617030502
 20
18.12515173892749
 30
0.0
 11
22.7235617030502
 21
18.12515173892749
 31
0.0
  0
LINE
  5
1CE1
330
2
100
AcDbEntity
  8
DIM
100
AcDbLine
 10
23.31379792352263
 20
18.12515173892749
 30
0.0
 11
23.43379792352263
 21
18.12515173892749
 31
0.0
  0
SOLID
  5
1CE2
330
2
100
AcDbEntity
  8
DIM
100
AcDbTrace
 10
22.8435617030502
 20
18.14515173892749
 30
0.0
 11
22.8435617030502
 21
18.10515173892749
 31
0.0
 12
22.9635617030502
 22
18.12515173892749
 32
0.0
 13
22.9635617030502
 23
18.12515173892749
 33
0.0
  0
SOLID
  5
1CE3
330
2
100
AcDbEntity
  8
DIM
100
AcDbTrace
 10
23.31379792352263
 20
18.14515173892749
 30
0.0
 11
23.31379792352263
 21
18.10515173892749
 31
0.0
 12
23.19379792352263
 22
18.12515173892749
 32
0.0
 13
23.19379792352263
 23
18.12515173892749
 33
0.0
  0
MTEXT
  5
1CE4
330
2
100
AcDbEntity
  8
DIM
100
AcDbMText
 10
23.76379792352263
 20
18.12515173892749
 30
0.0
 40
0.12
 41
0.0
 71
     5
 72
     1
  1
.230
  7
ROMANS
1001
ACAD
1000
MTEXTBEGIN
1070
    73
1070
     1
1070
    44
1040
1.0
1070
    74
1070
     0
1000
MTEXTEND
  0
MTEXT
  5
1CE5
330
2
100
AcDbEntity
  8
DIM
100
AcDbMText
 10
23.76379792352263
 20
17.9427878797727
 30
0.0
 40
0.12
 41
0.0
 71
     5
 72
     1
  1
(5.84)
  7
ROMANS
1001
ACAD
1000
MTEXTBEGIN
1070
    73
1070
     1
1070
    44
1040
1.0
1070
    74
1070
     0
1000
MTEXTEND
  0
ENDSEC
  0
SECTION
  2
OBJECTS
  0
DICTIONARY
  5
9
330
0
100
AcDbDictionary
  3
ACAD_GROUP
350
23
  3
ACAD_LAYOUT
350
D
  3
ACAD_MLINESTYLE
350
24
  3
ACAD_PLOTSETTINGS
350
25
  3
ACAD_PLOTSTYLENAME
350
8
  3
ACDBHEADERROUNDTRIPXREC
350
1CF3
  3
ACDBVARIABLEDICTIONARY
350
1FD
  0
DICTIONARY
  5
3
330
2
100
AcDbDictionary
280
     1
  3
ACAD_LAYOUTSELFREF
360
1D13
  0
DICTIONARY
  5
F
330
E
100
AcDbDictionary
280
     1
  3
ACAD_LAYOUTSELFREF
360
1D14
  0
DICTIONARY
  5
23
102
{ACAD_REACTORS
330
9
102
}
330
9
100
AcDbDictionary
  0
DICTIONARY
  5
D
102
{ACAD_REACTORS
330
9
102
}
330
9
100
AcDbDictionary
  0
DICTIONARY
  5
24
102
{ACAD_REACTORS
330
9
102
}
330
9
100
AcDbDictionary
  3
STANDARD
350
28
  0
DICTIONARY
  5
25
102
{ACAD_REACTORS
330
9
102
}
330
9
100
AcDbDictionary
  0
ACDBDICTIONARYWDFLT
  5
8
102
{ACAD_REACTORS
330
9
102
}
330
9
100
AcDbDictionary
281
     1
  3
Normal
350
7
100
AcDbDictionaryWithDefault
340
7
  0
DICTIONARY
  5
1CF3
102
{ACAD_REACTORS
330
9
102
}
330
9
100
AcDbDictionary
  3
CEPSNTYPE
350
1CFD
  3
FINGERPRINTGUID
350
1CFE
  3
HYPERLINKBASE
350
1CF6
  3
INSUNITS
350
1CFC
  3
LAYOUTDICT
350
1CF8
  3
LWETCUNION
350
1CFB
  3
PLOTSETDICT
350
1CF9
  3
PLOTSTYLNAMDICT
350
1CFA
  3
PSVPSCALE
350
1D00
  3
PUCSBASE
350
1D03
  3
PUCSORGBACK
350
1D09
  3
PUCSORGBOTTOM
350
1D05
  3
PUCSORGFRONT
350
1D08
  3
PUCSORGLEFT
350
1D06
  3
PUCSORGRIGHT
350
1D07
  3
PUCSORGTOP
350
1D04
  3
PUCSORTHOREF
350
1D01
  3
PUCSORTHOVIEW
350
1D02
  3
STYLESHEET
350
1CF7
  3
TSTACKALIGN
350
1CF4
  3
TSTACKSIZE
350
1CF5
  3
UCSBASE
350
1D0C
  3
UCSORGBACK
350
1D12
  3
UCSORGBOTTOM
350
1D0E
  3
UCSORGFRONT
350
1D11
  3
UCSORGLEFT
350
1D0F
  3
UCSORGRIGHT
350
1D10
  3
UCSORGTOP
350
1D0D
  3
UCSORTHOREF
350
1D0A
  3
UCSORTHOVIEW
350
1D0B
  3
VERSIONGUID
350
1CFF
  0
DICTIONARY
  5
1FD
102
{ACAD_REACTORS
330
9
102
}
330
9
100
AcDbDictionary
  3
DIMASSOC
350
1FF
  3
HIDETEXT
350
1FE
  0
XRECORD
  5
1D13
102
{ACAD_REACTORS
330
3
102
}
330
3
100
AcDbXrecord
340
2
  0
XRECORD
  5
1D14
102
{ACAD_REACTORS
330
F
102
}
330
F
100
AcDbXrecord
340
E
  0
MLINESTYLE
  5
28
102
{ACAD_REACTORS
330
24
102
}
330
24
100
AcDbMlineStyle
  2
STANDARD
 70
     0
  3

 62
   256
 51
90.0
 52
90.0
 71
     2
 49
0.5
 62
   256
  6
BYLAYER
 49
-0.5
 62
   256
  6
BYLAYER
  0
ACDBPLACEHOLDER
  5
7
102
{ACAD_REACTORS
330
8
102
}
330
8
100
AcDbPlaceHolder
280
     0
  0
XRECORD
  5
1CFD
102
{ACAD_REACTORS
330
1CF3
102
}
330
1CF3
100
AcDbXrecord
 90
        0
  0
XRECORD
  5
1CFE
102
{ACAD_REACTORS
330
1CF3
102
}
330
1CF3
100
AcDbXrecord
  1
{8269B36E-5346-4F75-9EC1-11DA917C5436}
  0
XRECORD
  5
1CF6
102
{ACAD_REACTORS
330
1CF3
102
}
330
1CF3
100
AcDbXrecord
  1

  0
XRECORD
  5
1CFC
102
{ACAD_REACTORS
330
1CF3
102
}
330
1CF3
100
AcDbXrecord
 90
        0
  0
XRECORD
  5
1CF8
102
{ACAD_REACTORS
330
1CF3
102
}
330
1CF3
100
AcDbXrecord
340
D
  0
XRECORD
  5
1CFB
102
{ACAD_REACTORS
330
1CF3
102
}
330
1CF3
100
AcDbXrecord
 90
    10781
  0
XRECORD
  5
1CF9
102
{ACAD_REACTORS
330
1CF3
102
}
330
1CF3
100
AcDbXrecord
340
25
  0
XRECORD
  5
1CFA
102
{ACAD_REACTORS
330
1CF3
102
}
330
1CF3
100
AcDbXrecord
340
8
  0
XRECORD
  5
1D00
102
{ACAD_REACTORS
330
1CF3
102
}
330
1CF3
100
AcDbXrecord
 40
0.0
  0
XRECORD
  5
1D03
102
{ACAD_REACTORS
330
1CF3
102
}
330
1CF3
100
AcDbXrecord
340
0
  0
XRECORD
  5
1D09
102
{ACAD_REACTORS
330
1CF3
102
}
330
1CF3
100
AcDbXrecord
 10
0.0
 20
0.0
 30
0.0
  0
XRECORD
  5
1D05
102
{ACAD_REACTORS
330
1CF3
102
}
330
1CF3
100
AcDbXrecord
 10
0.0
 20
0.0
 30
0.0
  0
XRECORD
  5
1D08
102
{ACAD_REACTORS
330
1CF3
102
}
330
1CF3
100
AcDbXrecord
 10
0.0
 20
0.0
 30
0.0
  0
XRECORD
  5
1D06
102
{ACAD_REACTORS
330
1CF3
102
}
330
1CF3
100
AcDbXrecord
 10
0.0
 20
0.0
 30
0.0
  0
XRECORD
  5
1D07
102
{ACAD_REACTORS
330
1CF3
102
}
330
1CF3
100
AcDbXrecord
 10
0.0
 20
0.0
 30
0.0
  0
XRECORD
  5
1D04
102
{ACAD_REACTORS
330
1CF3
102
}
330
1CF3
100
AcDbXrecord
 10
0.0
 20
0.0
 30
0.0
  0
XRECORD
  5
1D01
102
{ACAD_REACTORS
330
1CF3
102
}
330
1CF3
100
AcDbXrecord
340
0
  0
XRECORD
  5
1D02
102
{ACAD_REACTORS
330
1CF3
102
}
330
1CF3
100
AcDbXrecord
 70
     0
  0
XRECORD
  5
1CF7
102
{ACAD_REACTORS
330
1CF3
102
}
330
1CF3
100
AcDbXrecord
  1
monochrome.ctb
  0
XRECORD
  5
1CF4
102
{ACAD_REACTORS
330
1CF3
102
}
330
1CF3
100
AcDbXrecord
 90
        1
  0
XRECORD
  5
1CF5
102
{ACAD_REACTORS
330
1CF3
102
}
330
1CF3
100
AcDbXrecord
 90
       70
  0
XRECORD
  5
1D0C
102
{ACAD_REACTORS
330
1CF3
102
}
330
1CF3
100
AcDbXrecord
340
0
  0
XRECORD
  5
1D12
102
{ACAD_REACTORS
330
1CF3
102
}
330
1CF3
100
AcDbXrecord
 10
0.0
 20
0.0
 30
0.0
  0
XRECORD
  5
1D0E
102
{ACAD_REACTORS
330
1CF3
102
}
330
1CF3
100
AcDbXrecord
 10
0.0
 20
0.0
 30
0.0
  0
XRECORD
  5
1D11
102
{ACAD_REACTORS
330
1CF3
102
}
330
1CF3
100
AcDbXrecord
 10
0.0
 20
0.0
 30
0.0
  0
XRECORD
  5
1D0F
102
{ACAD_REACTORS
330
1CF3
102
}
330
1CF3
100
AcDbXrecord
 10
0.0
 20
0.0
 30
0.0
  0
XRECORD
  5
1D10
102
{ACAD_REACTORS
330
1CF3
102
}
330
1CF3
100
AcDbXrecord
 10
0.0
 20
0.0
 30
0.0
  0
XRECORD
  5
1D0D
102
{ACAD_REACTORS
330
1CF3
102
}
330
1CF3
100
AcDbXrecord
 10
0.0
 20
0.0
 30
0.0
  0
XRECORD
  5
1D0A
102
{ACAD_REACTORS
330
1CF3
102
}
330
1CF3
100
AcDbXrecord
340
0
  0
XRECORD
  5
1D0B
102
{ACAD_REACTORS
330
1CF3
102
}
330
1CF3
100
AcDbXrecord
 70
     0
  0
XRECORD
  5
1CFF
102
{ACAD_REACTORS
330
1CF3
102
}
330
1CF3
100
AcDbXrecord
  1
{E2422D91-EAF3-415A-A19F-AFA97543B20A}
  0
DICTIONARYVAR
  5
1FF
102
{ACAD_REACTORS
330
1FD
102
}
330
1FD
100
DictionaryVariables
280
     0
  1
0
  0
DICTIONARYVAR
  5
1FE
102
{ACAD_REACTORS
330
1FD
102
}
330
1FD
100
DictionaryVariables
280
     0
  1
1
  0
ENDSEC
  0
EOF
