  0
SECTION
  2
HEADER
  9
$ACADVER
  1
AC1014
  9
$ACADMAINTVER
 70
     9
  9
$DWGCODEPAGE
  3
ANSI_1252
  9
$INSBASE
 10
0.0
 20
0.0
 30
0.0
  9
$EXTMIN
 10
-0.0006583492843362
 20
-0.0015175488705026
 30
-0.0000000152890065
  9
$EXTMAX
 10
34.00116726160068
 20
22.00165710614143
 30
0.0000000006374876
  9
$LIMMIN
 10
-0.0011691468586008
 20
-0.001158055241639
  9
$LIMMAX
 10
34.00107780110693
 20
22.00097525454911
  9
$ORTHOMODE
 70
     1
  9
$REGENMODE
 70
     1
  9
$FILLMODE
 70
     1
  9
$QTEXTMODE
 70
     0
  9
$MIRRTEXT
 70
     1
  9
$DRAGMODE
 70
     2
  9
$LTSCALE
 40
0.2
  9
$OSMODE
 70
    37
  9
$ATTMODE
 70
     1
  9
$TEXTSIZE
 40
0.12
  9
$TRACEWID
 40
0.05
  9
$TEXTSTYLE
  7
ARIAL
  9
$CLAYER
  8
0
  9
$CELTYPE
  6
BYLAYER
  9
$CECOLOR
 62
   256
  9
$CELTSCALE
 40
1.0
  9
$DELOBJ
 70
     1
  9
$DISPSILH
 70
     0
  9
$DIMSCALE
 40
1.0
  9
$DIMASZ
 40
0.12
  9
$DIMEXO
 40
0.1
  9
$DIMDLI
 40
0.38
  9
$DIMRND
 40
0.0
  9
$DIMDLE
 40
0.0
  9
$DIMEXE
 40
0.1
  9
$DIMTP
 40
0.0
  9
$DIMTM
 40
0.0
  9
$DIMTXT
 40
0.12
  9
$DIMCEN
 40
0.09
  9
$DIMTSZ
 40
0.0
  9
$DIMTOL
 70
     0
  9
$DIMLIM
 70
     0
  9
$DIMTIH
 70
     1
  9
$DIMTOH
 70
     1
  9
$DIMSE1
 70
     0
  9
$DIMSE2
 70
     0
  9
$DIMTAD
 70
     0
  9
$DIMZIN
 70
     0
  9
$DIMBLK
  1

  9
$DIMASO
 70
     0
  9
$DIMSHO
 70
     0
  9
$DIMPOST
  1

  9
$DIMAPOST
  1

  9
$DIMALT
 70
     0
  9
$DIMALTD
 70
     2
  9
$DIMALTF
 40
25.4
  9
$DIMLFAC
 40
1.0
  9
$DIMTOFL
 70
     0
  9
$DIMTVP
 40
0.0
  9
$DIMTIX
 70
     0
  9
$DIMSOXD
 70
     0
  9
$DIMSAH
 70
     0
  9
$DIMBLK1
  1

  9
$DIMBLK2
  1

  9
$DIMSTYLE
  2
STANDARD
  9
$DIMCLRD
 70
   256
  9
$DIMCLRE
 70
   256
  9
$DIMCLRT
 70
   256
  9
$DIMTFAC
 40
1.0
  9
$DIMGAP
 40
0.09
  9
$DIMJUST
 70
     0
  9
$DIMSD1
 70
     0
  9
$DIMSD2
 70
     0
  9
$DIMTOLJ
 70
     1
  9
$DIMTZIN
 70
     0
  9
$DIMALTZ
 70
     0
  9
$DIMALTTZ
 70
     0
  9
$DIMFIT
 70
     3
  9
$DIMUPT
 70
     1
  9
$DIMUNIT
 70
     2
  9
$DIMDEC
 70
     3
  9
$DIMTDEC
 70
     4
  9
$DIMALTU
 70
     2
  9
$DIMALTTD
 70
     2
  9
$DIMTXSTY
  7
ROMANS
  9
$DIMAUNIT
 70
     0
  9
$LUNITS
 70
     2
  9
$LUPREC
 70
     3
  9
$SKETCHINC
 40
0.1
  9
$FILLETRAD
 40
0.0
  9
$AUNITS
 70
     0
  9
$AUPREC
 70
     1
  9
$MENU
  1
ACAD
  9
$ELEVATION
 40
0.0
  9
$PELEVATION
 40
0.0
  9
$THICKNESS
 40
0.0
  9
$LIMCHECK
 70
     0
  9
$BLIPMODE
 70
     0
  9
$CHAMFERA
 40
0.0
  9
$CHAMFERB
 40
0.0
  9
$CHAMFERC
 40
1.0
  9
$CHAMFERD
 40
0.0
  9
$SKPOLY
 70
     0
  9
$TDCREATE
 40
2456457.477131990
  9
$TDUPDATE
 40
2456507.490114791
  9
$TDINDWG
 40
0.0408605556
  9
$TDUSRTIMER
 40
0.0408605556
  9
$USRTIMER
 70
     1
  9
$ANGBASE
 50
0.0
  9
$ANGDIR
 70
     0
  9
$PDMODE
 70
     2
  9
$PDSIZE
 40
0.085
  9
$PLINEWID
 40
0.0
  9
$COORDS
 70
     1
  9
$SPLFRAME
 70
     0
  9
$SPLINETYPE
 70
     6
  9
$SPLINESEGS
 70
    16
  9
$ATTDIA
 70
     0
  9
$ATTREQ
 70
     1
  9
$HANDLING
 70
 22529
  9
$HANDSEED
  5
5BD2
  9
$SURFTAB1
 70
     6
  9
$SURFTAB2
 70
     6
  9
$SURFTYPE
 70
     6
  9
$SURFU
 70
     6
  9
$SURFV
 70
     6
  9
$UCSNAME
  2

  9
$UCSORG
 10
0.0
 20
0.0
 30
0.0
  9
$UCSXDIR
 10
1.0
 20
0.0
 30
0.0
  9
$UCSYDIR
 10
0.0
 20
1.0
 30
0.0
  9
$PUCSNAME
  2

  9
$PUCSORG
 10
0.0
 20
0.0
 30
0.0
  9
$PUCSXDIR
 10
1.0
 20
0.0
 30
0.0
  9
$PUCSYDIR
 10
0.0
 20
1.0
 30
0.0
  9
$USERI1
 70
     0
  9
$USERI2
 70
     0
  9
$USERI3
 70
     0
  9
$USERI4
 70
     0
  9
$USERI5
 70
     0
  9
$USERR1
 40
0.0
  9
$USERR2
 40
0.0
  9
$USERR3
 40
0.0
  9
$USERR4
 40
0.0
  9
$USERR5
 40
0.0
  9
$WORLDVIEW
 70
     1
  9
$SHADEDGE
 70
     3
  9
$SHADEDIF
 70
    70
  9
$TILEMODE
 70
     1
  9
$MAXACTVP
 70
    48
  9
$PINSBASE
 10
0.0
 20
0.0
 30
0.0
  9
$PLIMCHECK
 70
     0
  9
$PEXTMIN
 10
1.000000000000000E+20
 20
1.000000000000000E+20
 30
1.000000000000000E+20
  9
$PEXTMAX
 10
-1.000000000000000E+20
 20
-1.000000000000000E+20
 30
-1.000000000000000E+20
  9
$PLIMMIN
 10
0.0
 20
0.0
  9
$PLIMMAX
 10
12.0
 20
9.0
  9
$UNITMODE
 70
     0
  9
$VISRETAIN
 70
     0
  9
$PLINEGEN
 70
     0
  9
$PSLTSCALE
 70
     1
  9
$TREEDEPTH
 70
  3020
  9
$PICKSTYLE
 70
     1
  9
$CMLSTYLE
  2
STANDARD
  9
$CMLJUST
 70
     0
  9
$CMLSCALE
 40
1.0
  9
$PROXYGRAPHICS
 70
     1
  9
$MEASUREMENT
 70
     0
  0
ENDSEC
  0
SECTION
  2
CLASSES
  0
CLASS
  1
DICTIONARYVAR
  2
AcDbDictionaryVar
  3
AutoCAD 2000
 90
        0
280
     0
281
     0
  0
CLASS
  1
HATCH
  2
AcDbHatch
  3
AutoCAD 2000
 90
        0
280
     0
281
     1
  0
CLASS
  1
LWPOLYLINE
  2
AcDbPolyline
  3
AutoCAD 2000
 90
        0
280
     0
281
     1
  0
CLASS
  1
ACDBDICTIONARYWDFLT
  2
AcDbDictionaryWithDefault
  3
AutoCAD 2000
 90
        0
280
     0
281
     0
  0
CLASS
  1
ACDBPLACEHOLDER
  2
AcDbPlaceHolder
  3
AutoCAD 2000
 90
        0
280
     0
281
     0
  0
CLASS
  1
LAYOUT
  2
AcDbLayout
  3
AutoCAD 2000
 90
        0
280
     0
281
     0
  0
CLASS
  1
LONG_TRANSACTION
  2
AcDbLongTransaction
  3
AutoCAD 2000
 90
        0
280
     0
281
     0
  0
CLASS
  1
LWPOLYLINE
  2
AcDbPolyline
  3
AutoCAD 2000
 90
        0
280
     0
281
     1
  0
CLASS
  1
HATCH
  2
AcDbHatch
  3
AutoCAD 2000
 90
        0
280
     0
281
     1
  0
CLASS
  1
XRECORD
  2
AcDbXrecord
  3
AutoCAD 2000
 90
        0
280
     0
281
     0
  0
CLASS
  1
LONG_TRANSACTION
  2
AcDbLongTransaction
  3
AutoCAD 2000
 90
        0
280
     0
281
     0
  0
CLASS
  1
LWPOLYLINE
  2
AcDbPolyline
  3
AutoCAD 2000
 90
        0
280
     0
281
     1
  0
CLASS
  1
HATCH
  2
AcDbHatch
  3
AutoCAD 2000
 90
        0
280
     0
281
     1
  0
CLASS
  1
XRECORD
  2
AcDbXrecord
  3
AutoCAD 2000
 90
        0
280
     0
281
     0
  0
ENDSEC
  0
SECTION
  2
TABLES
  0
TABLE
  2
VPORT
  5
8
330
0
100
AcDbSymbolTable
 70
     2
  0
VPORT
  5
5BAF
330
8
100
AcDbSymbolTableRecord
100
AcDbViewportTableRecord
  2
*ACTIVE
 70
     0
 10
0.0
 20
0.0
 11
1.0
 21
1.0
 12
16.48800592802926
 22
9.789325017663042
 13
0.0
 23
0.0
 14
0.025
 24
0.025
 15
0.1
 25
0.1
 16
0.0
 26
0.0
 36
1.0
 17
0.0
 27
0.0
 37
0.0
 40
33.27583089605663
 41
1.437415881561238
 42
50.0
 43
0.0
 44
0.0
 50
0.0
 51
0.0
 71
     0
 72
  5000
 73
     1
 74
     0
 75
     0
 76
     0
 77
     0
 78
     0
  0
ENDTAB
  0
TABLE
  2
LTYPE
  5
5
330
0
100
AcDbSymbolTable
 70
    10
  0
LTYPE
  5
11
330
5
100
AcDbSymbolTableRecord
100
AcDbLinetypeTableRecord
  2
BYBLOCK
 70
     0
  3

 72
    65
 73
     0
 40
0.0
  0
LTYPE
  5
12
330
5
100
AcDbSymbolTableRecord
100
AcDbLinetypeTableRecord
  2
BYLAYER
 70
     0
  3

 72
    65
 73
     0
 40
0.0
  0
LTYPE
  5
13
330
5
100
AcDbSymbolTableRecord
100
AcDbLinetypeTableRecord
  2
CONTINUOUS
 70
     0
  3
Solid line
 72
    65
 73
     0
 40
0.0
  0
LTYPE
  5
31E1
330
5
100
AcDbSymbolTableRecord
100
AcDbLinetypeTableRecord
  2
CENTER
 70
     0
  3
____ _ ____ _ ____ _ ____ _ ____ _ ____ _ ____
 72
    65
 73
     4
 40
2.0
 49
1.25
 74
     0
 49
-0.25
 74
     0
 49
0.25
 74
     0
 49
-0.25
 74
     0
  0
LTYPE
  5
4067
330
5
100
AcDbSymbolTableRecord
100
AcDbLinetypeTableRecord
  2
PHANTOM
 70
     0
  3
_____ _ _ _____ _ _ _____ _ _ _____
 72
    65
 73
     6
 40
0.8
 49
0.45
 74
     0
 49
-0.05
 74
     0
 49
0.1
 74
     0
 49
-0.05
 74
     0
 49
0.1
 74
     0
 49
-0.05
 74
     0
  0
LTYPE
  5
4340
330
5
100
AcDbSymbolTableRecord
100
AcDbLinetypeTableRecord
  2
SLD-SOLID
 70
     0
  3
SolidWorks Line Style
 72
    65
 73
     0
 40
0.0
  0
ENDTAB
  0
TABLE
  2
LAYER
  5
2
330
0
100
AcDbSymbolTable
 70
     8
  0
LAYER
  5
E
330
2
100
AcDbSymbolTableRecord
100
AcDbLayerTableRecord
  2
0
 70
     0
 62
     9
  6
CONTINUOUS
  0
LAYER
  5
31E3
330
2
100
AcDbSymbolTableRecord
100
AcDbLayerTableRecord
  2
FORMAT
 70
     0
 62
     7
  6
CONTINUOUS
  0
LAYER
  5
3BB7
330
2
100
AcDbSymbolTableRecord
100
AcDbLayerTableRecord
  2
TB-TXT
 70
     0
 62
     3
  6
CONTINUOUS
  0
LAYER
  5
4005
330
2
100
AcDbSymbolTableRecord
100
AcDbLayerTableRecord
  2
PART
 70
     0
 62
     4
  6
CONTINUOUS
  0
LAYER
  5
4006
330
2
100
AcDbSymbolTableRecord
100
AcDbLayerTableRecord
  2
DIM
 70
     0
 62
     1
  6
CONTINUOUS
  0
LAYER
  5
4008
330
2
100
AcDbSymbolTableRecord
100
AcDbLayerTableRecord
  2
TXT
 70
     0
 62
     3
  6
CONTINUOUS
  0
LAYER
  5
4768
330
2
100
AcDbSymbolTableRecord
100
AcDbLayerTableRecord
  2
DEFPOINTS
 70
     0
 62
     7
  6
CONTINUOUS
  0
ENDTAB
  0
TABLE
  2
STYLE
  5
3
330
0
100
AcDbSymbolTable
 70
    11
  0
STYLE
  5
F
330
3
100
AcDbSymbolTableRecord
100
AcDbTextStyleTableRecord
  2
STANDARD
 70
     0
 40
0.0
 41
1.0
 50
0.0
 71
     0
 42
0.2
  3
txt
  4

  0
STYLE
  5
1E
330
3
100
AcDbSymbolTableRecord
100
AcDbTextStyleTableRecord
  2
ROMANS
 70
     0
 40
0.0
 41
1.0
 50
0.0
 71
     0
 42
4.0
  3
ROMANS.SHX
  4

  0
STYLE
  5
31E4
330
3
100
AcDbSymbolTableRecord
100
AcDbTextStyleTableRecord
  2
ARIAL
 70
     0
 40
0.0
 41
1.0
 50
0.0
 71
     0
 42
0.12
  3
arial.ttf
  4

1001
ACAD
1000
Arial
1071
       34
  0
STYLE
  5
4348
330
3
100
AcDbSymbolTableRecord
100
AcDbTextStyleTableRecord
  2
SLDTEXTSTYLE0
 70
     0
 40
0.0
 41
1.0
 50
0.0
 71
     0
 42
0.2
  3
cour.ttf
  4

1001
ACAD
1000
Courier New
1071
      305
  0
STYLE
  5
4349
330
3
100
AcDbSymbolTableRecord
100
AcDbTextStyleTableRecord
  2
SLDTEXTSTYLE1
 70
     0
 40
0.0
 41
0.913
 50
0.0
 71
     0
 42
0.2
  3
GOTHIC.TTF
  4

1001
ACAD
1000
Century Gothic
1071
      290
  0
STYLE
  5
4A2F
330
3
100
AcDbSymbolTableRecord
100
AcDbTextStyleTableRecord
  2
SLDTEXTSTYLE6
 70
     0
 40
0.0
 41
0.913
 50
0.0
 71
     0
 42
0.2
  3
GOTHIC.TTF
  4

1001
ACAD
1000
Century Gothic
1071
      290
  0
ENDTAB
  0
TABLE
  2
VIEW
  5
6
330
0
100
AcDbSymbolTable
 70
     0
  0
ENDTAB
  0
TABLE
  2
UCS
  5
7
330
0
100
AcDbSymbolTable
 70
     0
  0
ENDTAB
  0
TABLE
  2
APPID
  5
9
330
0
100
AcDbSymbolTable
 70
     1
  0
APPID
  5
10
330
9
100
AcDbSymbolTableRecord
100
AcDbRegAppTableRecord
  2
ACAD
 70
     0
  0
ENDTAB
  0
TABLE
  2
DIMSTYLE
  5
A
330
0
100
AcDbSymbolTable
 70
     6
  0
DIMSTYLE
105
16E
330
A
100
AcDbSymbolTableRecord
100
AcDbDimStyleTableRecord
  2
STANDARD
 70
     0
  3

  4

  5

  6

  7

 40
1.0
 41
0.18
 42
0.0625
 43
0.38
 44
0.18
 45
0.0
 46
0.0
 47
0.0
 48
0.0
140
0.18
141
0.09
142
0.0
143
25.4
144
1.0
145
0.0
146
1.0
147
0.09
 71
     0
 72
     0
 73
     1
 74
     1
 75
     0
 76
     0
 77
     0
 78
     0
170
     0
171
     2
172
     0
173
     0
174
     0
175
     0
176
     0
177
     0
178
     0
270
     2
271
     4
272
     4
273
     2
274
     2
340
F
275
     0
280
     0
281
     0
282
     0
283
     1
284
     0
285
     0
286
     0
287
     3
288
     0
  0
ENDTAB
  0
TABLE
  2
BLOCK_RECORD
  5
1
330
0
100
AcDbSymbolTable
 70
    40
  0
BLOCK_RECORD
  5
17
102
{ACAD_XDICTIONARY
360
404E
102
}
330
1
100
AcDbSymbolTableRecord
100
AcDbBlockTableRecord
  2
*MODEL_SPACE
  0
BLOCK_RECORD
  5
14
102
{ACAD_XDICTIONARY
360
404C
102
}
330
1
100
AcDbSymbolTableRecord
100
AcDbBlockTableRecord
  2
*PAPER_SPACE
  0
BLOCK_RECORD
  5
3CAC
330
1
100
AcDbSymbolTableRecord
100
AcDbBlockTableRecord
  2
REV-BLOCK
  0
BLOCK_RECORD
  5
3CBF
330
1
100
AcDbSymbolTableRecord
100
AcDbBlockTableRecord
  2
TITLE-BLOCK
  0
ENDTAB
  0
ENDSEC
  0
SECTION
  2
BLOCKS
  0
BLOCK
  5
29
330
17
100
AcDbEntity
  8
0
100
AcDbBlockBegin
  2
*MODEL_SPACE
 70
     0
 10
0.0
 20
0.0
 30
0.0
  3
*MODEL_SPACE
  1

  0
ENDBLK
  5
2A
330
17
100
AcDbEntity
  8
0
100
AcDbBlockEnd
  0
BLOCK
  5
27
330
14
100
AcDbEntity
 67
     1
  8
0
100
AcDbBlockBegin
  2
*PAPER_SPACE
 70
     0
 10
0.0
 20
0.0
 30
0.0
  3
*PAPER_SPACE
  1

  0
ENDBLK
  5
28
330
14
100
AcDbEntity
 67
     1
  8
0
100
AcDbBlockEnd
  0
BLOCK
  5
3CAD
330
3CAC
100
AcDbEntity
  8
0
100
AcDbBlockBegin
  2
REV-BLOCK
 70
     2
 10
0.0
 20
0.0
 30
0.0
  3
REV-BLOCK
  1

  0
ATTDEF
  5
3CAE
330
3CAC
100
AcDbEntity
  8
TB-TXT
100
AcDbText
 10
-7.41962634146294
 20
-0.2641364156046726
 30
0.0
 40
0.12
  1
--
  7
ARIAL
 72
     1
 11
-7.363760038598002
 21
-0.2041364156046725
 31
0.0
100
AcDbAttributeDefinition
  3
REV
  2
REV
 70
     0
 74
     2
  0
ATTDEF
  5
3CAF
330
3CAC
100
AcDbEntity
  8
TB-TXT
100
AcDbText
 10
-7.021598876369779
 20
-0.2621627084294076
 30
0.0
 40
0.12
  1

  7
ARIAL
100
AcDbAttributeDefinition
  3
ECN N0,
  2
ECN
 70
     0
  0
ATTDEF
  5
3CB0
330
3CAC
100
AcDbEntity
  8
TB-TXT
100
AcDbText
 10
-6.3841325538651
 20
-0.2621627084294076
 30
0.0
 40
0.12
  1

  7
ARIAL
100
AcDbAttributeDefinition
  3
DESCRIPTION
  2
DESCRIPTION
 70
     0
  0
ATTDEF
  5
3CB1
330
3CAC
100
AcDbEntity
  8
TB-TXT
100
AcDbText
 10
-1.912314371261913
 20
-0.2641364156046726
 30
0.0
 40
0.12
  1

  7
ARIAL
 72
     1
 11
-1.912314371261913
 21
-0.2041364156046725
 31
0.0
100
AcDbAttributeDefinition
  3
REV DATE
  2
REV-DATE
 70
     0
 74
     2
  0
ATTDEF
  5
3CB2
330
3CAC
100
AcDbEntity
  8
TB-TXT
100
AcDbText
 10
-0.7008820905977871
 20
-0.2641364156046726
 30
0.0
 40
0.12
  1

  7
ARIAL
 72
     1
 11
-0.7008820905977871
 21
-0.2041364156046725
 31
0.0
100
AcDbAttributeDefinition
  3
APPR
  2
APPR
 70
     0
 74
     2
  0
LWPOLYLINE
  5
3CB3
330
3CAC
100
AcDbEntity
  8
FORMAT
100
AcDbPolyline
 90
        2
 70
     0
 43
0.0198
 10
-7.66263347794009
 20
-0.4059699235454915
 10
0.0
 20
-0.4059699235454915
  0
ENDBLK
  5
3CB7
330
3CAC
100
AcDbEntity
  8
0
100
AcDbBlockEnd
  0
BLOCK
  5
3CC0
330
3CBF
100
AcDbEntity
  8
0
100
AcDbBlockBegin
  2
TITLE-BLOCK
 70
     2
 10
0.0
 20
0.0
 30
0.0
  3
TITLE-BLOCK
  1

  0
ATTDEF
  5
3CC1
330
3CBF
100
AcDbEntity
  8
TB-TXT
100
AcDbText
 10
-5.452069740892156
 20
1.724637434505384
 30
0.0
 40
0.15996
  1

  7
ARIAL
100
AcDbAttributeDefinition
  3
TITLE (LINE 1)
  2
LINE1
 70
     0
  0
ATTDEF
  5
3CC2
330
3CBF
100
AcDbEntity
  8
TB-TXT
100
AcDbText
 10
-5.452069740892156
 20
1.465654577362527
 30
0.0
 40
0.15996
  1

  7
ARIAL
100
AcDbAttributeDefinition
  3
TITLE (LINE 2)
  2
LINE2
 70
     0
  0
ATTDEF
  5
3CC3
330
3CBF
100
AcDbEntity
  8
TB-TXT
100
AcDbText
 10
-5.452069740892156
 20
1.20667172021967
 30
0.0
 40
0.15996
  1

  7
ARIAL
100
AcDbAttributeDefinition
  3
TITLE (LINE 3)
  2
LINE3
 70
     0
  0
ATTDEF
  5
3CC4
330
3CBF
100
AcDbEntity
  8
TB-TXT
100
AcDbText
 10
-5.452069740892156
 20
0.9476888630768137
 30
0.0
 40
0.15996
  1

  7
ARIAL
100
AcDbAttributeDefinition
  3
TITLE (LINE 4)
  2
LINE4
 70
     0
  0
ATTDEF
  5
3CC5
330
3CBF
100
AcDbEntity
  8
TB-TXT
100
AcDbText
 10
-2.607663526262058
 20
0.495823930069566
 30
0.0
 40
0.12
  1

  7
ARIAL
100
AcDbAttributeDefinition
  3
DWG NO.
  2
DWG#
 70
     0
  0
ATTDEF
  5
3CC6
330
3CBF
100
AcDbEntity
  8
TB-TXT
100
AcDbText
 10
-5.506905230490374
 20
0.1136078675417114
 30
0.0
 40
0.12
  1

  7
ARIAL
100
AcDbAttributeDefinition
  3
FILE NO.
  2
FILE#
 70
     0
  0
ATTDEF
  5
3CC7
330
3CBF
100
AcDbEntity
  8
TB-TXT
100
AcDbText
 10
-0.2425360425092862
 20
0.4881363695403174
 30
0.0
 40
0.12
  1

  7
ARIAL
 72
     4
 11
-0.2425360425092862
 21
0.4881363695403174
 31
0.0
100
AcDbAttributeDefinition
  3
REV
  2
REV
 70
     0
  0
ATTDEF
  5
3CC8
330
3CBF
100
AcDbEntity
  8
TB-TXT
100
AcDbText
 10
-4.485055143223689
 20
0.495823930069566
 30
0.0
 40
0.12
  1
FULL
  7
ARIAL
100
AcDbAttributeDefinition
  3
SCALE
  2
SCALE
 70
     0
  0
ATTDEF
  5
3CC9
330
3CBF
100
AcDbEntity
  8
TB-TXT
100
AcDbText
 10
-1.004564496465349
 20
0.0916846763858388
 30
0.0
 40
0.12
  1
1 OF 1
  7
ARIAL
100
AcDbAttributeDefinition
  3
SHEET N0.
  2
SHT#
 70
     0
  0
ENDBLK
  5
3CCA
330
3CBF
100
AcDbEntity
  8
0
100
AcDbBlockEnd
  0
ENDSEC
  0
SECTION
  2
ENTITIES
  0
TEXT
  5
40F8
330
17
100
AcDbEntity
  8
FORMAT
100
AcDbText
 10
27.2922243621056
 20
0.8984635216691145
 30
0.0
 40
0.16
  1
D
  7
ARIAL
100
AcDbText
  0
TEXT
  5
40F9
330
17
100
AcDbEntity
  8
FORMAT
  6
CONTINUOUS
100
AcDbText
 10
31.74897680763983
 20
0.1499999999999986
 30
0.0
 40
0.25
  1
H
  7
ARIAL
 72
     1
 11
31.875
 21
0.1499999999999986
 31
0.0
100
AcDbText
  0
TEXT
  5
40FA
330
17
100
AcDbEntity
  8
FORMAT
  6
CONTINUOUS
100
AcDbText
 10
27.49079126875852
 20
0.1499999999999986
 30
0.0
 40
0.25
  1
G
  7
ARIAL
 72
     1
 11
27.625
 21
0.1499999999999986
 31
0.0
100
AcDbText
  0
TEXT
  5
40FB
330
17
100
AcDbEntity
  8
FORMAT
  6
CONTINUOUS
100
AcDbText
 10
23.26202251023192
 20
0.1499999999999986
 30
0.0
 40
0.25
  1
F
  7
ARIAL
 72
     1
 11
23.37499999999999
 21
0.1499999999999986
 31
0.0
100
AcDbText
  0
TEXT
  5
40FC
330
17
100
AcDbEntity
  8
FORMAT
  6
CONTINUOUS
100
AcDbText
 10
19.00409276944065
 20
0.1499999999999986
 30
0.0
 40
0.25
  1
E
  7
ARIAL
 72
     1
 11
19.125
 21
0.1499999999999986
 31
0.0
100
AcDbText
  0
TEXT
  5
40FD
330
17
100
AcDbEntity
  8
FORMAT
  6
CONTINUOUS
100
AcDbText
 10
14.74471350613915
 20
0.1499999999999986
 30
0.0
 40
0.25
  1
D
  7
ARIAL
 72
     1
 11
14.875
 21
0.1499999999999986
 31
0.0
100
AcDbText
  0
TEXT
  5
40FE
330
17
100
AcDbEntity
  8
FORMAT
  6
CONTINUOUS
100
AcDbText
 10
6.255030695770805
 20
0.1499999999999986
 30
0.0
 40
0.25
  1
B
  7
ARIAL
 72
     1
 11
6.375
 21
0.1499999999999986
 31
0.0
100
AcDbText
  0
TEXT
  5
40FF
330
17
100
AcDbEntity
  8
FORMAT
  6
CONTINUOUS
100
AcDbText
 10
10.49710095497953
 20
0.1499999999999986
 30
0.0
 40
0.25
  1
C
  7
ARIAL
 72
     1
 11
10.625
 21
0.1499999999999986
 31
0.0
100
AcDbText
  0
TEXT
  5
4100
330
17
100
AcDbEntity
  8
FORMAT
  6
CONTINUOUS
100
AcDbText
 10
2.008526603001364
 20
0.1499999999999986
 30
0.0
 40
0.25
  1
A
  7
ARIAL
 72
     1
 11
2.125
 21
0.1499999999999986
 31
0.0
100
AcDbText
  0
TEXT
  5
4101
330
17
100
AcDbEntity
  8
FORMAT
  6
CONTINUOUS
100
AcDbText
 10
33.68998114106767
 20
19.125
 30
0.0
 40
0.25
  1
1
  7
ARIAL
 72
     2
 11
33.82009710286848
 21
19.125
 31
0.0
100
AcDbText
  0
TEXT
  5
4102
330
17
100
AcDbEntity
  8
FORMAT
  6
CONTINUOUS
100
AcDbText
 10
33.64427854898035
 20
13.625
 30
0.0
 40
0.25
  1
2
  7
ARIAL
 72
     2
 11
33.82009710286848
 21
13.625
 31
0.0
100
AcDbText
  0
TEXT
  5
4103
330
17
100
AcDbEntity
  8
FORMAT
  6
CONTINUOUS
100
AcDbText
 10
33.64172056807994
 20
8.125
 30
0.0
 40
0.25
  1
3
  7
ARIAL
 72
     2
 11
33.82009710286848
 21
8.125
 31
0.0
100
AcDbText
  0
TEXT
  5
4104
330
17
100
AcDbEntity
  8
FORMAT
  6
CONTINUOUS
100
AcDbText
 10
33.64274376044011
 20
2.625
 30
0.0
 40
0.25
  1
4
  7
ARIAL
 72
     2
 11
33.82009710286848
 21
2.625
 31
0.0
100
AcDbText
  0
TEXT
  5
4105
330
17
100
AcDbEntity
  8
FORMAT
  6
CONTINUOUS
100
AcDbText
 10
27.49079126875852
 20
21.59999999999999
 30
0.0
 40
0.25
  1
G
  7
ARIAL
 72
     1
 11
27.625
 21
21.59999999999999
 31
0.0
100
AcDbText
  0
TEXT
  5
4106
330
17
100
AcDbEntity
  8
FORMAT
100
AcDbText
 10
28.46644392275831
 20
0.6672081632976301
 30
0.0
 40
0.1088
  1
ACAD FILE NO.
  7
ARIAL
100
AcDbText
  0
LWPOLYLINE
  5
4107
330
17
100
AcDbEntity
  8
FORMAT
100
AcDbPolyline
 90
        2
 70
     0
 43
0.02
 10
27.61703378072079
 20
1.272892106623777
 10
27.61703378072079
 20
0.8236485696487072
  0
LWPOLYLINE
  5
410B
330
17
100
AcDbEntity
  8
FORMAT
100
AcDbPolyline
 90
        2
 70
     0
 43
0.02
 10
28.42063372699124
 20
0.8236485696487072
 10
28.42063372699124
 20
0.5
  0
LWPOLYLINE
  5
410F
330
17
100
AcDbEntity
  8
FORMAT
100
AcDbPolyline
 90
        2
 70
     0
 43
0.02
 10
31.81895966809327
 20
0.8236485696487072
 10
31.81895966809327
 20
0.5
  0
LWPOLYLINE
  5
4113
330
17
100
AcDbEntity
  8
FORMAT
100
AcDbPolyline
 90
        2
 70
     0
 43
0.02
 10
32.94931437403055
 20
1.272892106623777
 10
32.94931437403055
 20
0.8236485696487072
  0
LWPOLYLINE
  5
4117
330
17
100
AcDbEntity
  8
FORMAT
100
AcDbPolyline
 90
        2
 70
     0
 43
0.02
 10
27.12431506274814
 20
0.8236485696487072
 10
33.5
 20
0.8236485696487072
  0
LWPOLYLINE
  5
411B
330
17
100
AcDbEntity
  8
FORMAT
100
AcDbPolyline
 90
        2
 70
     0
 43
0.02
 10
27.12431506274814
 20
1.272892106623777
 10
33.5
 20
1.272892106623777
  0
LWPOLYLINE
  5
411F
330
17
100
AcDbEntity
  8
FORMAT
100
AcDbPolyline
 90
        2
 70
     0
 43
0.02
 10
27.12431506274814
 20
2.441891417892239
 10
33.5
 20
2.441891417892239
  0
LWPOLYLINE
  5
4123
330
17
100
AcDbEntity
  8
FORMAT
100
AcDbPolyline
 90
        2
 70
     0
 43
0.02
 10
22.60089726348933
 20
1.055516201635839
 10
27.12431293507279
 20
1.055507487567172
  0
LWPOLYLINE
  5
4127
330
17
100
AcDbEntity
  8
FORMAT
100
AcDbPolyline
 90
        2
 70
     0
 43
0.02
 10
22.60089513581397
 20
3.113332721452977
 10
22.60089726348933
 20
0.5
  0
LWPOLYLINE
  5
412B
330
17
100
AcDbEntity
  8
FORMAT
100
AcDbPolyline
 90
        2
 70
     0
 43
0.02
 10
27.12431506274814
 20
3.113341435521647
 10
27.12431506274814
 20
0.5
  0
LWPOLYLINE
  5
412F
330
17
100
AcDbEntity
  8
FORMAT
100
AcDbPolyline
 90
        3
 70
     0
 43
0.02
 10
19.55365650994497
 20
0.5
 10
19.55365654839636
 20
3.113341420836697
 10
33.5
 20
3.113341435521647
  0
TEXT
  5
4134
330
17
100
AcDbEntity
  8
FORMAT
100
AcDbText
 10
27.17012525851521
 20
0.6672081632976301
 30
0.0
 40
0.1088
  1
SCALE
  7
ARIAL
100
AcDbText
  0
TEXT
  5
4135
330
17
100
AcDbEntity
  8
FORMAT
  6
CONTINUOUS
100
AcDbText
 10
31.74897680763983
 20
21.59999999999999
 30
0.0
 40
0.25
  1
H
  7
ARIAL
 72
     1
 11
31.875
 21
21.59999999999999
 31
0.0
100
AcDbText
  0
LINE
  5
4136
330
17
100
AcDbEntity
  8
FORMAT
  6
CONTINUOUS
100
AcDbLine
 10
29.75
 20
21.49999999999999
 30
0.0
 11
29.75
 21
22.0
 31
0.0
  0
LINE
  5
4137
330
17
100
AcDbEntity
  8
FORMAT
  6
CONTINUOUS
100
AcDbLine
 10
33.5
 20
16.5
 30
0.0
 11
34.0
 21
16.5
 31
0.0
  0
LINE
  5
4138
330
17
100
AcDbEntity
  8
FORMAT
  6
CONTINUOUS
100
AcDbLine
 10
25.5
 20
21.49999999999999
 30
0.0
 11
25.5
 21
22.0
 31
0.0
  0
TEXT
  5
4139
330
17
100
AcDbEntity
  8
FORMAT
  6
CONTINUOUS
100
AcDbText
 10
23.26202251023192
 20
21.59999999999999
 30
0.0
 40
0.25
  1
F
  7
ARIAL
 72
     1
 11
23.37499999999999
 21
21.59999999999999
 31
0.0
100
AcDbText
  0
LINE
  5
413A
330
17
100
AcDbEntity
  8
FORMAT
  6
CONTINUOUS
100
AcDbLine
 10
21.25
 20
21.49999999999999
 30
0.0
 11
21.25
 21
22.0
 31
0.0
  0
TEXT
  5
413B
330
17
100
AcDbEntity
  8
FORMAT
  6
CONTINUOUS
100
AcDbText
 10
19.00409276944065
 20
21.59999999999999
 30
0.0
 40
0.25
  1
E
  7
ARIAL
 72
     1
 11
19.125
 21
21.59999999999999
 31
0.0
100
AcDbText
  0
LINE
  5
413C
330
17
100
AcDbEntity
  8
FORMAT
  6
CONTINUOUS
100
AcDbLine
 10
33.5
 20
11.0
 30
0.0
 11
33.696573
 21
10.88650899999999
 31
0.0
  0
LINE
  5
413D
330
17
100
AcDbEntity
  8
FORMAT
  6
CONTINUOUS
100
AcDbLine
 10
33.5
 20
11.0
 30
0.0
 11
34.0
 21
11.0
 31
0.0
  0
LINE
  5
413E
330
17
100
AcDbEntity
  8
FORMAT
  6
CONTINUOUS
100
AcDbLine
 10
33.5
 20
5.5
 30
0.0
 11
34.0
 21
5.5
 31
0.0
  0
LINE
  5
413F
330
17
100
AcDbEntity
  8
FORMAT
  6
CONTINUOUS
100
AcDbLine
 10
29.75
 20
0.0
 30
0.0
 11
29.75
 21
0.5
 31
0.0
  0
TEXT
  5
4140
330
17
100
AcDbEntity
  8
FORMAT
  6
CONTINUOUS
100
AcDbText
 10
26.57841112561099
 20
2.051152953348244
 30
0.0
 40
0.12
  1
0.005
  7
ARIAL
 72
     2
 11
26.99120785139544
 21
2.051152953348244
 31
0.0
100
AcDbText
  0
TEXT
  5
4141
330
17
100
AcDbEntity
  8
FORMAT
  6
CONTINUOUS
100
AcDbText
 10
26.57990001726632
 20
2.236977562228064
 30
0.0
 40
0.12
  1
0.01
  7
ARIAL
 72
     2
 11
26.8753979708816
 21
2.236977562228064
 31
0.0
100
AcDbText
  0
TEXT
  5
4142
330
17
100
AcDbEntity
  8
FORMAT
  6
CONTINUOUS
100
AcDbText
 10
26.57750599678259
 20
1.865328344468428
 30
0.0
 40
0.12
  1
0.5%%d
 51
1.0
  7
ARIAL
 72
     2
 11
26.86645551929283
 21
1.865328344468428
 31
0.0
100
AcDbText
  0
TEXT
  5
4143
330
17
100
AcDbEntity
  8
FORMAT
  6
CONTINUOUS
100
AcDbText
 10
25.85592567265782
 20
2.051152953348244
 30
0.0
 40
0.12
  1
.XXX = %%p
  7
ARIAL
 72
     2
 11
26.51461598643681
 21
2.051152953348244
 31
0.0
100
AcDbText
  0
TEXT
  5
4144
330
17
100
AcDbEntity
  8
FORMAT
  6
CONTINUOUS
100
AcDbText
 10
25.9677401337765
 20
2.236977562228064
 30
0.0
 40
0.12
  1
.XX = %%p
  7
ARIAL
 72
     2
 11
26.51461598643681
 21
2.236977562228064
 31
0.0
100
AcDbText
  0
TEXT
  5
4145
330
17
100
AcDbEntity
  8
FORMAT
  6
CONTINUOUS
100
AcDbText
 10
25.60913167538632
 20
1.865328344468428
 30
0.0
 40
0.12
  1
ANGLES:  %%p
  7
ARIAL
 72
     2
 11
26.51461598643681
 21
1.865328344468428
 31
0.0
100
AcDbText
  0
TEXT
  5
4146
330
17
100
AcDbEntity
  8
FORMAT
  6
CONTINUOUS
100
AcDbText
 10
26.57771921573429
 20
2.422802171107882
 30
0.0
 40
0.12
  1
0.1
  7
ARIAL
 72
     2
 11
26.77998388149146
 21
2.422802171107882
 31
0.0
100
AcDbText
  0
TEXT
  5
4147
330
17
100
AcDbEntity
  8
FORMAT
  6
CONTINUOUS
100
AcDbText
 10
23.22933118414733
 20
1.12281556394616
 30
0.0
 40
0.186
  1
DO NOT SCALE DRAWING
  7
ARIAL
 72
     1
 11
24.86260403544338
 21
1.12281556394616
 31
0.0
100
AcDbText
  0
TEXT
  5
4148
330
17
100
AcDbEntity
  8
FORMAT
  6
CONTINUOUS
100
AcDbText
 10
23.68896147064119
 20
1.398362308673736
 30
0.0
 40
0.12
  1
ALL DIMENSIONS IN INCHES. 
  7
ARIAL
 72
     1
 11
24.86260403544338
 21
1.398362308673736
 31
0.0
100
AcDbText
  0
TEXT
  5
4149
330
17
100
AcDbEntity
  8
FORMAT
  6
CONTINUOUS
100
AcDbText
 10
22.89431436012378
 20
1.598364381162374
 30
0.0
 40
0.12
  1
SURFACE FLATNESS .003 TIR PER LINEAR INCH  
  7
ARIAL
 72
     2
 11
26.84416429191095
 21
1.598364381162374
 31
0.0
100
AcDbText
  0
TEXT
  5
414A
330
17
100
AcDbEntity
  8
FORMAT
  6
CONTINUOUS
100
AcDbText
 10
22.67035950621852
 20
2.422802171107882
 30
0.0
 40
0.12
  1
TOLERANCE ON DECIMAL DIMENSIONS:   .X = %%p
  7
ARIAL
 72
     2
 11
26.51461598643681
 21
2.422802171107882
 31
0.0
100
AcDbText
  0
TEXT
  5
414B
330
17
100
AcDbEntity
  8
FORMAT
  6
CONTINUOUS
100
AcDbText
 10
22.75103520334062
 20
2.741378395140287
 30
0.0
 40
0.1899233025254706
  1
%%uUNLESS OTHERWISE SPECIFIED
  7
ARIAL
 72
     1
 11
24.86260403544338
 21
2.741378395140287
 31
0.0
100
AcDbText
  0
TEXT
  5
414C
330
17
100
AcDbEntity
  8
FORMAT
  6
CONTINUOUS
100
AcDbText
 10
23.21154877296527
 20
0.8019109791499126
 30
0.0
 40
0.124
  1
          THIRD ANGLE
  7
ARIAL
100
AcDbText
  0
LINE
  5
414D
330
17
100
AcDbEntity
  8
FORMAT
  6
CONTINUOUS
100
AcDbLine
 10
25.5
 20
0.0
 30
0.0
 11
25.5
 21
0.5
 31
0.0
  0
TEXT
  5
414E
330
17
100
AcDbEntity
  8
FORMAT
  6
CONTINUOUS
100
AcDbText
 10
23.21154877296527
 20
0.6043942372759084
 30
0.0
 40
0.124
  1
          PROJECTION 
  7
ARIAL
100
AcDbText
  0
LINE
  5
414F
330
17
100
AcDbEntity
  8
FORMAT
  6
CONTINUOUS
100
AcDbLine
 10
21.25
 20
0.0
 30
0.0
 11
21.25
 21
0.5
 31
0.0
  0
LINE
  5
4150
330
17
100
AcDbEntity
  8
FORMAT
  6
CONTINUOUS
100
AcDbLine
 10
33.696573
 20
10.88650899999999
 30
0.0
 11
33.696573
 21
11.113492
 31
0.0
  0
LINE
  5
4151
330
17
100
AcDbEntity
  8
FORMAT
  6
CONTINUOUS
100
AcDbLine
 10
33.696573
 20
11.113492
 30
0.0
 11
33.5
 21
11.0
 31
0.0
  0
HATCH
  5
4152
330
17
100
AcDbEntity
  8
FORMAT
  6
CONTINUOUS
100
AcDbHatch
 10
0.0
 20
0.0
 30
0.0
210
0.0
220
0.0
230
1.0
  2
ARROW_RIGHT
 70
     1
 71
     0
 91
        1
 92
        1
 93
        3
 72
     1
 10
33.5
 20
10.99999999999999
 11
33.696573
 21
10.88650899999999
 72
     1
 10
33.696573
 20
10.88650899999999
 11
33.696573
 21
11.11349199999999
 72
     1
 10
33.696573
 20
11.11349199999999
 11
33.5
 21
10.99999999999999
 97
        0
 75
     0
 76
     1
 98
        1
 10
0.25
 20
0.0
  0
LWPOLYLINE
  5
4153
330
17
100
AcDbEntity
  8
FORMAT
  6
PHANTOM
 48
10.0
100
AcDbPolyline
 90
        2
 70
     0
 43
0.001
 10
34.0
 20
0.0
 10
34.0
 20
22.0
  0
LINE
  5
4154
330
17
100
AcDbEntity
  8
FORMAT
  6
CONTINUOUS
100
AcDbLine
 10
16.88650799999999
 20
21.696573
 30
0.0
 11
17.0
 21
21.49999999999999
 31
0.0
  0
LINE
  5
4155
330
17
100
AcDbEntity
  8
FORMAT
  6
CONTINUOUS
100
AcDbLine
 10
17.0
 20
21.49999999999999
 30
0.0
 11
17.0
 21
22.0
 31
0.0
  0
TEXT
  5
4156
330
17
100
AcDbEntity
  8
FORMAT
  6
CONTINUOUS
100
AcDbText
 10
14.74471350613915
 20
21.59999999999999
 30
0.0
 40
0.25
  1
D
  7
ARIAL
 72
     1
 11
14.875
 21
21.59999999999999
 31
0.0
100
AcDbText
  0
LINE
  5
4157
330
17
100
AcDbEntity
  8
FORMAT
  6
CONTINUOUS
100
AcDbLine
 10
12.75
 20
21.49999999999999
 30
0.0
 11
12.75
 21
22.0
 31
0.0
  0
TEXT
  5
4158
330
17
100
AcDbEntity
  8
FORMAT
  6
CONTINUOUS
100
AcDbText
 10
10.49710095497953
 20
21.59999999999999
 30
0.0
 40
0.25
  1
C
  7
ARIAL
 72
     1
 11
10.625
 21
21.59999999999999
 31
0.0
100
AcDbText
  0
LINE
  5
4159
330
17
100
AcDbEntity
  8
FORMAT
  6
CONTINUOUS
100
AcDbLine
 10
8.5
 20
21.49999999999999
 30
0.0
 11
8.5
 21
22.0
 31
0.0
  0
LINE
  5
415A
330
17
100
AcDbEntity
  8
FORMAT
  6
CONTINUOUS
100
AcDbLine
 10
4.25
 20
21.49999999999999
 30
0.0
 11
4.25
 21
22.0
 31
0.0
  0
TEXT
  5
415B
330
17
100
AcDbEntity
  8
FORMAT
  6
CONTINUOUS
100
AcDbText
 10
2.008526603001364
 20
21.59999999999999
 30
0.0
 40
0.25
  1
A
  7
ARIAL
 72
     1
 11
2.125
 21
21.59999999999999
 31
0.0
100
AcDbText
  0
TEXT
  5
415C
330
17
100
AcDbEntity
  8
FORMAT
  6
CONTINUOUS
100
AcDbText
 10
0.1698840381991786
 20
19.125
 30
0.0
 40
0.25
  1
1
  7
ARIAL
 72
     2
 11
0.2999999999999971
 21
19.125
 31
0.0
100
AcDbText
  0
LINE
  5
415D
330
17
100
AcDbEntity
  8
FORMAT
  6
CONTINUOUS
100
AcDbLine
 10
0.0
 20
16.5
 30
0.0
 11
0.5
 21
16.5
 31
0.0
  0
TEXT
  5
415E
330
17
100
AcDbEntity
  8
FORMAT
  6
CONTINUOUS
100
AcDbText
 10
0.1241814461118662
 20
13.625
 30
0.0
 40
0.25
  1
2
  7
ARIAL
 72
     2
 11
0.2999999999999971
 21
13.625
 31
0.0
100
AcDbText
  0
TEXT
  5
415F
330
17
100
AcDbEntity
  8
FORMAT
  6
CONTINUOUS
100
AcDbText
 10
6.255030695770805
 20
21.59999999999999
 30
0.0
 40
0.25
  1
B
  7
ARIAL
 72
     1
 11
6.375
 21
21.59999999999999
 31
0.0
100
AcDbText
  0
LINE
  5
4160
330
17
100
AcDbEntity
  8
FORMAT
  6
CONTINUOUS
100
AcDbLine
 10
17.0
 20
0.5
 30
0.0
 11
16.88650899999998
 21
0.3034269999999992
 31
0.0
  0
LINE
  5
4161
330
17
100
AcDbEntity
  8
FORMAT
  6
CONTINUOUS
100
AcDbLine
 10
17.0
 20
0.0
 30
0.0
 11
17.0
 21
0.5
 31
0.0
  0
LINE
  5
4162
330
17
100
AcDbEntity
  8
FORMAT
  6
CONTINUOUS
100
AcDbLine
 10
12.75
 20
0.0
 30
0.0
 11
12.75
 21
0.5
 31
0.0
  0
LINE
  5
4163
330
17
100
AcDbEntity
  8
FORMAT
  6
CONTINUOUS
100
AcDbLine
 10
8.5
 20
0.0
 30
0.0
 11
8.5
 21
0.5
 31
0.0
  0
LINE
  5
4164
330
17
100
AcDbEntity
  8
FORMAT
  6
CONTINUOUS
100
AcDbLine
 10
0.3034269999999992
 20
10.88650799999999
 30
0.0
 11
0.5
 21
11.0
 31
0.0
  0
LINE
  5
4165
330
17
100
AcDbEntity
  8
FORMAT
  6
CONTINUOUS
100
AcDbLine
 10
0.0
 20
11.0
 30
0.0
 11
0.5
 21
11.0
 31
0.0
  0
TEXT
  5
4166
330
17
100
AcDbEntity
  8
FORMAT
  6
CONTINUOUS
100
AcDbText
 10
0.1216234652114569
 20
8.125
 30
0.0
 40
0.25
  1
3
  7
ARIAL
 72
     2
 11
0.2999999999999971
 21
8.125
 31
0.0
100
AcDbText
  0
LINE
  5
4167
330
17
100
AcDbEntity
  8
FORMAT
  6
CONTINUOUS
100
AcDbLine
 10
0.0
 20
5.5
 30
0.0
 11
0.5
 21
5.5
 31
0.0
  0
LINE
  5
4168
330
17
100
AcDbEntity
  8
FORMAT
  6
CONTINUOUS
100
AcDbLine
 10
4.25
 20
0.0
 30
0.0
 11
4.25
 21
0.5
 31
0.0
  0
TEXT
  5
4169
330
17
100
AcDbEntity
  8
FORMAT
  6
CONTINUOUS
100
AcDbText
 10
0.1226466575716206
 20
2.625
 30
0.0
 40
0.25
  1
4
  7
ARIAL
 72
     2
 11
0.2999999999999971
 21
2.625
 31
0.0
100
AcDbText
  0
LINE
  5
416A
330
17
100
AcDbEntity
  8
FORMAT
  6
CONTINUOUS
100
AcDbLine
 10
0.5
 20
11.0
 30
0.0
 11
0.3034269999999992
 21
11.11349099999999
 31
0.0
  0
LINE
  5
416B
330
17
100
AcDbEntity
  8
FORMAT
  6
CONTINUOUS
100
AcDbLine
 10
0.3034269999999992
 20
11.11349099999999
 30
0.0
 11
0.3034269999999992
 21
10.88650799999999
 31
0.0
  0
LWPOLYLINE
  5
416C
330
17
100
AcDbEntity
  8
FORMAT
  6
PHANTOM
 48
10.0
100
AcDbPolyline
 90
        2
 70
     0
 43
0.001
 10
0.0
 20
22.0
 10
0.0
 20
0.0
  0
HATCH
  5
416D
330
17
100
AcDbEntity
  8
FORMAT
  6
CONTINUOUS
100
AcDbHatch
 10
0.0
 20
0.0
 30
0.0
210
0.0
220
0.0
230
1.0
  2
ARROW_LEFT
 70
     1
 71
     0
 91
        1
 92
        1
 93
        3
 72
     1
 10
0.3034269999999992
 20
10.88650799999999
 11
0.4999999999999992
 21
10.99999999999999
 72
     1
 10
0.5
 20
10.99999999999999
 11
0.3034270000000001
 21
11.11349099999999
 72
     1
 10
0.3034269999999992
 20
11.11349099999999
 11
0.3034269999999992
 21
10.88650799999999
 97
        0
 75
     0
 76
     1
 98
        1
 10
-0.25
 20
0.0
  0
LINE
  5
416E
330
17
100
AcDbEntity
  8
FORMAT
  6
CONTINUOUS
100
AcDbLine
 10
17.11349099999999
 20
21.696573
 30
0.0
 11
16.88650799999999
 21
21.696573
 31
0.0
  0
LINE
  5
416F
330
17
100
AcDbEntity
  8
FORMAT
  6
CONTINUOUS
100
AcDbLine
 10
17.0
 20
21.49999999999999
 30
0.0
 11
17.11349099999999
 21
21.696573
 31
0.0
  0
LINE
  5
4170
330
17
100
AcDbEntity
  8
FORMAT
  6
CONTINUOUS
100
AcDbLine
 10
17.11349199999999
 20
0.3034269999999992
 30
0.0
 11
17.0
 21
0.5
 31
0.0
  0
LINE
  5
4171
330
17
100
AcDbEntity
  8
FORMAT
  6
CONTINUOUS
100
AcDbLine
 10
16.88650899999998
 20
0.3034269999999992
 30
0.0
 11
17.11349199999999
 21
0.3034269999999992
 31
0.0
  0
LWPOLYLINE
  5
4172
330
17
100
AcDbEntity
  8
FORMAT
  6
PHANTOM
 48
10.0
100
AcDbPolyline
 90
        2
 70
     0
 43
0.001
 10
0.0
 20
0.0
 10
34.0
 20
0.0
  0
HATCH
  5
4173
330
17
100
AcDbEntity
  8
FORMAT
  6
CONTINUOUS
100
AcDbHatch
 10
0.0
 20
0.0
 30
0.0
210
0.0
220
0.0
230
1.0
  2
ARROW_BOTTOM
 70
     1
 71
     0
 91
        1
 92
        1
 93
        3
 72
     1
 10
17.11349199999999
 20
0.3034269999999992
 11
16.99999999999999
 21
0.5
 72
     1
 10
17.0
 20
0.5
 11
16.886509
 21
0.3034269999999992
 72
     1
 10
16.88650899999998
 20
0.3034269999999992
 11
17.11349199999999
 21
0.3034269999999992
 97
        0
 75
     0
 76
     1
 98
        1
 10
0.0
 20
0.0
  0
HATCH
  5
4174
330
17
100
AcDbEntity
  8
FORMAT
  6
CONTINUOUS
100
AcDbHatch
 10
0.0
 20
0.0
 30
0.0
210
0.0
220
0.0
230
1.0
  2
ARROW_TOP
 70
     1
 71
     0
 91
        1
 92
        1
 93
        3
 72
     1
 10
17.11349099999999
 20
21.696573
 11
16.88650799999999
 21
21.696573
 72
     1
 10
16.88650799999999
 20
21.696573
 11
16.99999999999999
 21
21.49999999999999
 72
     1
 10
17.0
 20
21.49999999999999
 11
17.113491
 21
21.696573
 97
        0
 75
     0
 76
     1
 98
        1
 10
0.0
 20
0.0
  0
LWPOLYLINE
  5
4175
330
17
100
AcDbEntity
  8
FORMAT
  6
PHANTOM
 48
10.0
100
AcDbPolyline
 90
        2
 70
     0
 43
0.001
 10
34.0
 20
22.0
 10
0.0
 20
22.0
  0
TEXT
  5
4176
330
17
100
AcDbEntity
  8
TXT
100
AcDbText
 10
13.25165097349319
 20
0.7815415536662798
 30
0.0
 40
0.2
  1
PER EU DIRECTIVE 2002/95/EC
  7
ARIAL
100
AcDbText
  0
TEXT
  5
4177
330
17
100
AcDbEntity
  8
TXT
100
AcDbText
 10
13.25165097349319
 20
1.131541553666281
 30
0.0
 40
0.2
  1
SPECIFIED SHALL BE RoHS COMPLIANT
  7
ARIAL
100
AcDbText
  0
TEXT
  5
4178
330
17
100
AcDbEntity
  8
TXT
100
AcDbText
 10
13.25165097349319
 20
1.481541553666282
 30
0.0
 40
0.2
  1
UNLESS OTHERWISE STATED, THE ARTICLE
  7
ARIAL
100
AcDbText
  0
LWPOLYLINE
  5
4179
102
{ACAD_REACTORS
330
417E
102
}
330
17
100
AcDbEntity
  8
FORMAT
100
AcDbPolyline
 90
       10
 70
     1
 43
0.0
 10
28.84812546490569
 20
2.560038189765117
 10
29.00159362169353
 20
2.6889965139272
 10
29.11376411899891
 20
2.560038189765117
 10
29.32737967356207
 20
2.560038189765117
 10
29.13999480838106
 20
2.775467725762407
 42
0.0105244554857435
 10
28.88886932108983
 20
2.773755392477088
 10
28.66271243457582
 20
2.58371718720382
 10
28.69329665119762
 20
2.76722248693467
 42
0.0083241925565687
 10
28.52763063088184
 20
2.75943994238878
 10
28.49439700544456
 20
2.560038189765117
  0
LWPOLYLINE
  5
417A
102
{ACAD_REACTORS
330
417E
102
}
330
17
100
AcDbEntity
  8
FORMAT
100
AcDbPolyline
 90
        7
 70
     1
 43
0.0
 10
27.85379733476327
 20
2.669165529635449
 10
27.89252030058969
 20
2.560038189765117
 10
28.22439509774364
 20
2.560038189765117
 10
28.2534481466875
 20
2.734356483428371
 42
0.0085307115550227
 10
28.08505320817211
 20
2.711324292315012
 10
28.06284416794594
 20
2.577987260808255
 10
28.01571075607803
 20
2.699450484025899
 42
0.014633201278307
  0
LWPOLYLINE
  5
417B
102
{ACAD_REACTORS
330
417E
102
}
330
17
100
AcDbEntity
  8
FORMAT
100
AcDbPolyline
 90
        4
 70
     1
 43
0.0
 10
27.82625138631124
 20
2.746301120733491
 10
27.82647137730056
 20
2.746087929262984
 10
27.78730301109048
 20
2.857448970448498
 10
27.71638256267897
 20
2.746087929262984
  0
LWPOLYLINE
  5
417C
102
{ACAD_REACTORS
330
417E
102
}
330
17
100
AcDbEntity
  8
FORMAT
100
AcDbPolyline
 90
        4
 70
     1
 43
0.0
 10
27.89524244557755
 20
3.009898395795563
 10
27.99604627712901
 20
2.75012602185323
 42
0.0660149720166298
 10
27.42096358594918
 20
2.560038189765119
 10
27.72221440253551
 20
3.009898395795563
  0
LWPOLYLINE
  5
417D
102
{ACAD_REACTORS
330
417E
102
}
330
17
100
AcDbEntity
  8
FORMAT
100
AcDbPolyline
 90
       13
 70
     1
 43
0.0
 10
29.38348614891178
 20
3.009898395795563
 10
29.19279654184188
 20
2.849663121732444
 42
0.0022906596071181
 10
28.86759586955777
 20
2.843048835812439
 10
28.73192948971407
 20
2.999019518033357
 10
28.70471702376885
 20
2.835744722362004
 42
0.0274655559228494
 10
28.09477463227537
 20
2.769689076148374
 10
28.13478466086577
 20
3.009898395795563
 10
28.27250800784915
 20
3.009898395795563
 10
28.40846516441128
 20
2.86109542429461
 10
28.59422335947938
 20
3.009898395795563
 10
28.93608238153996
 20
3.009898395795563
 10
29.03481323325339
 20
2.896391141339901
 10
29.16989368840465
 20
3.009898395795563
  0
HATCH
  5
417E
330
17
100
AcDbEntity
  8
FORMAT
100
AcDbHatch
 10
0.0
 20
0.0
 30
0.0
210
0.0
220
0.0
230
1.0
  2
SOLID
 70
     1
 71
     1
 91
        5
 92
        1
 93
        4
 72
     1
 10
27.89524244557755
 20
3.009898395795563
 11
27.99604627712901
 21
2.75012602185323
 72
     2
 10
28.42523413703466
 20
0.4867236379588187
 40
2.303734483509177
 50
100.7369884767685
 51
115.8445848643794
 73
     1
 72
     1
 10
27.42096358594918
 20
2.560038189765119
 11
27.72221440253551
 21
3.009898395795563
 72
     1
 10
27.72221440253551
 20
3.009898395795563
 11
27.89524244557755
 21
3.009898395795563
 97
        1
330
417C
 92
       16
 93
        4
 72
     1
 10
27.82625138631124
 20
2.746301120733491
 11
27.82647137730056
 21
2.746087929262984
 72
     1
 10
27.82647137730056
 20
2.746087929262984
 11
27.78730301109048
 21
2.857448970448498
 72
     1
 10
27.78730301109048
 20
2.857448970448498
 11
27.71638256267897
 21
2.746087929262984
 72
     1
 10
27.71638256267897
 20
2.746087929262984
 11
27.82625138631124
 21
2.746301120733491
 97
        1
330
417B
 92
        1
 93
        7
 72
     1
 10
27.85379733476327
 20
2.669165529635449
 11
27.89252030058969
 21
2.560038189765117
 72
     1
 10
27.89252030058969
 20
2.560038189765117
 11
28.22439509774364
 21
2.560038189765117
 72
     1
 10
28.22439509774364
 20
2.560038189765117
 11
28.2534481466875
 21
2.734356483428371
 72
     2
 10
28.84418016139653
 20
-2.211762160162989
 40
4.98127031485787
 50
96.81077116038439
 51
98.7658188097698
 73
     1
 72
     1
 10
28.08505320817211
 20
2.711324292315012
 11
28.06284416794594
 21
2.577987260808255
 72
     1
 10
28.06284416794594
 20
2.577987260808255
 11
28.01571075607803
 21
2.699450484025899
 72
     2
 10
28.4520446382265
 20
-0.0812992519853255
 40
2.814774653686729
 50
98.91769894924955
 51
102.2711423007092
 73
     1
 97
        1
330
417A
 92
        1
 93
       13
 72
     1
 10
29.38348614891178
 20
3.009898395795563
 11
29.19279654184188
 21
2.849663121732444
 72
     2
 10
29.75206810599112
 20
-32.64549153385557
 40
35.49956040159622
 50
90.90269359832781
 51
91.4276731912744
 73
     1
 72
     1
 10
28.86759586955777
 20
2.843048835812439
 11
28.73192948971407
 21
2.999019518033357
 72
     1
 10
28.73192948971407
 20
2.999019518033357
 11
28.70471702376885
 21
2.835744722362004
 72
     2
 10
29.00055122292874
 20
-2.744979632338445
 40
5.588559939424407
 50
93.03440911951204
 51
99.32746877910854
 73
     1
 72
     1
 10
28.09477463227537
 20
2.769689076148374
 11
28.13478466086577
 21
3.009898395795563
 72
     1
 10
28.13478466086577
 20
3.009898395795563
 11
28.27250800784915
 21
3.009898395795563
 72
     1
 10
28.27250800784915
 20
3.009898395795563
 11
28.40846516441128
 21
2.86109542429461
 72
     1
 10
28.40846516441128
 20
2.86109542429461
 11
28.59422335947938
 21
3.009898395795563
 72
     1
 10
28.59422335947938
 20
3.009898395795563
 11
28.93608238153996
 21
3.009898395795563
 72
     1
 10
28.93608238153996
 20
3.009898395795563
 11
29.03481323325339
 21
2.896391141339901
 72
     1
 10
29.03481323325339
 20
2.896391141339901
 11
29.16989368840465
 21
3.009898395795563
 72
     1
 10
29.16989368840465
 20
3.009898395795563
 11
29.38348614891178
 21
3.009898395795563
 97
        1
330
417D
 92
        1
 93
       10
 72
     1
 10
28.84812546490569
 20
2.560038189765117
 11
29.00159362169353
 21
2.6889965139272
 72
     1
 10
29.00159362169353
 20
2.6889965139272
 11
29.11376411899891
 21
2.560038189765117
 72
     1
 10
29.11376411899891
 20
2.560038189765117
 11
29.32737967356207
 21
2.560038189765117
 72
     1
 10
29.32737967356207
 20
2.560038189765117
 11
29.13999480838106
 21
2.775467725762407
 72
     2
 10
29.05510266338243
 20
-3.190012262200435
 40
5.966083988938442
 50
89.18470377236852
 51
91.59664224690866
 73
     1
 72
     1
 10
28.88886932108983
 20
2.773755392477088
 11
28.66271243457582
 21
2.58371718720382
 72
     1
 10
28.66271243457582
 20
2.58371718720382
 11
28.69329665119762
 21
2.76722248693467
 72
     2
 10
28.84418016139635
 20
-2.211762160162928
 40
4.981270314857797
 50
91.73576423011793
 51
93.6434845729463
 73
     1
 72
     1
 10
28.52763063088184
 20
2.75943994238878
 11
28.49439700544456
 21
2.560038189765117
 72
     1
 10
28.49439700544456
 20
2.560038189765117
 11
28.84812546490569
 21
2.560038189765117
 97
        1
330
4179
 75
     0
 76
     1
 98
        1
 10
27.40349142259076
 20
2.321955963782295
  0
INSERT
  5
417F
330
17
100
AcDbEntity
  8
TB-TXT
100
AcDbBlockReference
 66
     1
  2
REV-BLOCK
 10
33.5
 20
20.80009599999999
 30
0.0
 41
0.969696969696969
 42
0.969696969696969
 43
0.969696969696969
  0
ATTRIB
  5
4180
330
417F
100
AcDbEntity
  8
TB-TXT
100
AcDbText
 10
26.30347697443653
 20
20.54214553638333
 30
0.0
 40
0.12
  1
A
  7
ARIAL
 72
     1
 11
26.35938420499587
 21
20.60214553638333
 31
0.0
100
AcDbAttribute
  2
REV
 70
     0
 74
     2
  0
ATTRIB
  5
4181
330
417F
100
AcDbEntity
  8
TB-TXT
100
AcDbText
 10
26.69157265819915
 20
20.53722017915365
 30
0.0
 40
0.12
  1
20988
  7
ARIAL
100
AcDbAttribute
  2
ECN
 70
     0
  0
ATTRIB
  5
4182
330
417F
100
AcDbEntity
  8
TB-TXT
100
AcDbText
 10
27.36529819403024
 20
20.53955040620385
 30
0.0
 40
0.12
  1
RELEASE TO PRODUCTION
  7
ARIAL
100
AcDbAttribute
  2
DESCRIPTION
 70
     0
  0
ATTRIB
  5
4183
330
417F
100
AcDbEntity
  8
TB-TXT
100
AcDbText
 10
31.36597561319941
 20
20.54214553638333
 30
0.0
 40
0.12
  1
8/01/13
  7
ARIAL
 72
     1
 11
31.64563454907936
 21
20.60214553638333
 31
0.0
100
AcDbAttribute
  2
REV-DATE
 70
     0
 74
     2
  0
ATTRIB
  5
4184
330
417F
100
AcDbEntity
  8
TB-TXT
100
AcDbText
 10
32.41983834316996
 20
20.54214553638333
 30
0.0
 40
0.12
  1
J.LUTHER
  7
ARIAL
 72
     1
 11
32.82035676063244
 21
20.60214553638333
 31
0.0
100
AcDbAttribute
  2
APPR
 70
     0
 74
     2
  0
SEQEND
  5
4185
330
417F
100
AcDbEntity
  8
TB-TXT
  0
INSERT
  5
4186
330
17
100
AcDbEntity
  8
TB-TXT
100
AcDbBlockReference
 66
     1
  2
TITLE-BLOCK
 10
32.60259009549838
 20
0.4871808286051192
 30
0.0
 41
0.9696969696969773
 42
0.9696969696969773
 43
0.9696969696969773
  0
ATTRIB
  5
4187
330
4186
100
AcDbEntity
  8
TB-TXT
100
AcDbText
 10
27.31573458917869
 20
2.159556522670953
 30
0.0
 40
0.17
  1
PICTORIAL,
  7
ARIAL
100
AcDbAttribute
  2
LINE1
 70
     0
  0
ATTRIB
  5
4188
330
4186
100
AcDbEntity
  8
TB-TXT
100
AcDbText
 10
27.31573458917869
 20
1.908421630896071
 30
0.0
 40
0.17
  1
MXA-STMK-10, SECURE TABLE MOUNT KIT, 
  7
ARIAL
100
AcDbAttribute
  2
LINE2
 70
     0
  0
ATTRIB
  5
4189
330
4186
100
AcDbEntity
  8
TB-TXT
100
AcDbText
 10
27.31573458917869
 20
1.657286739121175
 30
0.0
 40
0.17
  1
MODERO X 10.1  
  7
ARIAL
100
AcDbAttribute
  2
LINE3
 70
     0
  0
ATTRIB
  5
418A
330
4186
100
AcDbEntity
  8
TB-TXT
100
AcDbText
 10
27.31573458917869
 20
1.406151847346279
 30
0.0
 40
0.17
  1
 
  7
ARIAL
100
AcDbAttribute
  2
LINE4
 70
     0
  0
ATTRIB
  5
418B
330
4186
100
AcDbEntity
  8
TB-TXT
100
AcDbText
 10
28.67240744538594
 20
0.9393484331170611
 30
0.0
 40
0.17
  1
95-5968-66
  7
ARIAL
100
AcDbAttribute
  2
DWG#
 70
     0
  0
ATTRIB
  5
418C
330
4186
100
AcDbEntity
  8
TB-TXT
100
AcDbText
 10
29.67184955913904
 20
0.6131212011589185
 30
0.0
 40
0.1163636363636373
  1
 
  7
ARIAL
100
AcDbAttribute
  2
FILE#
 70
     0
  0
ATTRIB
  5
418D
330
4186
100
AcDbEntity
  8
TB-TXT
100
AcDbText
 10
33.15909260795084
 20
0.8971920186209283
 30
0.0
 40
0.17
  1
A
  7
ARIAL
 72
     4
 11
33.23829451790992
 21
0.9821920186209283
 31
0.0
100
AcDbAttribute
  2
REV
 70
     0
  0
ATTRIB
  5
418E
330
4186
100
AcDbEntity
  8
TB-TXT
100
AcDbText
 10
27.7341555078267
 20
0.5791391671473889
 30
0.0
 40
0.17
  1
1/1
  7
ARIAL
100
AcDbAttribute
  2
SCALE
 70
     0
  0
ATTRIB
  5
418F
330
4186
100
AcDbEntity
  8
TB-TXT
100
AcDbText
 10
32.56139344279876
 20
0.585935475765524
 30
0.0
 40
0.17
  1
1 OF 2
  7
ARIAL
100
AcDbAttribute
  2
SHT#
 70
     0
  0
SEQEND
  5
4190
330
4186
100
AcDbEntity
  8
TB-TXT
  0
TEXT
  5
4191
330
17
100
AcDbEntity
  8
FORMAT
100
AcDbText
 10
29.37565033606138
 20
2.561556359369892
 30
0.0
 40
0.0583271326082317
  1
TM
  7
ARIAL
 11
29.37565033606138
 21
2.590719925674008
 31
0.0
100
AcDbText
 73
     2
  0
TEXT
  5
4192
330
17
100
AcDbEntity
  8
FORMAT
  6
BYBLOCK
100
AcDbText
 10
31.43486788649962
 20
2.911254421449086
 30
0.0
 40
0.1035906873199564
  1
AMX LLC
 41
1.011836867459718
  7
ARIAL
100
AcDbText
  0
TEXT
  5
4193
330
17
100
AcDbEntity
  8
FORMAT
  6
BYBLOCK
100
AcDbText
 10
31.43486788649962
 20
2.733670985046202
 30
0.0
 40
0.1035906873199564
  1
3000 RESEARCH DRIVE
 41
1.011836867459718
  7
ARIAL
100
AcDbText
  0
TEXT
  5
4194
330
17
100
AcDbEntity
  8
FORMAT
  6
BYBLOCK
100
AcDbText
 10
31.4299650373904
 20
2.556087548643318
 30
0.0
 40
0.1035906873199564
  1
RICHARDSON, TX 75082
 41
1.018884921437547
  7
ARIAL
100
AcDbText
  0
LWPOLYLINE
  5
4195
330
17
100
AcDbEntity
  8
FORMAT
100
AcDbPolyline
 90
        2
 70
     0
 43
0.0192
 10
32.19495213158492
 20
20.24009599999999
 10
32.19495213158492
 20
21.14083199999999
  0
TEXT
  5
4196
330
17
100
AcDbEntity
  8
FORMAT
100
AcDbText
 10
32.37221851084823
 20
20.92767073851941
 30
0.0
 40
0.1152
  1
APPROVED
  7
ARIAL
 72
     1
 11
32.81498413158493
 21
20.92767073851941
 31
0.0
100
AcDbText
  0
LWPOLYLINE
  5
4197
330
17
100
AcDbEntity
  8
FORMAT
100
AcDbPolyline
 90
        2
 70
     0
 43
0.0192
 10
31.07495213158492
 20
20.24009599999999
 10
31.07495213158492
 20
21.14083199999999
  0
TEXT
  5
4198
330
17
100
AcDbEntity
  8
FORMAT
100
AcDbText
 10
29.20523009782781
 20
21.23746077739912
 30
0.0
 40
0.1536
  1
REVISIONS
  7
ARIAL
 72
     1
 11
29.79233623698198
 21
21.23746077739912
 31
0.0
100
AcDbText
  0
LWPOLYLINE
  5
4199
330
17
100
AcDbEntity
  8
FORMAT
100
AcDbPolyline
 90
        2
 70
     0
 43
0.0192
 10
27.25043331858677
 20
20.24009599999999
 10
27.25043331858677
 20
21.14083199999999
  0
LWPOLYLINE
  5
419A
330
17
100
AcDbEntity
  8
FORMAT
100
AcDbPolyline
 90
        2
 70
     0
 43
0.0192
 10
26.62956753654293
 20
20.24009599999999
 10
26.62956753654293
 20
21.14083199999999
  0
TEXT
  5
419B
330
17
100
AcDbEntity
  8
FORMAT
100
AcDbText
 10
26.74328549335555
 20
20.92767073851941
 30
0.0
 40
0.1152
  1
ECN
  7
ARIAL
 72
     1
 11
26.91294224642513
 21
20.92767073851941
 31
0.0
100
AcDbText
  0
TEXT
  5
419C
330
17
100
AcDbEntity
  8
FORMAT
100
AcDbText
 10
26.1817924510636
 20
20.92767073851941
 30
0.0
 40
0.1152
  1
REV
  7
ARIAL
 72
     1
 11
26.35294224642513
 21
20.92767073851941
 31
0.0
100
AcDbText
  0
LWPOLYLINE
  5
419D
330
17
100
AcDbEntity
  8
FORMAT
100
AcDbPolyline
 90
        2
 70
     0
 43
0.0256
 10
26.06956753654294
 20
21.49999999999999
 10
26.06956753654294
 20
20.24009599999999
  0
TEXT
  5
419E
330
17
100
AcDbEntity
  8
FORMAT
100
AcDbText
 10
28.60405512708991
 20
20.92767073851941
 30
0.0
 40
0.1152
  1
DESCRIPTION
  7
ARIAL
 72
     1
 11
29.1535732717011
 21
20.92767073851941
 31
0.0
100
AcDbText
  0
TEXT
  5
419F
330
17
100
AcDbEntity
  8
FORMAT
100
AcDbText
 10
31.39849299925204
 20
20.92767073851941
 30
0.0
 40
0.1152
  1
DATE
  7
ARIAL
 72
     1
 11
31.61498413158492
 21
20.92767073851941
 31
0.0
100
AcDbText
  0
LWPOLYLINE
  5
41A0
330
17
100
AcDbEntity
  8
FORMAT
100
AcDbPolyline
 90
        2
 70
     0
 43
0.0192
 10
26.06956753654294
 20
21.14083199999999
 10
33.5
 20
21.14083199999999
  0
LWPOLYLINE
  5
41A1
330
17
100
AcDbEntity
  8
FORMAT
100
AcDbPolyline
 90
        2
 70
     0
 43
0.0192
 10
26.06956753654294
 20
20.80009599999999
 10
33.5
 20
20.80009599999999
  0
TEXT
  5
41A2
330
17
100
AcDbEntity
  8
FORMAT
100
AcDbText
 10
33.07693135410495
 20
1.112168497683782
 30
0.0
 40
0.1088
  1
REV.
  7
ARIAL
 72
     1
 11
33.25367569244056
 21
1.112168497683782
 31
0.0
100
AcDbText
  0
TEXT
  5
41A3
330
17
100
AcDbEntity
  8
FORMAT
100
AcDbText
 10
31.85237387102683
 20
0.6672081632976301
 30
0.0
 40
0.1163636363636364
  1
SHEET
  7
ARIAL
100
AcDbText
  0
TEXT
  5
41A4
330
17
100
AcDbEntity
  8
FORMAT
100
AcDbText
 10
27.68095276043268
 20
1.112168497683782
 30
0.0
 40
0.1088
  1
DWG. NO.
  7
ARIAL
100
AcDbText
  0
TEXT
  5
41A5
330
17
100
AcDbEntity
  8
FORMAT
100
AcDbText
 10
27.18997948867459
 20
1.112168497683782
 30
0.0
 40
0.1088
  1
SIZE
  7
ARIAL
100
AcDbText
  0
LWPOLYLINE
  5
41A6
330
17
100
AcDbEntity
  8
FORMAT
100
AcDbPolyline
 90
        2
 70
     0
 43
0.0128
 10
25.63662467048089
 20
0.8009602925574199
 10
25.78320002298025
 20
0.8009602925574199
  0
LWPOLYLINE
  5
41A7
330
17
100
AcDbEntity
  8
FORMAT
100
AcDbPolyline
 90
        2
 70
     1
 43
0.0128
 10
25.7476715218181
 20
0.8009602925574199
 42
0.9999999999999998
 10
25.4116715218181
 20
0.8009602925574199
 42
1.0
  0
LWPOLYLINE
  5
41A8
330
17
100
AcDbEntity
  8
FORMAT
100
AcDbPolyline
 90
        2
 70
     1
 43
0.0128
 10
25.6564715218181
 20
0.8009602925574199
 42
0.9999999999999998
 10
25.50287152181811
 20
0.8009602925574199
 42
1.0
  0
LWPOLYLINE
  5
41A9
330
17
100
AcDbEntity
  8
FORMAT
100
AcDbPolyline
 90
        2
 70
     0
 43
0.0128
 10
25.57967152181811
 20
1.023234780957793
 10
25.57967152181811
 20
0.8579134412198783
  0
LWPOLYLINE
  5
41AA
330
17
100
AcDbEntity
  8
FORMAT
100
AcDbPolyline
 90
        2
 70
     0
 43
0.0128
 10
25.55471837315534
 20
0.8009602925574199
 10
25.60462467048087
 20
0.8009602925574199
  0
LWPOLYLINE
  5
41AB
330
17
100
AcDbEntity
  8
FORMAT
100
AcDbPolyline
 90
        2
 70
     0
 43
0.0128
 10
25.57967152181811
 20
0.7440071438953453
 10
25.57967152181811
 20
0.5836946164949382
  0
LWPOLYLINE
  5
41AC
330
17
100
AcDbEntity
  8
FORMAT
100
AcDbPolyline
 90
        2
 70
     0
 43
0.0128
 10
25.57967152181811
 20
0.8259134412194555
 10
25.57967152181811
 20
0.7760071438963081
  0
LWPOLYLINE
  5
41AD
330
17
100
AcDbEntity
  8
FORMAT
100
AcDbPolyline
 90
        2
 70
     0
 43
0.0128
 10
25.3654010850568
 20
0.8009602925574199
 10
25.52271837315531
 20
0.8009602925574199
  0
LWPOLYLINE
  5
41AE
330
17
100
AcDbEntity
  8
FORMAT
  6
CENTER
100
AcDbPolyline
 90
        2
 70
     0
 43
0.0128
 10
25.81066408562731
 20
0.8009602925574199
 10
26.43894105695028
 20
0.8009602925574199
  0
LWPOLYLINE
  5
41AF
330
17
100
AcDbEntity
  8
FORMAT
100
AcDbPolyline
 90
        4
 70
     1
 43
0.0128
 10
26.0118528121386
 20
0.8777602925574115
 10
26.35745281213861
 20
0.9689602925574121
 10
26.3574528121386
 20
0.6372473945541799
 10
26.0118528121386
 20
0.7241602925574142
  0
TEXT
  5
41B0
330
17
100
AcDbEntity
  8
FORMAT
100
AcDbText
 10
19.75495393651598
 20
0.6510078903925703
 30
0.0
 40
0.131328
  1
written permission.
  7
ARIAL
100
AcDbText
  0
TEXT
  5
41B1
330
17
100
AcDbEntity
  8
FORMAT
100
AcDbText
 10
19.74984773187751
 20
1.96876701726844
 30
0.0
 40
0.131328
  1
shall be confidential except
  7
ARIAL
100
AcDbText
  0
TEXT
  5
41B2
330
17
100
AcDbEntity
  8
FORMAT
100
AcDbText
 10
19.7415165558884
 20
2.85100570758221
 30
0.0
 40
0.131328
  1
NOTICE:   This drawing is the 
  7
ARIAL
100
AcDbText
  0
TEXT
  5
41B3
330
17
100
AcDbEntity
  8
FORMAT
100
AcDbText
 10
19.74339778917627
 20
2.629886144144286
 30
0.0
 40
0.131328
  1
property of AMX LLC.
  7
ARIAL
100
AcDbText
  0
TEXT
  5
41B4
330
17
100
AcDbEntity
  8
FORMAT
100
AcDbText
 10
19.75226646039044
 20
2.18988658070635
 30
0.0
 40
0.131328
  1
that is not generally known 
  7
ARIAL
100
AcDbText
  0
TEXT
  5
41B5
330
17
100
AcDbEntity
  8
FORMAT
100
AcDbText
 10
19.75226646039044
 20
1.747647453830502
 30
0.0
 40
0.131328
  1
to the extent the information
  7
ARIAL
100
AcDbText
  0
TEXT
  5
41B6
330
17
100
AcDbEntity
  8
FORMAT
100
AcDbText
 10
19.74339778917627
 20
1.528767453830504
 30
0.0
 40
0.131328
  1
has been previously established.
  7
ARIAL
100
AcDbText
  0
TEXT
  5
41B7
330
17
100
AcDbEntity
  8
FORMAT
100
AcDbText
 10
19.75119146994023
 20
1.309887453830505
 30
0.0
 40
0.131328
  1
This drawing may not be copied,
  7
ARIAL
100
AcDbText
  0
TEXT
  5
41B8
330
17
100
AcDbEntity
  8
FORMAT
100
AcDbText
 10
19.75378936352825
 20
0.869887890392583
 30
0.0
 40
0.131328
  1
for manufacture or sale without
  7
ARIAL
100
AcDbText
  0
TEXT
  5
41B9
330
17
100
AcDbEntity
  8
FORMAT
100
AcDbText
 10
19.74357695425132
 20
1.091007453830492
 30
0.0
 40
0.131328
  1
reproduced, or used as the basis
  7
ARIAL
100
AcDbText
  0
TEXT
  5
41BA
330
17
100
AcDbEntity
  8
FORMAT
100
AcDbText
 10
19.74330820663874
 20
2.408766580706362
 30
0.0
 40
0.131328
  1
All information contained herein
  7
ARIAL
100
AcDbText
  0
LWPOLYLINE
  5
41BB
330
17
100
AcDbEntity
  8
FORMAT
100
AcDbPolyline
 90
        4
 70
     1
 43
0.0290909090909091
 10
0.5
 20
0.5
 10
33.5
 20
0.5
 10
33.5
 20
21.49999999999999
 10
0.5
 20
21.49999999999999
  0
MTEXT
  5
45F9
330
17
100
AcDbEntity
  8
TXT
100
AcDbMText
 10
1.054206964484265
 20
20.8669306311231
 30
0.0
 40
0.15
 41
0.0
 71
     1
 72
     1
  1
NOTES: UNLESS OTHERWISE SPECIFIED
  7
SLDTEXTSTYLE0
1001
ACAD
1000
MTEXTBEGIN
1070
    73
1070
     1
1070
    44
1040
1.0
1070
    74
1070
     0
1000
MTEXTEND
  0
MTEXT
  5
45FA
330
17
100
AcDbEntity
  8
TXT
100
AcDbMText
 10
13.95106197373062
 20
5.633270810219155
 30
0.0
 40
0.375
 41
0.0
 71
     1
 72
     1
  1
TABLE MOUNT OPTION 
  7
SLDTEXTSTYLE1
1001
ACAD
1000
MTEXTBEGIN
1070
    73
1070
     1
1070
    44
1040
1.0
1070
    74
1070
     0
1000
MTEXTEND
  0
LINE
  5
58A9
330
17
100
AcDbEntity
  8
PART
  6
SLD-SOLID
100
AcDbLine
 10
16.3694590442535
 20
9.691000726790385
 30
0.0
 11
6.449774004883273
 21
9.691000726790385
 31
0.0
  0
LINE
  5
58AA
330
17
100
AcDbEntity
  8
PART
  6
SLD-SOLID
100
AcDbLine
 10
16.3694590442535
 20
9.198594257084046
 30
0.0
 11
16.3694590442535
 21
9.691000726790385
 31
0.0
  0
LINE
  5
58AB
330
17
100
AcDbEntity
  8
PART
  6
SLD-SOLID
100
AcDbLine
 10
16.3694590442535
 20
9.198594257084046
 30
0.0
 11
6.449774004883273
 21
9.198594257084046
 31
0.0
  0
LINE
  5
58AC
330
17
100
AcDbEntity
  8
PART
  6
SLD-SOLID
100
AcDbLine
 10
6.449774004883273
 20
9.198594257084046
 30
0.0
 11
6.449774004883273
 21
9.691000726790385
 31
0.0
  0
CIRCLE
  5
58BA
330
17
100
AcDbEntity
  8
PART
  6
SLD-SOLID
100
AcDbCircle
 10
8.449774004883312
 20
17.62459966932645
 30
0.0
 40
0.1395000000000017
  0
LINE
  5
58BB
330
17
100
AcDbEntity
  8
PART
  6
SLD-SOLID
100
AcDbLine
 10
8.464537784410877
 20
17.60983588979889
 30
0.0
 11
8.558778733285627
 21
17.60983588979888
 31
0.0
  0
ARC
  5
58BC
330
17
100
AcDbEntity
  8
PART
  6
SLD-SOLID
100
AcDbCircle
 10
8.449774004883312
 20
17.62459966932645
 30
0.0
 40
0.110000000000004
100
AcDbArc
 50
352.2867023136063
 51
7.713297686393061
  0
LINE
  5
58BD
330
17
100
AcDbEntity
  8
PART
  6
SLD-SOLID
100
AcDbLine
 10
8.558778733285622
 20
17.639363448854
 30
0.0
 11
8.464537784410872
 21
17.63936344885401
 31
0.0
  0
LINE
  5
58BE
330
17
100
AcDbEntity
  8
PART
  6
SLD-SOLID
100
AcDbLine
 10
8.464537784410872
 20
17.63936344885401
 30
0.0
 11
8.464537784410877
 21
17.73360439772877
 31
0.0
  0
ARC
  5
58BF
330
17
100
AcDbEntity
  8
PART
  6
SLD-SOLID
100
AcDbCircle
 10
8.449774004883312
 20
17.62459966932645
 30
0.0
 40
0.1100000000000045
100
AcDbArc
 50
82.28670231360373
 51
97.713297686391
  0
LINE
  5
58C0
330
17
100
AcDbEntity
  8
PART
  6
SLD-SOLID
100
AcDbLine
 10
8.435010225355759
 20
17.73360439772876
 30
0.0
 11
8.435010225355757
 21
17.639363448854
 31
0.0
  0
LINE
  5
58C1
330
17
100
AcDbEntity
  8
PART
  6
SLD-SOLID
100
AcDbLine
 10
8.435010225355757
 20
17.639363448854
 30
0.0
 11
8.340769276481003
 21
17.639363448854
 31
0.0
  0
ARC
  5
58C2
330
17
100
AcDbEntity
  8
PART
  6
SLD-SOLID
100
AcDbCircle
 10
8.449774004883312
 20
17.62459966932645
 30
0.0
 40
0.109999999999999
100
AcDbArc
 50
172.2867023136079
 51
187.7132976863965
  0
LINE
  5
58C3
330
17
100
AcDbEntity
  8
PART
  6
SLD-SOLID
100
AcDbLine
 10
8.340769276481003
 20
17.60983588979888
 30
0.0
 11
8.435010225355757
 21
17.60983588979888
 31
0.0
  0
LINE
  5
58C4
330
17
100
AcDbEntity
  8
PART
  6
SLD-SOLID
100
AcDbLine
 10
8.435010225355757
 20
17.60983588979888
 30
0.0
 11
8.435010225355755
 21
17.51559494092413
 31
0.0
  0
ARC
  5
58C5
330
17
100
AcDbEntity
  8
PART
  6
SLD-SOLID
100
AcDbCircle
 10
8.449774004883312
 20
17.62459966932645
 30
0.0
 40
0.1100000000000036
100
AcDbArc
 50
262.2867023136082
 51
277.7132976863973
  0
LINE
  5
58C6
330
17
100
AcDbEntity
  8
PART
  6
SLD-SOLID
100
AcDbLine
 10
8.464537784410877
 20
17.51559494092413
 30
0.0
 11
8.464537784410877
 21
17.60983588979889
 31
0.0
  0
LINE
  5
58C7
330
17
100
AcDbEntity
  8
PART
  6
SLD-SOLID
100
AcDbLine
 10
8.450754171453992
 20
17.72081106370946
 30
0.0
 11
8.464537784410877
 21
17.73360439772877
 31
0.0
  0
ARC
  5
58C8
330
17
100
AcDbEntity
  8
PART
  6
SLD-SOLID
100
AcDbCircle
 10
8.449774004883312
 20
17.62459966932645
 30
0.0
 40
0.096216387043118
100
AcDbArc
 50
89.41631170287363
 51
90.58368829712106
  0
LINE
  5
58C9
330
17
100
AcDbEntity
  8
PART
  6
SLD-SOLID
100
AcDbLine
 10
8.448793838312642
 20
17.72081106370946
 30
0.0
 11
8.435010225355759
 21
17.73360439772876
 31
0.0
  0
LINE
  5
58CA
330
17
100
AcDbEntity
  8
PART
  6
SLD-SOLID
100
AcDbLine
 10
8.450754171453992
 20
17.62557983589712
 30
0.0
 11
8.464537784410872
 21
17.63936344885401
 31
0.0
  0
LINE
  5
58CB
330
17
100
AcDbEntity
  8
PART
  6
SLD-SOLID
100
AcDbLine
 10
8.450754171453992
 20
17.62557983589712
 30
0.0
 11
8.450754171453992
 21
17.72081106370946
 31
0.0
  0
LINE
  5
58CC
330
17
100
AcDbEntity
  8
PART
  6
SLD-SOLID
100
AcDbLine
 10
8.448793838312642
 20
17.72081106370946
 30
0.0
 11
8.448793838312642
 21
17.62557983589712
 31
0.0
  0
LINE
  5
58CD
330
17
100
AcDbEntity
  8
PART
  6
SLD-SOLID
100
AcDbLine
 10
8.448793838312642
 20
17.62557983589712
 30
0.0
 11
8.435010225355757
 21
17.639363448854
 31
0.0
  0
LINE
  5
58CE
330
17
100
AcDbEntity
  8
PART
  6
SLD-SOLID
100
AcDbLine
 10
8.448793838312642
 20
17.62557983589712
 30
0.0
 11
8.353562610500297
 21
17.62557983589712
 31
0.0
  0
LINE
  5
58CF
330
17
100
AcDbEntity
  8
PART
  6
SLD-SOLID
100
AcDbLine
 10
8.353562610500297
 20
17.62557983589712
 30
0.0
 11
8.340769276481003
 21
17.639363448854
 31
0.0
  0
ARC
  5
58D0
330
17
100
AcDbEntity
  8
PART
  6
SLD-SOLID
100
AcDbCircle
 10
8.449774004883312
 20
17.62459966932645
 30
0.0
 40
0.0962163870431145
100
AcDbArc
 50
179.4163117028746
 51
180.5836882971261
  0
LINE
  5
58D1
330
17
100
AcDbEntity
  8
PART
  6
SLD-SOLID
100
AcDbLine
 10
8.353562610500299
 20
17.62361950275577
 30
0.0
 11
8.340769276481003
 21
17.60983588979888
 31
0.0
  0
LINE
  5
58D2
330
17
100
AcDbEntity
  8
PART
  6
SLD-SOLID
100
AcDbLine
 10
8.545985399266335
 20
17.62557983589712
 30
0.0
 11
8.558778733285622
 21
17.639363448854
 31
0.0
  0
LINE
  5
58D3
330
17
100
AcDbEntity
  8
PART
  6
SLD-SOLID
100
AcDbLine
 10
8.545985399266335
 20
17.62557983589712
 30
0.0
 11
8.450754171453992
 21
17.62557983589712
 31
0.0
  0
LINE
  5
58D4
330
17
100
AcDbEntity
  8
PART
  6
SLD-SOLID
100
AcDbLine
 10
8.54598539926633
 20
17.62361950275578
 30
0.0
 11
8.558778733285627
 21
17.60983588979888
 31
0.0
  0
ARC
  5
58D5
330
17
100
AcDbEntity
  8
PART
  6
SLD-SOLID
100
AcDbCircle
 10
8.449774004883312
 20
17.62459966932645
 30
0.0
 40
0.0962163870431216
100
AcDbArc
 50
359.4163117028787
 51
0.5836882971253546
  0
LINE
  5
58D6
330
17
100
AcDbEntity
  8
PART
  6
SLD-SOLID
100
AcDbLine
 10
8.450754171453992
 20
17.52838827494343
 30
0.0
 11
8.464537784410877
 21
17.51559494092413
 31
0.0
  0
LINE
  5
58D7
330
17
100
AcDbEntity
  8
PART
  6
SLD-SOLID
100
AcDbLine
 10
8.450754171453992
 20
17.52838827494343
 30
0.0
 11
8.450754171453986
 21
17.62361950275577
 31
0.0
  0
LINE
  5
58D8
330
17
100
AcDbEntity
  8
PART
  6
SLD-SOLID
100
AcDbLine
 10
8.450754171453986
 20
17.62361950275577
 30
0.0
 11
8.464537784410877
 21
17.60983588979889
 31
0.0
  0
LINE
  5
58D9
330
17
100
AcDbEntity
  8
PART
  6
SLD-SOLID
100
AcDbLine
 10
8.450754171453986
 20
17.62361950275577
 30
0.0
 11
8.54598539926633
 21
17.62361950275578
 31
0.0
  0
LINE
  5
58DA
330
17
100
AcDbEntity
  8
PART
  6
SLD-SOLID
100
AcDbLine
 10
8.353562610500299
 20
17.62361950275577
 30
0.0
 11
8.448793838312642
 21
17.62361950275577
 31
0.0
  0
LINE
  5
58DB
330
17
100
AcDbEntity
  8
PART
  6
SLD-SOLID
100
AcDbLine
 10
8.448793838312642
 20
17.62361950275577
 30
0.0
 11
8.435010225355757
 21
17.60983588979888
 31
0.0
  0
LINE
  5
58DC
330
17
100
AcDbEntity
  8
PART
  6
SLD-SOLID
100
AcDbLine
 10
8.448793838312642
 20
17.62361950275577
 30
0.0
 11
8.448793838312635
 21
17.52838827494343
 31
0.0
  0
LINE
  5
58DD
330
17
100
AcDbEntity
  8
PART
  6
SLD-SOLID
100
AcDbLine
 10
8.448793838312635
 20
17.52838827494343
 30
0.0
 11
8.435010225355755
 21
17.51559494092413
 31
0.0
  0
ARC
  5
58DE
330
17
100
AcDbEntity
  8
PART
  6
SLD-SOLID
100
AcDbCircle
 10
8.449774004883312
 20
17.62459966932645
 30
0.0
 40
0.096216387043118
100
AcDbArc
 50
269.4163117028754
 51
270.5836882971271
  0
LINE
  5
58DF
330
17
100
AcDbEntity
  8
PART
  6
SLD-SOLID
100
AcDbLine
 10
8.464150845131575
 20
18.13974050273656
 30
0.0
 11
8.461712464079743
 21
18.23394990111411
 31
0.0
  0
ARC
  5
58E0
330
17
100
AcDbEntity
  8
PART
  6
SLD-SOLID
100
AcDbCircle
 10
8.44977400488332
 20
18.12459966932644
 30
0.0
 40
0.1100000000000039
100
AcDbArc
 50
83.76933314140606
 51
99.19592851419352
  0
LINE
  5
58E1
330
17
100
AcDbEntity
  8
PART
  6
SLD-SOLID
100
AcDbLine
 10
8.432194790421371
 20
18.23318590795225
 30
0.0
 11
8.434633171473205
 21
18.1389765095747
 31
0.0
  0
LINE
  5
58E2
330
17
100
AcDbEntity
  8
PART
  6
SLD-SOLID
100
AcDbLine
 10
8.434633171473205
 20
18.1389765095747
 30
0.0
 11
8.340423773095654
 21
18.13653812852287
 31
0.0
  0
ARC
  5
58E3
330
17
100
AcDbEntity
  8
PART
  6
SLD-SOLID
100
AcDbCircle
 10
8.44977400488332
 20
18.12459966932644
 30
0.0
 40
0.1100000000000039
100
AcDbArc
 50
173.7693331414059
 51
189.1959285141932
  0
LINE
  5
58E4
330
17
100
AcDbEntity
  8
PART
  6
SLD-SOLID
100
AcDbLine
 10
8.341187766257512
 20
18.10702045486449
 30
0.0
 11
8.435397164635061
 21
18.10945883591633
 31
0.0
  0
LINE
  5
58E5
330
17
100
AcDbEntity
  8
PART
  6
SLD-SOLID
100
AcDbLine
 10
8.435397164635061
 20
18.10945883591633
 30
0.0
 11
8.437835545686903
 21
18.01524943753878
 31
0.0
  0
ARC
  5
58E6
330
17
100
AcDbEntity
  8
PART
  6
SLD-SOLID
100
AcDbCircle
 10
8.44977400488332
 20
18.12459966932644
 30
0.0
 40
0.1099999999999979
100
AcDbArc
 50
263.7693331414102
 51
279.195928514198
  0
LINE
  5
58E7
330
17
100
AcDbEntity
  8
PART
  6
SLD-SOLID
100
AcDbLine
 10
8.467353219345275
 20
18.01601343070063
 30
0.0
 11
8.464914838293434
 21
18.11022282907819
 31
0.0
  0
LINE
  5
58E8
330
17
100
AcDbEntity
  8
PART
  6
SLD-SOLID
100
AcDbLine
 10
8.464914838293434
 20
18.11022282907819
 30
0.0
 11
8.559124236670985
 21
18.11266121013002
 31
0.0
  0
ARC
  5
58E9
330
17
100
AcDbEntity
  8
PART
  6
SLD-SOLID
100
AcDbCircle
 10
8.44977400488332
 20
18.12459966932644
 30
0.0
 40
0.1100000000000035
100
AcDbArc
 50
353.7693331414086
 51
9.195928514196337
  0
LINE
  5
58EA
330
17
100
AcDbEntity
  8
PART
  6
SLD-SOLID
100
AcDbLine
 10
8.558360243509126
 20
18.1421788837884
 30
0.0
 11
8.464150845131575
 21
18.13974050273656
 31
0.0
  0
CIRCLE
  5
58EB
330
17
100
AcDbEntity
  8
PART
  6
SLD-SOLID
100
AcDbCircle
 10
8.44977400488332
 20
18.12459966932644
 30
0.0
 40
0.1395000000000023
  0
LINE
  5
58EC
330
17
100
AcDbEntity
  8
PART
  6
SLD-SOLID
100
AcDbLine
 10
8.450728482574954
 20
18.12560486848516
 30
0.0
 11
8.464150845131575
 21
18.13974050273656
 31
0.0
  0
LINE
  5
58ED
330
17
100
AcDbEntity
  8
PART
  6
SLD-SOLID
100
AcDbLine
 10
8.450728482574954
 20
18.12560486848516
 30
0.0
 11
8.44826447914318
 21
18.22080421426935
 31
0.0
  0
LINE
  5
58EE
330
17
100
AcDbEntity
  8
PART
  6
SLD-SOLID
100
AcDbLine
 10
8.44826447914318
 20
18.22080421426935
 30
0.0
 11
8.461712464079743
 21
18.23394990111411
 31
0.0
  0
ARC
  5
58EF
330
17
100
AcDbEntity
  8
PART
  6
SLD-SOLID
100
AcDbCircle
 10
8.44977400488332
 20
18.12459966932644
 30
0.0
 40
0.0962163870431198
100
AcDbArc
 50
90.89894253067908
 51
92.06631912492669
  0
LINE
  5
58F0
330
17
100
AcDbEntity
  8
PART
  6
SLD-SOLID
100
AcDbLine
 10
8.446304802292816
 20
18.22075349280225
 30
0.0
 11
8.432194790421371
 21
18.23318590795225
 31
0.0
  0
LINE
  5
58F1
330
17
100
AcDbEntity
  8
PART
  6
SLD-SOLID
100
AcDbLine
 10
8.446304802292816
 20
18.22075349280225
 30
0.0
 11
8.448768805724595
 21
18.12555414701808
 31
0.0
  0
LINE
  5
58F2
330
17
100
AcDbEntity
  8
PART
  6
SLD-SOLID
100
AcDbLine
 10
8.448768805724595
 20
18.12555414701808
 30
0.0
 11
8.434633171473205
 21
18.1389765095747
 31
0.0
  0
LINE
  5
58F3
330
17
100
AcDbEntity
  8
PART
  6
SLD-SOLID
100
AcDbLine
 10
8.545978549826218
 20
18.12610919506658
 30
0.0
 11
8.559124236670985
 21
18.11266121013002
 31
0.0
  0
ARC
  5
58F4
330
17
100
AcDbEntity
  8
PART
  6
SLD-SOLID
100
AcDbCircle
 10
8.44977400488332
 20
18.12459966932644
 30
0.0
 40
0.096216387043118
100
AcDbArc
 50
0.8989425306759978
 51
2.066319124926707
  0
LINE
  5
58F5
330
17
100
AcDbEntity
  8
PART
  6
SLD-SOLID
100
AcDbLine
 10
8.545927828359129
 20
18.12806887191695
 30
0.0
 11
8.558360243509126
 21
18.1421788837884
 31
0.0
  0
LINE
  5
58F6
330
17
100
AcDbEntity
  8
PART
  6
SLD-SOLID
100
AcDbLine
 10
8.545927828359129
 20
18.12806887191695
 30
0.0
 11
8.450728482574954
 21
18.12560486848516
 31
0.0
  0
LINE
  5
58F7
330
17
100
AcDbEntity
  8
PART
  6
SLD-SOLID
100
AcDbLine
 10
8.448768805724595
 20
18.12555414701808
 30
0.0
 11
8.353569459940418
 21
18.12309014358631
 31
0.0
  0
LINE
  5
58F8
330
17
100
AcDbEntity
  8
PART
  6
SLD-SOLID
100
AcDbLine
 10
8.353569459940418
 20
18.12309014358631
 30
0.0
 11
8.340423773095654
 21
18.13653812852287
 31
0.0
  0
ARC
  5
58F9
330
17
100
AcDbEntity
  8
PART
  6
SLD-SOLID
100
AcDbCircle
 10
8.44977400488332
 20
18.12459966932644
 30
0.0
 40
0.0962163870431171
100
AcDbArc
 50
180.8989425306755
 51
182.0663191249234
  0
LINE
  5
58FA
330
17
100
AcDbEntity
  8
PART
  6
SLD-SOLID
100
AcDbLine
 10
8.353620181407512
 20
18.12113046673594
 30
0.0
 11
8.341187766257512
 21
18.10702045486449
 31
0.0
  0
LINE
  5
58FB
330
17
100
AcDbEntity
  8
PART
  6
SLD-SOLID
100
AcDbLine
 10
8.450779204042047
 20
18.12364519163481
 30
0.0
 11
8.464914838293434
 21
18.11022282907819
 31
0.0
  0
LINE
  5
58FC
330
17
100
AcDbEntity
  8
PART
  6
SLD-SOLID
100
AcDbLine
 10
8.450779204042047
 20
18.12364519163481
 30
0.0
 11
8.545978549826218
 21
18.12610919506658
 31
0.0
  0
LINE
  5
58FD
330
17
100
AcDbEntity
  8
PART
  6
SLD-SOLID
100
AcDbLine
 10
8.448819527191687
 20
18.12359447016772
 30
0.0
 11
8.435397164635061
 21
18.10945883591633
 31
0.0
  0
LINE
  5
58FE
330
17
100
AcDbEntity
  8
PART
  6
SLD-SOLID
100
AcDbLine
 10
8.448819527191687
 20
18.12359447016772
 30
0.0
 11
8.451283530623454
 21
18.02839512438355
 31
0.0
  0
LINE
  5
58FF
330
17
100
AcDbEntity
  8
PART
  6
SLD-SOLID
100
AcDbLine
 10
8.451283530623454
 20
18.02839512438355
 30
0.0
 11
8.437835545686903
 21
18.01524943753878
 31
0.0
  0
LINE
  5
5900
330
17
100
AcDbEntity
  8
PART
  6
SLD-SOLID
100
AcDbLine
 10
8.453243207473825
 20
18.02844584585064
 30
0.0
 11
8.467353219345275
 21
18.01601343070063
 31
0.0
  0
LINE
  5
5901
330
17
100
AcDbEntity
  8
PART
  6
SLD-SOLID
100
AcDbLine
 10
8.453243207473825
 20
18.02844584585064
 30
0.0
 11
8.450779204042047
 21
18.12364519163481
 31
0.0
  0
LINE
  5
5902
330
17
100
AcDbEntity
  8
PART
  6
SLD-SOLID
100
AcDbLine
 10
8.353620181407512
 20
18.12113046673594
 30
0.0
 11
8.448819527191687
 21
18.12359447016772
 31
0.0
  0
ARC
  5
5903
330
17
100
AcDbEntity
  8
PART
  6
SLD-SOLID
100
AcDbCircle
 10
8.44977400488332
 20
18.12459966932644
 30
0.0
 40
0.0962163870431153
100
AcDbArc
 50
270.8989425306767
 51
272.0663191249287
  0
ARC
  5
5904
330
17
100
AcDbEntity
  8
PART
  6
SLD-SOLID
100
AcDbCircle
 10
8.449774004883312
 20
16.74959966932645
 30
0.0
 40
0.4000000000000004
100
AcDbArc
 50
180.0
 51
0.0
  0
LINE
  5
5905
330
17
100
AcDbEntity
  8
PART
  6
SLD-SOLID
100
AcDbLine
 10
8.599774004883311
 20
16.71959966932645
 30
0.0
 11
8.599774004883311
 21
16.77959966932645
 31
0.0
  0
ARC
  5
5906
330
17
100
AcDbEntity
  8
PART
  6
SLD-SOLID
100
AcDbCircle
 10
8.569774004883312
 20
16.77959966932645
 30
0.0
 40
0.0299999999999994
100
AcDbArc
 50
0.0
 51
90.0
  0
LINE
  5
5907
330
17
100
AcDbEntity
  8
PART
  6
SLD-SOLID
100
AcDbLine
 10
8.569774004883312
 20
16.80959966932645
 30
0.0
 11
8.329774004883313
 21
16.80959966932645
 31
0.0
  0
ARC
  5
5908
330
17
100
AcDbEntity
  8
PART
  6
SLD-SOLID
100
AcDbCircle
 10
8.329774004883313
 20
16.77959966932645
 30
0.0
 40
0.0300000000000011
100
AcDbArc
 50
90.0
 51
180.0
  0
LINE
  5
5909
330
17
100
AcDbEntity
  8
PART
  6
SLD-SOLID
100
AcDbLine
 10
8.299774004883312
 20
16.77959966932645
 30
0.0
 11
8.299774004883312
 21
16.71959966932645
 31
0.0
  0
ARC
  5
590A
330
17
100
AcDbEntity
  8
PART
  6
SLD-SOLID
100
AcDbCircle
 10
8.329774004883313
 20
16.71959966932645
 30
0.0
 40
0.0300000000000011
100
AcDbArc
 50
180.0
 51
270.0000000000008
  0
LINE
  5
590B
330
17
100
AcDbEntity
  8
PART
  6
SLD-SOLID
100
AcDbLine
 10
8.329774004883313
 20
16.68959966932645
 30
0.0
 11
8.569774004883312
 21
16.68959966932645
 31
0.0
  0
ARC
  5
590C
330
17
100
AcDbEntity
  8
PART
  6
SLD-SOLID
100
AcDbCircle
 10
8.569774004883312
 20
16.71959966932645
 30
0.0
 40
0.0299999999999994
100
AcDbArc
 50
270.0000000000008
 51
0.0
  0
LINE
  5
590D
330
17
100
AcDbEntity
  8
PART
  6
SLD-SOLID
100
AcDbLine
 10
8.899774004883312
 20
18.13459966932531
 30
0.0
 11
8.899774004883312
 21
16.74959966932645
 31
0.0
  0
LINE
  5
590E
330
17
100
AcDbEntity
  8
PART
  6
SLD-SOLID
100
AcDbLine
 10
8.849774004883313
 20
16.74959966932645
 30
0.0
 11
8.899774004883312
 21
16.74959966932645
 31
0.0
  0
LINE
  5
590F
330
17
100
AcDbEntity
  8
PART
  6
SLD-SOLID
100
AcDbLine
 10
8.049774004883312
 20
16.74959966932645
 30
0.0
 11
7.999774004883312
 21
16.74959966932645
 31
0.0
  0
LINE
  5
5910
330
17
100
AcDbEntity
  8
PART
  6
SLD-SOLID
100
AcDbLine
 10
7.999774004883312
 20
16.74959966932645
 30
0.0
 11
7.999774004883312
 21
18.13459966932533
 31
0.0
  0
ARC
  5
5911
330
17
100
AcDbEntity
  8
PART
  6
SLD-SOLID
100
AcDbCircle
 10
8.449774004883312
 20
16.74959966932645
 30
0.0
 40
0.4500000000000002
100
AcDbArc
 50
180.0
 51
0.0
  0
LINE
  5
5912
330
17
100
AcDbEntity
  8
PART
  6
SLD-SOLID
100
AcDbLine
 10
16.3694590442535
 20
13.49308867643727
 30
0.0
 11
6.449774004883272
 21
13.49308867643727
 31
0.0
  0
LINE
  5
5913
330
17
100
AcDbEntity
  8
PART
  6
SLD-SOLID
100
AcDbLine
 10
16.3694590442535
 20
13.51165603322646
 30
0.0
 11
6.449774004883272
 21
13.51165603322646
 31
0.0
  0
LINE
  5
5914
330
17
100
AcDbEntity
  8
PART
  6
SLD-SOLID
100
AcDbLine
 10
6.449774004883272
 20
13.51165603322646
 30
0.0
 11
6.449774004883272
 21
13.49308867643727
 31
0.0
  0
LINE
  5
5915
330
17
100
AcDbEntity
  8
PART
  6
SLD-SOLID
100
AcDbLine
 10
16.3694590442535
 20
13.49308867643727
 30
0.0
 11
16.3694590442535
 21
13.51165603322646
 31
0.0
  0
LINE
  5
5916
330
17
100
AcDbEntity
  8
PART
  6
SLD-SOLID
100
AcDbLine
 10
16.3694590442535
 20
13.48608867643727
 30
0.0
 11
6.449774004883272
 21
13.48608867643727
 31
0.0
  0
LINE
  5
5917
330
17
100
AcDbEntity
  8
PART
  6
SLD-SOLID
100
AcDbLine
 10
6.449774004883272
 20
13.49308867643727
 30
0.0
 11
6.449774004883272
 21
13.48608867643727
 31
0.0
  0
LINE
  5
5918
330
17
100
AcDbEntity
  8
PART
  6
SLD-SOLID
100
AcDbLine
 10
16.3694590442535
 20
13.48608867643727
 30
0.0
 11
16.3694590442535
 21
13.49308867643727
 31
0.0
  0
LINE
  5
5919
330
17
100
AcDbEntity
  8
PART
  6
SLD-SOLID
100
AcDbLine
 10
6.449774004883272
 20
13.52101560207449
 30
0.0
 11
16.3694590442535
 21
13.52101560207449
 31
0.0
  0
LINE
  5
591A
330
17
100
AcDbEntity
  8
PART
  6
SLD-SOLID
100
AcDbLine
 10
6.449774004883272
 20
13.51165603322646
 30
0.0
 11
6.449774004883272
 21
13.52101560207449
 31
0.0
  0
LINE
  5
591B
330
17
100
AcDbEntity
  8
PART
  6
SLD-SOLID
100
AcDbLine
 10
16.3694590442535
 20
13.52101560207449
 30
0.0
 11
16.3694590442535
 21
13.51165603322646
 31
0.0
  0
CIRCLE
  5
591C
330
17
100
AcDbEntity
  8
PART
  6
SLD-SOLID
100
AcDbCircle
 10
15.31040392614326
 20
14.29741462995491
 30
0.0
 40
0.0847500000000015
  0
CIRCLE
  5
591D
330
17
100
AcDbEntity
  8
PART
  6
SLD-SOLID
100
AcDbCircle
 10
7.508868493072249
 20
14.29741462995491
 30
0.0
 40
0.0847500000000015
  0
LINE
  5
591E
330
17
100
AcDbEntity
  8
PART
  6
SLD-SOLID
100
AcDbLine
 10
14.55425736830352
 20
14.3810321397817
 30
0.0
 11
14.37757410212318
 21
14.3810321397817
 31
0.0
  0
ARC
  5
591F
330
17
100
AcDbEntity
  8
PART
  6
SLD-SOLID
100
AcDbCircle
 10
14.35390978299078
 20
14.3500321397817
 30
0.0
 40
0.0390000000000004
100
AcDbArc
 50
52.6431480270932
 51
187.3568519729052
  0
LINE
  5
5920
330
17
100
AcDbEntity
  8
PART
  6
SLD-SOLID
100
AcDbLine
 10
14.31523083590727
 20
14.34503823824978
 30
0.0
 11
14.2268892028171
 21
14.192026041314
 31
0.0
  0
ARC
  5
5921
330
17
100
AcDbEntity
  8
PART
  6
SLD-SOLID
100
AcDbCircle
 10
14.24190383076821
 20
14.15603213978208
 30
0.0
 40
0.0390000000000027
100
AcDbArc
 50
112.643148027094
 51
247.3568519729048
  0
LINE
  5
5922
330
17
100
AcDbEntity
  8
PART
  6
SLD-SOLID
100
AcDbLine
 10
14.2268892028171
 20
14.12003823825016
 30
0.0
 11
14.31523083590727
 21
13.96702604131437
 31
0.0
  0
ARC
  5
5923
330
17
100
AcDbEntity
  8
PART
  6
SLD-SOLID
100
AcDbCircle
 10
14.35390978299078
 20
13.96203213978245
 30
0.0
 40
0.0390000000000018
100
AcDbArc
 50
172.6431480270955
 51
307.356851972906
  0
LINE
  5
5924
330
17
100
AcDbEntity
  8
PART
  6
SLD-SOLID
100
AcDbLine
 10
14.37757410212318
 20
13.93103213978245
 30
0.0
 11
14.55425736830352
 21
13.93103213978245
 31
0.0
  0
ARC
  5
5925
330
17
100
AcDbEntity
  8
PART
  6
SLD-SOLID
100
AcDbCircle
 10
14.57792168743592
 20
13.96203213978245
 30
0.0
 40
0.0390000000000029
100
AcDbArc
 50
232.6431480270935
 51
7.356851972907082
  0
LINE
  5
5926
330
17
100
AcDbEntity
  8
PART
  6
SLD-SOLID
100
AcDbLine
 10
14.61660063451944
 20
13.96702604131438
 30
0.0
 11
14.70494226760961
 21
14.12003823825016
 31
0.0
  0
ARC
  5
5927
330
17
100
AcDbEntity
  8
PART
  6
SLD-SOLID
100
AcDbCircle
 10
14.68992763965849
 20
14.15603213978208
 30
0.0
 40
0.039000000000002
100
AcDbArc
 50
292.6431480270967
 51
67.35685197290843
  0
LINE
  5
5928
330
17
100
AcDbEntity
  8
PART
  6
SLD-SOLID
100
AcDbLine
 10
14.70494226760961
 20
14.192026041314
 30
0.0
 11
14.61660063451944
 21
14.34503823824978
 31
0.0
  0
ARC
  5
5929
330
17
100
AcDbEntity
  8
PART
  6
SLD-SOLID
100
AcDbCircle
 10
14.57792168743592
 20
14.3500321397817
 30
0.0
 40
0.0390000000000004
100
AcDbArc
 50
352.6431480270933
 51
127.3568519729068
  0
LINE
  5
592A
330
17
100
AcDbEntity
  8
PART
  6
SLD-SOLID
100
AcDbLine
 10
8.20263241461736
 20
14.34503823824978
 30
0.0
 11
8.114290781527191
 21
14.192026041314
 31
0.0
  0
ARC
  5
592B
330
17
100
AcDbEntity
  8
PART
  6
SLD-SOLID
100
AcDbCircle
 10
8.129305409478305
 20
14.15603213978208
 30
0.0
 40
0.0390000000000004
100
AcDbArc
 50
112.6431480270925
 51
247.3568519729084
  0
LINE
  5
592C
330
17
100
AcDbEntity
  8
PART
  6
SLD-SOLID
100
AcDbLine
 10
8.114290781527191
 20
14.12003823825016
 30
0.0
 11
8.202632414617362
 21
13.96702604131438
 31
0.0
  0
ARC
  5
592D
330
17
100
AcDbEntity
  8
PART
  6
SLD-SOLID
100
AcDbCircle
 10
8.241311361700876
 20
13.96203213978245
 30
0.0
 40
0.0390000000000013
100
AcDbArc
 50
172.6431480270925
 51
307.3568519729048
  0
LINE
  5
592E
330
17
100
AcDbEntity
  8
PART
  6
SLD-SOLID
100
AcDbLine
 10
8.264975680833277
 20
13.93103213978245
 30
0.0
 11
8.441658947013619
 21
13.93103213978245
 31
0.0
  0
ARC
  5
592F
330
17
100
AcDbEntity
  8
PART
  6
SLD-SOLID
100
AcDbCircle
 10
8.465323266146018
 20
13.96203213978245
 30
0.0
 40
0.0390000000000018
100
AcDbArc
 50
232.6431480270976
 51
7.356851972906675
  0
LINE
  5
5930
330
17
100
AcDbEntity
  8
PART
  6
SLD-SOLID
100
AcDbLine
 10
8.504002213229536
 20
13.96702604131438
 30
0.0
 11
8.592343846319707
 21
14.12003823825016
 31
0.0
  0
ARC
  5
5931
330
17
100
AcDbEntity
  8
PART
  6
SLD-SOLID
100
AcDbCircle
 10
8.577329218368589
 20
14.15603213978208
 30
0.0
 40
0.0390000000000017
100
AcDbArc
 50
292.6431480270967
 51
67.3568519729026
  0
LINE
  5
5932
330
17
100
AcDbEntity
  8
PART
  6
SLD-SOLID
100
AcDbLine
 10
8.592343846319709
 20
14.192026041314
 30
0.0
 11
8.504002213229535
 21
14.34503823824978
 31
0.0
  0
ARC
  5
5933
330
17
100
AcDbEntity
  8
PART
  6
SLD-SOLID
100
AcDbCircle
 10
8.465323266146018
 20
14.3500321397817
 30
0.0
 40
0.0390000000000007
100
AcDbArc
 50
352.6431480270963
 51
127.3568519729031
  0
LINE
  5
5934
330
17
100
AcDbEntity
  8
PART
  6
SLD-SOLID
100
AcDbLine
 10
8.441658947013619
 20
14.38103213978171
 30
0.0
 11
8.264975680833277
 21
14.38103213978171
 31
0.0
  0
ARC
  5
5935
330
17
100
AcDbEntity
  8
PART
  6
SLD-SOLID
100
AcDbCircle
 10
8.241311361700876
 20
14.3500321397817
 30
0.0
 40
0.0390000000000007
100
AcDbArc
 50
52.64314802709687
 51
187.3568519729049
  0
CIRCLE
  5
5936
330
17
100
AcDbEntity
  8
PART
  6
SLD-SOLID
100
AcDbCircle
 10
15.90769791800153
 20
14.24074140160846
 30
0.0
 40
0.1670000000000833
  0
CIRCLE
  5
5937
330
17
100
AcDbEntity
  8
PART
  6
SLD-SOLID
100
AcDbCircle
 10
6.911535131135241
 20
14.24074140160846
 30
0.0
 40
0.1670000000000833
  0
SPLINE
  5
5938
330
17
100
AcDbEntity
  8
PART
  6
SLD-SOLID
100
AcDbSpline
210
0.0
220
0.0
230
1.0
 70
     8
 71
     3
 72
     9
 73
     5
 74
     0
 42
0.0000000001
 43
0.0000000001
 40
0.0
 40
0.0
 40
0.0
 40
0.0
 40
0.500000000328051
 40
1.0
 40
1.0
 40
1.0
 40
1.0
 10
6.449774004883278
 20
13.72566266145256
 30
0.0
 10
6.552270679308548
 20
14.5004677317608
 30
0.0
 10
6.757264028024591
 20
16.05007787136059
 30
0.0
 10
6.961719498206186
 20
17.59975907034351
 30
0.0
 10
7.063947233229914
 20
18.3745996693266
 30
0.0
  0
LINE
  5
5939
330
17
100
AcDbEntity
  8
PART
  6
SLD-SOLID
100
AcDbLine
 10
11.01287045097826
 20
18.3745996693266
 30
0.0
 11
11.01287045097826
 21
18.13459966932533
 31
0.0
  0
LINE
  5
593A
330
17
100
AcDbEntity
  8
PART
  6
SLD-SOLID
100
AcDbLine
 10
11.01287045097826
 20
18.13459966932533
 30
0.0
 11
9.925838255141595
 21
18.1345996693253
 31
0.0
  0
ARC
  5
593B
330
17
100
AcDbEntity
  8
PART
  6
SLD-SOLID
100
AcDbCircle
 10
9.925838255141595
 20
18.21711935436469
 30
0.0
 40
0.0825196850394288
100
AcDbArc
 50
221.0637497422375
 51
270.0000000000008
  0
ARC
  5
593C
330
17
100
AcDbEntity
  8
PART
  6
SLD-SOLID
100
AcDbCircle
 10
9.763159831654981
 20
18.07538707090013
 30
0.0
 40
0.1332401574803761
100
AcDbArc
 50
41.06374974224395
 51
138.936250257755
  0
ARC
  5
593D
330
17
100
AcDbEntity
  8
PART
  6
SLD-SOLID
100
AcDbCircle
 10
9.600481408168368
 20
18.21711935436469
 30
0.0
 40
0.0825196850394302
100
AcDbArc
 50
270.0000000000008
 51
318.9362502577649
  0
LINE
  5
593E
330
17
100
AcDbEntity
  8
PART
  6
SLD-SOLID
100
AcDbLine
 10
9.600481408168368
 20
18.13459966932526
 30
0.0
 11
8.663409207975433
 21
18.13459966932533
 31
0.0
  0
ARC
  5
593F
330
17
100
AcDbEntity
  8
PART
  6
SLD-SOLID
100
AcDbCircle
 10
8.663409207975433
 20
18.21759966932533
 30
0.0
 40
0.083000000000002
100
AcDbArc
 50
203.5245286422081
 51
270.0000000000008
  0
ARC
  5
5940
330
17
100
AcDbEntity
  8
PART
  6
SLD-SOLID
100
AcDbCircle
 10
8.449774004883309
 20
18.12459966932648
 30
0.0
 40
0.1500000000000006
100
AcDbArc
 50
23.52452864218002
 51
156.4754713578111
  0
ARC
  5
5941
330
17
100
AcDbEntity
  8
PART
  6
SLD-SOLID
100
AcDbCircle
 10
8.236138801791184
 20
18.21759966932533
 30
0.0
 40
0.0830000000000002
100
AcDbArc
 50
270.0000000000008
 51
336.4754713578104
  0
LINE
  5
5942
330
17
100
AcDbEntity
  8
PART
  6
SLD-SOLID
100
AcDbLine
 10
8.236138801791184
 20
18.13459966932533
 30
0.0
 11
7.48208556116621
 21
18.13459966932533
 31
0.0
  0
ARC
  5
5943
330
17
100
AcDbEntity
  8
PART
  6
SLD-SOLID
100
AcDbCircle
 10
7.315128335591934
 20
18.13837919688411
 30
0.0
 40
0.1670000000000838
100
AcDbArc
 50
358.7031768366733
 51
266.161020566861
  0
LINE
  5
5944
330
17
100
AcDbEntity
  8
PART
  6
SLD-SOLID
100
AcDbLine
 10
7.303947233229729
 20
17.97175391984009
 30
0.0
 11
7.303947233229727
 21
14.85377289767173
 31
0.0
  0
ARC
  5
5945
330
17
100
AcDbEntity
  8
PART
  6
SLD-SOLID
100
AcDbCircle
 10
7.442057469450201
 20
14.85377289767173
 30
0.0
 40
0.1381102362204807
100
AcDbArc
 50
180.0
 51
270.0000000000008
  0
LINE
  5
5946
330
17
100
AcDbEntity
  8
PART
  6
SLD-SOLID
100
AcDbLine
 10
7.442057469450201
 20
14.71566266145126
 30
0.0
 11
15.37717557968657
 21
14.71566266145126
 31
0.0
  0
ARC
  5
5947
330
17
100
AcDbEntity
  8
PART
  6
SLD-SOLID
100
AcDbCircle
 10
15.37717557968657
 20
14.85377289767173
 30
0.0
 40
0.1381102362204807
100
AcDbArc
 50
270.0000000000008
 51
0.0
  0
LINE
  5
5948
330
17
100
AcDbEntity
  8
PART
  6
SLD-SOLID
100
AcDbLine
 10
15.51528581590704
 20
14.85377289767173
 30
0.0
 11
15.51528581590704
 21
17.97175391984009
 31
0.0
  0
ARC
  5
5949
330
17
100
AcDbEntity
  8
PART
  6
SLD-SOLID
100
AcDbCircle
 10
15.50410471354484
 20
18.13837919688411
 30
0.0
 40
0.1670000000000848
100
AcDbArc
 50
273.83897943314
 51
181.2968231633282
  0
LINE
  5
594A
330
17
100
AcDbEntity
  8
PART
  6
SLD-SOLID
100
AcDbLine
 10
15.33714748797056
 20
18.13459966932533
 30
0.0
 11
15.16205872758263
 21
18.1345996693253
 31
0.0
  0
ARC
  5
594B
330
17
100
AcDbEntity
  8
PART
  6
SLD-SOLID
100
AcDbCircle
 10
15.16205872758263
 20
18.21711935436469
 30
0.0
 40
0.0825196850394583
100
AcDbArc
 50
221.0637497422196
 51
270.0000000000008
  0
ARC
  5
594C
330
17
100
AcDbEntity
  8
PART
  6
SLD-SOLID
100
AcDbCircle
 10
14.99938030409598
 20
18.07538707090013
 30
0.0
 40
0.1332401574803758
100
AcDbArc
 50
41.06374974224448
 51
138.936250257762
  0
ARC
  5
594D
330
17
100
AcDbEntity
  8
PART
  6
SLD-SOLID
100
AcDbCircle
 10
14.83670188060936
 20
18.21711935436469
 30
0.0
 40
0.0825196850394305
100
AcDbArc
 50
270.0000000000008
 51
318.9362502577552
  0
LINE
  5
594E
330
17
100
AcDbEntity
  8
PART
  6
SLD-SOLID
100
AcDbLine
 10
14.83670188060936
 20
18.13459966932526
 30
0.0
 11
11.80636259815855
 21
18.13459966932533
 31
0.0
  0
LINE
  5
594F
330
17
100
AcDbEntity
  8
PART
  6
SLD-SOLID
100
AcDbLine
 10
11.80636259815855
 20
18.3745996693266
 30
0.0
 11
11.80636259815855
 21
18.13459966932533
 31
0.0
  0
LINE
  5
5950
330
17
100
AcDbEntity
  8
PART
  6
SLD-SOLID
100
AcDbLine
 10
11.80636259815855
 20
18.3745996693266
 30
0.0
 11
15.75528581590688
 21
18.3745996693266
 31
0.0
  0
LINE
  5
5951
330
17
100
AcDbEntity
  8
PART
  6
SLD-SOLID
100
AcDbLine
 10
7.063947233229899
 20
18.3745996693266
 30
0.0
 11
11.01287045097826
 21
18.3745996693266
 31
0.0
  0
SPLINE
  5
5952
330
17
100
AcDbEntity
  8
PART
  6
SLD-SOLID
100
AcDbSpline
210
0.0
220
0.0
230
1.0
 70
     8
 71
     3
 72
    68
 73
    64
 74
     0
 42
0.0000000001
 43
0.0000000001
 40
0.0
 40
0.0
 40
0.0
 40
0.0
 40
0.0216293660310079
 40
0.0429036354412145
 40
0.0638228082308314
 40
0.0843868844000809
 40
0.1045958639491973
 40
0.1244497468784269
 40
0.1428438826955988
 40
0.1609223448650226
 40
0.1786851333869402
 40
0.1961322482616072
 40
0.2132636894892931
 40
0.2320108404216934
 40
0.250364783388184
 40
0.2683255183892123
 40
0.2858930454252553
 40
0.3030673644968233
 40
0.3198484756044621
 40
0.336236378748757
 40
0.352231073930336
 40
0.3678325611498756
 40
0.3830408404081037
 40
0.3978559117058069
 40
0.4122777750438356
 40
0.4263064304231118
 40
0.4399418778446376
 40
0.4531841173095041
 40
0.4660331488189025
 40
0.475852969016554
 40
0.4854300434880861
 40
0.4947643722342399
 40
0.503883768330161
 40
0.5131456887192027
 40
0.5226524756718462
 40
0.5324041291887171
 40
0.5424006492703949
 40
0.5540991515438538
 40
0.5661160854553954
 40
0.5784514510057007
 40
0.5911052481953993
 40
0.6040774770250749
 40
0.6171280119032879
 40
0.6304857074046084
 40
0.6441505635294814
 40
0.6581225802783223
 40
0.6751564264283383
 40
0.6926255909241421
 40
0.7105300737663002
 40
0.7288698749553388
 40
0.747644994491747
 40
0.7668554323759813
 40
0.7865011886084679
 40
0.8065822631896045
 40
0.8270986561197643
 40
0.848050367399297
 40
0.8694373970285308
 40
0.8912597450077743
 40
0.9122338177465977
 40
0.93359487961502
 40
0.9553429306132589
 40
0.9774779707415202
 40
1.0
 40
1.0
 40
1.0
 40
1.0
 10
15.75528581590688
 20
18.3745996693266
 30
0.0
 10
15.75970798513798
 20
18.34108103806406
 30
0.0
 10
15.76847972335158
 20
18.27459406225004
 30
0.0
 10
15.78152881568496
 20
18.17568907944044
 30
0.0
 10
15.79436039189783
 20
18.07843499431574
 30
0.0
 10
15.80697447831629
 20
17.98283181034915
 30
0.0
 10
15.81937106805764
 20
17.88887952663262
 30
0.0
 10
15.83132428529659
 20
17.79828999608781
 30
0.0
 10
15.84284216931984
 20
17.71100212291214
 30
0.0
 10
15.85393275940043
 20
17.62695481130114
 30
0.0
 10
15.86483000062493
 20
17.54437511648565
 30
0.0
 10
15.87553389299445
 20
17.46326303846584
 30
0.0
 10
15.88643941959738
 20
17.38062556214929
 30
0.0
 10
15.89753076820074
 20
17.29658284630209
 30
0.0
 10
15.90879213153903
 20
17.21125505034636
 30
0.0
 10
15.91981265648745
 20
17.12775534051248
 30
0.0
 10
15.93059234303077
 20
17.04608371679845
 30
0.0
 10
15.94113119115465
 20
16.96624017920234
 30
0.0
 10
15.95142920084281
 20
16.88822472772201
 30
0.0
 10
15.96148637207751
 20
16.81203736235511
 30
0.0
 10
15.97130270483924
 20
16.73767808309903
 30
0.0
 10
15.98087819910649
 20
16.66514688995092
 30
0.0
 10
15.99021285485553
 20
16.59444378290763
 30
0.0
 10
15.99930667205997
 20
16.52556876196565
 30
0.0
 10
16.00815965069093
 20
16.45852182712116
 30
0.0
 10
16.01677179071472
 20
16.39330297836965
 30
0.0
 10
16.02514309209916
 20
16.32991221570686
 30
0.0
 10
16.03327355478878
 20
16.26834953912543
 30
0.0
 10
16.04062365497924
 20
16.21269983707345
 30
0.0
 10
16.04722405199089
 20
16.16272992739533
 30
0.0
 10
16.05310540898488
 20
16.11820662844015
 30
0.0
 10
16.05884377627734
 20
16.07476879206571
 30
0.0
 10
16.06451804376483
 20
16.03181938833107
 30
0.0
 10
16.07022800416781
 20
15.98860278654733
 30
0.0
 10
16.07606778266566
 20
15.94440645993318
 30
0.0
 10
16.08205833487129
 20
15.8990718147147
 30
0.0
 10
16.08849805161652
 20
15.85034084901254
 30
0.0
 10
16.0954020578089
 20
15.7980995715329
 30
0.0
 10
16.1027854769318
 20
15.74223399079468
 30
0.0
 10
16.1103649661911
 20
15.68488810722535
 30
0.0
 10
16.11814052560063
 20
15.62606192082674
 30
0.0
 10
16.12606296825171
 20
15.56612753757269
 30
0.0
 10
16.1341299771184
 20
15.50510242228202
 30
0.0
 10
16.14233923580788
 20
15.44300403985708
 30
0.0
 10
16.15073762473267
 20
15.37947775053464
 30
0.0
 10
16.15988950460808
 20
15.31025484829308
 30
0.0
 10
16.16982121442512
 20
15.23513674755488
 30
0.0
 10
16.18055909341658
 20
15.15392486277548
 30
0.0
 10
16.1915650141168
 20
15.07068930041918
 30
0.0
 10
16.20283897653967
 20
14.98543006048782
 30
0.0
 10
16.21438098070439
 20
14.89814714298393
 30
0.0
 10
16.22619102662656
 20
14.80884054790955
 30
0.0
 10
16.2382691143211
 20
14.71751027526666
 30
0.0
 10
16.25061524380079
 20
14.62415632505693
 30
0.0
 10
16.26322941508024
 20
14.52877869728227
 30
0.0
 10
16.27611162816175
 20
14.43137739194301
 30
0.0
 10
16.28926188309018
 20
14.33195240904506
 30
0.0
 10
16.30241709104083
 20
14.23249282341859
 30
0.0
 10
16.31556732198541
 20
14.13307352349035
 30
0.0
 10
16.32870264562191
 20
14.03376939765068
 30
0.0
 10
16.34207625833187
 20
13.93266626446747
 30
0.0
 10
16.35568813438713
 20
13.82976412053733
 30
0.0
 10
16.36484229825393
 20
13.76056304199698
 30
0.0
 10
16.36945904425353
 20
13.72566266145238
 30
0.0
  0
LINE
  5
5953
330
17
100
AcDbEntity
  8
PART
  6
SLD-SOLID
100
AcDbLine
 10
6.449774004883272
 20
13.52101560207449
 30
0.0
 11
6.449774004883272
 21
13.72566266145256
 31
0.0
  0
LINE
  5
5954
330
17
100
AcDbEntity
  8
PART
  6
SLD-SOLID
100
AcDbLine
 10
16.3694590442535
 20
13.72566266145256
 30
0.0
 11
16.3694590442535
 21
13.52101560207449
 31
0.0
  0
LINE
  5
5955
330
17
100
AcDbEntity
  8
PART
  6
SLD-SOLID
100
AcDbLine
 10
7.989774004883309
 20
18.13459966932533
 30
0.0
 11
7.989774004883309
 21
16.74959966932656
 31
0.0
  0
ARC
  5
5956
330
17
100
AcDbEntity
  8
PART
  6
SLD-SOLID
100
AcDbCircle
 10
8.449774004883309
 20
16.74959966932649
 30
0.0
 40
0.4600000000000009
100
AcDbArc
 50
179.9999999999922
 51
0.0000000000077351
  0
LINE
  5
5957
330
17
100
AcDbEntity
  8
PART
  6
SLD-SOLID
100
AcDbLine
 10
8.90977400488331
 20
16.74959966932656
 30
0.0
 11
8.90977400488331
 21
18.13459966932533
 31
0.0
  0
LINE
  5
5958
330
17
100
AcDbEntity
  8
PART
  6
SLD-SOLID
100
AcDbLine
 10
15.15677400488342
 20
17.55008867643734
 30
0.0
 11
15.15677400488342
 21
16.20008867643731
 31
0.0
  0
ARC
  5
5959
330
17
100
AcDbEntity
  8
PART
  6
SLD-SOLID
100
AcDbCircle
 10
14.94977400488338
 20
17.55008867643734
 30
0.0
 40
0.2070000000000363
100
AcDbArc
 50
0.0
 51
180.0
  0
LINE
  5
595A
330
17
100
AcDbEntity
  8
PART
  6
SLD-SOLID
100
AcDbLine
 10
14.74277400488338
 20
16.20008867643731
 30
0.0
 11
14.74277400488338
 21
17.55008867643734
 31
0.0
  0
ARC
  5
595B
330
17
100
AcDbEntity
  8
PART
  6
SLD-SOLID
100
AcDbCircle
 10
14.94977400488338
 20
16.20008867643731
 30
0.0
 40
0.2070000000000363
100
AcDbArc
 50
180.0
 51
0.0
  0
ARC
  5
595C
330
17
100
AcDbEntity
  8
PART
  6
SLD-SOLID
100
AcDbCircle
 10
13.94977400488338
 20
16.42508867643732
 30
0.0
 40
0.1820000000000004
100
AcDbArc
 50
180.0
 51
0.0
  0
LINE
  5
595D
330
17
100
AcDbEntity
  8
PART
  6
SLD-SOLID
100
AcDbLine
 10
14.13177400488338
 20
17.32508867643733
 30
0.0
 11
14.13177400488338
 21
16.42508867643732
 31
0.0
  0
ARC
  5
595E
330
17
100
AcDbEntity
  8
PART
  6
SLD-SOLID
100
AcDbCircle
 10
13.94977400488338
 20
17.32508867643733
 30
0.0
 40
0.1820000000000004
100
AcDbArc
 50
0.0
 51
180.0
  0
LINE
  5
595F
330
17
100
AcDbEntity
  8
PART
  6
SLD-SOLID
100
AcDbLine
 10
13.76777400488338
 20
16.42508867643732
 30
0.0
 11
13.76777400488338
 21
17.32508867643733
 31
0.0
  0
ARC
  5
5960
330
17
100
AcDbEntity
  8
PART
  6
SLD-SOLID
100
AcDbCircle
 10
15.50410471354484
 20
18.13837919688411
 30
0.0
 40
0.1670000000000848
100
AcDbArc
 50
181.2968231633282
 51
273.83897943314
  0
ARC
  5
5961
330
17
100
AcDbEntity
  8
PART
  6
SLD-SOLID
100
AcDbCircle
 10
7.315128335591934
 20
18.13837919688411
 30
0.0
 40
0.1670000000000838
100
AcDbArc
 50
266.161020566861
 51
358.7031768366733
  0
LINE
  5
5962
330
17
100
AcDbEntity
  8
PART
  6
SLD-SOLID
100
AcDbLine
 10
11.01287045097826
 20
18.3745996693266
 30
0.0
 11
11.80636259815855
 21
18.3745996693266
 31
0.0
  0
ARC
  5
5963
330
17
100
AcDbEntity
  8
PART
  6
SLD-SOLID
100
AcDbCircle
 10
14.94977400488338
 20
17.55008867643734
 30
0.0
 40
0.2000000000000384
100
AcDbArc
 50
0.0
 51
180.0
  0
LINE
  5
5964
330
17
100
AcDbEntity
  8
PART
  6
SLD-SOLID
100
AcDbLine
 10
14.74977400488338
 20
17.55008867643734
 30
0.0
 11
14.74277400488338
 21
17.55008867643734
 31
0.0
  0
LINE
  5
5965
330
17
100
AcDbEntity
  8
PART
  6
SLD-SOLID
100
AcDbLine
 10
15.14977400488342
 20
17.55008867643734
 30
0.0
 11
15.15677400488342
 21
17.55008867643734
 31
0.0
  0
LINE
  5
5966
330
17
100
AcDbEntity
  8
PART
  6
SLD-SOLID
100
AcDbLine
 10
15.14977400488342
 20
16.20008867643731
 30
0.0
 11
15.14977400488342
 21
17.55008867643734
 31
0.0
  0
LINE
  5
5967
330
17
100
AcDbEntity
  8
PART
  6
SLD-SOLID
100
AcDbLine
 10
15.15677400488342
 20
16.20008867643731
 30
0.0
 11
15.14977400488342
 21
16.20008867643731
 31
0.0
  0
LINE
  5
5968
330
17
100
AcDbEntity
  8
PART
  6
SLD-SOLID
100
AcDbLine
 10
14.74977400488338
 20
17.55008867643734
 30
0.0
 11
14.74977400488338
 21
16.20008867643731
 31
0.0
  0
LINE
  5
5969
330
17
100
AcDbEntity
  8
PART
  6
SLD-SOLID
100
AcDbLine
 10
14.74277400488338
 20
16.20008867643731
 30
0.0
 11
14.74977400488338
 21
16.20008867643731
 31
0.0
  0
ARC
  5
596A
330
17
100
AcDbEntity
  8
PART
  6
SLD-SOLID
100
AcDbCircle
 10
13.94977400488338
 20
17.32508867643733
 30
0.0
 40
0.1750000000000007
100
AcDbArc
 50
0.0
 51
180.0
  0
LINE
  5
596B
330
17
100
AcDbEntity
  8
PART
  6
SLD-SOLID
100
AcDbLine
 10
13.76777400488338
 20
17.32508867643733
 30
0.0
 11
13.77477400488338
 21
17.32508867643733
 31
0.0
  0
LINE
  5
596C
330
17
100
AcDbEntity
  8
PART
  6
SLD-SOLID
100
AcDbLine
 10
14.12477400488338
 20
17.32508867643733
 30
0.0
 11
14.13177400488338
 21
17.32508867643733
 31
0.0
  0
LINE
  5
596D
330
17
100
AcDbEntity
  8
PART
  6
SLD-SOLID
100
AcDbLine
 10
14.12477400488338
 20
16.42508867643732
 30
0.0
 11
14.12477400488338
 21
17.32508867643733
 31
0.0
  0
LINE
  5
596E
330
17
100
AcDbEntity
  8
PART
  6
SLD-SOLID
100
AcDbLine
 10
14.12477400488338
 20
16.42508867643732
 30
0.0
 11
14.13177400488338
 21
16.42508867643732
 31
0.0
  0
LINE
  5
596F
330
17
100
AcDbEntity
  8
PART
  6
SLD-SOLID
100
AcDbLine
 10
13.77477400488338
 20
17.32508867643733
 30
0.0
 11
13.77477400488338
 21
16.42508867643732
 31
0.0
  0
LINE
  5
5970
330
17
100
AcDbEntity
  8
PART
  6
SLD-SOLID
100
AcDbLine
 10
13.76777400488338
 20
16.42508867643732
 30
0.0
 11
13.77477400488338
 21
16.42508867643732
 31
0.0
  0
ARC
  5
5971
330
17
100
AcDbEntity
  8
PART
  6
SLD-SOLID
100
AcDbCircle
 10
13.94977400488338
 20
16.42508867643732
 30
0.0
 40
0.1750000000000007
100
AcDbArc
 50
180.0
 51
0.0
  0
ARC
  5
5972
330
17
100
AcDbEntity
  8
PART
  6
SLD-SOLID
100
AcDbCircle
 10
14.94977400488338
 20
16.20008867643731
 30
0.0
 40
0.2000000000000384
100
AcDbArc
 50
180.0
 51
0.0
  0
CIRCLE
  5
5973
330
17
100
AcDbEntity
  8
PART
  6
SLD-SOLID
100
AcDbCircle
 10
14.46591573521335
 20
14.15603213978208
 30
0.0
 40
0.1359999999996244
  0
CIRCLE
  5
5974
330
17
100
AcDbEntity
  8
PART
  6
SLD-SOLID
100
AcDbCircle
 10
8.353317313923449
 20
14.15603213978208
 30
0.0
 40
0.1359999999996244
  0
LINE
  5
5975
330
17
100
AcDbEntity
  8
PART
  6
SLD-SOLID
100
AcDbLine
 10
8.049774004883312
 20
18.13459966932533
 30
0.0
 11
8.049774004883312
 21
16.74959966932645
 31
0.0
  0
LINE
  5
5976
330
17
100
AcDbEntity
  8
PART
  6
SLD-SOLID
100
AcDbLine
 10
8.849774004883313
 20
16.74959966932645
 30
0.0
 11
8.849774004883313
 21
18.13459966932532
 31
0.0
  0
LINE
  5
5977
330
17
100
AcDbEntity
  8
PART
  6
SLD-SOLID
100
AcDbLine
 10
8.90977400488331
 20
16.74959966932656
 30
0.0
 11
8.899774004883312
 21
16.74959966932656
 31
0.0
  0
LINE
  5
5978
330
17
100
AcDbEntity
  8
PART
  6
SLD-SOLID
100
AcDbLine
 10
7.989774004883309
 20
16.74959966932656
 30
0.0
 11
7.999774004883312
 21
16.74959966932657
 31
0.0
  0
LINE
  5
598F
330
17
100
AcDbEntity
  8
PART
  6
SLD-SOLID
100
AcDbLine
 10
23.04383996590166
 20
18.3745996693266
 30
0.0
 11
22.56383996590165
 21
18.3745996693266
 31
0.0
  0
LINE
  5
5990
330
17
100
AcDbEntity
  8
PART
  6
SLD-SOLID
100
AcDbLine
 10
23.04383996590166
 20
13.72566266145256
 30
0.0
 11
22.56383996590165
 21
13.72566266145256
 31
0.0
  0
SPLINE
  5
5991
330
17
100
AcDbEntity
  8
PART
  6
SLD-SOLID
100
AcDbSpline
210
0.0
220
0.0
230
1.0
 70
    24
 71
     3
 72
    68
 73
    64
 74
     0
 42
0.0000000001
 43
0.0000000001
 40
0.0
 40
0.0
 40
0.0
 40
0.0
 40
0.0216293660310079
 40
0.0429036354412145
 40
0.0638228082308314
 40
0.084386884400081
 40
0.1045958639491974
 40
0.124449746878427
 40
0.1428438826955989
 40
0.1609223448650226
 40
0.1786851333869403
 40
0.1961322482616073
 40
0.2132636894892932
 40
0.2320108404216934
 40
0.2503647833881841
 40
0.2683255183892123
 40
0.2858930454252554
 40
0.3030673644968234
 40
0.3198484756044622
 40
0.336236378748757
 40
0.3522310739303361
 40
0.3678325611498756
 40
0.3830408404081038
 40
0.3978559117058069
 40
0.4122777750438356
 40
0.4263064304231118
 40
0.4399418778446376
 40
0.4531841173095041
 40
0.4660331488189024
 40
0.475852969016554
 40
0.4854300434880861
 40
0.4947643722342399
 40
0.503883768330161
 40
0.5131456887192027
 40
0.5226524756718462
 40
0.532404129188717
 40
0.5424006492703949
 40
0.5540991515438538
 40
0.5661160854553954
 40
0.5784514510057007
 40
0.5911052481953993
 40
0.6040774770250748
 40
0.6171280119032878
 40
0.6304857074046082
 40
0.6441505635294811
 40
0.6581225802783222
 40
0.6751564264283383
 40
0.6926255909241421
 40
0.7105300737663002
 40
0.7288698749553385
 40
0.7476449944917469
 40
0.7668554323759813
 40
0.7865011886084677
 40
0.8065822631896043
 40
0.8270986561197643
 40
0.848050367399297
 40
0.8694373970285306
 40
0.8912597450077742
 40
0.9122338177465977
 40
0.9335948796150198
 40
0.9553429306132589
 40
0.9774779707415202
 40
1.0
 40
1.0
 40
1.0
 40
1.0
 10
22.56383996590165
 20
18.3745996693266
 30
0.0
 10
22.56383996590165
 20
18.34108103806406
 30
0.0
 10
22.56383996590165
 20
18.27459406225004
 30
0.0
 10
22.56383996590165
 20
18.17568907944044
 30
0.0
 10
22.56383996590165
 20
18.07843499431574
 30
0.0
 10
22.56383996590165
 20
17.98283181034914
 30
0.0
 10
22.56383996590165
 20
17.88887952663262
 30
0.0
 10
22.56383996590165
 20
17.79828999608781
 30
0.0
 10
22.56383996590165
 20
17.71100212291214
 30
0.0
 10
22.56383996590165
 20
17.62695481130114
 30
0.0
 10
22.56383996590165
 20
17.54437511648565
 30
0.0
 10
22.56383996590165
 20
17.46326303846584
 30
0.0
 10
22.56383996590165
 20
17.38062556214929
 30
0.0
 10
22.56383996590165
 20
17.29658284630209
 30
0.0
 10
22.56383996590165
 20
17.21125505034636
 30
0.0
 10
22.56383996590165
 20
17.12775534051248
 30
0.0
 10
22.56383996590165
 20
17.04608371679845
 30
0.0
 10
22.56383996590165
 20
16.96624017920234
 30
0.0
 10
22.56383996590165
 20
16.88822472772201
 30
0.0
 10
22.56383996590165
 20
16.8120373623551
 30
0.0
 10
22.56383996590165
 20
16.73767808309902
 30
0.0
 10
22.56383996590165
 20
16.66514688995092
 30
0.0
 10
22.56383996590165
 20
16.59444378290763
 30
0.0
 10
22.56383996590165
 20
16.52556876196565
 30
0.0
 10
22.56383996590165
 20
16.45852182712116
 30
0.0
 10
22.56383996590165
 20
16.39330297836965
 30
0.0
 10
22.56383996590165
 20
16.32991221570686
 30
0.0
 10
22.56383996590165
 20
16.26834953912543
 30
0.0
 10
22.56383996590165
 20
16.21269983707345
 30
0.0
 10
22.56383996590165
 20
16.16272992739533
 30
0.0
 10
22.56383996590165
 20
16.11820662844015
 30
0.0
 10
22.56383996590165
 20
16.07476879206571
 30
0.0
 10
22.56383996590165
 20
16.03181938833107
 30
0.0
 10
22.56383996590165
 20
15.98860278654733
 30
0.0
 10
22.56383996590165
 20
15.94440645993318
 30
0.0
 10
22.56383996590165
 20
15.8990718147147
 30
0.0
 10
22.56383996590165
 20
15.85034084901254
 30
0.0
 10
22.56383996590165
 20
15.7980995715329
 30
0.0
 10
22.56383996590165
 20
15.74223399079468
 30
0.0
 10
22.56383996590165
 20
15.68488810722535
 30
0.0
 10
22.56383996590165
 20
15.62606192082674
 30
0.0
 10
22.56383996590165
 20
15.56612753757269
 30
0.0
 10
22.56383996590165
 20
15.50510242228202
 30
0.0
 10
22.56383996590165
 20
15.44300403985708
 30
0.0
 10
22.56383996590165
 20
15.37947775053464
 30
0.0
 10
22.56383996590165
 20
15.31025484829308
 30
0.0
 10
22.56383996590165
 20
15.23513674755488
 30
0.0
 10
22.56383996590165
 20
15.15392486277548
 30
0.0
 10
22.56383996590165
 20
15.07068930041918
 30
0.0
 10
22.56383996590165
 20
14.98543006048782
 30
0.0
 10
22.56383996590165
 20
14.89814714298393
 30
0.0
 10
22.56383996590165
 20
14.80884054790955
 30
0.0
 10
22.56383996590165
 20
14.71751027526666
 30
0.0
 10
22.56383996590165
 20
14.62415632505693
 30
0.0
 10
22.56383996590165
 20
14.52877869728227
 30
0.0
 10
22.56383996590165
 20
14.43137739194301
 30
0.0
 10
22.56383996590165
 20
14.33195240904506
 30
0.0
 10
22.56383996590165
 20
14.23249282341859
 30
0.0
 10
22.56383996590165
 20
14.13307352349035
 30
0.0
 10
22.56383996590165
 20
14.03376939765068
 30
0.0
 10
22.56383996590165
 20
13.93266626446748
 30
0.0
 10
22.56383996590165
 20
13.82976412053733
 30
0.0
 10
22.56383996590165
 20
13.76056304199698
 30
0.0
 10
22.56383996590165
 20
13.72566266145238
 30
0.0
  0
SPLINE
  5
5992
330
17
100
AcDbEntity
  8
PART
  6
SLD-SOLID
100
AcDbSpline
210
0.0
220
0.0
230
1.0
 70
    24
 71
     3
 72
     9
 73
     5
 74
     0
 42
0.0000000001
 43
0.0000000001
 40
0.0
 40
0.0
 40
0.0
 40
0.0
 40
0.4999999996719485
 40
1.0
 40
1.0
 40
1.0
 40
1.0
 10
23.04383996590166
 20
18.3745996693266
 30
0.0
 10
23.04383996590166
 20
17.59975907034348
 30
0.0
 10
23.04383996590166
 20
16.05007787136051
 30
0.0
 10
23.04383996590166
 20
14.50046773176066
 30
0.0
 10
23.04383996590166
 20
13.72566266145239
 30
0.0
  0
LINE
  5
5993
330
17
100
AcDbEntity
  8
PART
  6
SLD-SOLID
100
AcDbLine
 10
23.04383996590166
 20
13.48608867643727
 30
0.0
 11
22.55143349619531
 21
13.48608867643727
 31
0.0
  0
LINE
  5
5994
330
17
100
AcDbEntity
  8
PART
  6
SLD-SOLID
100
AcDbLine
 10
22.55143349619531
 20
13.48608867643727
 30
0.0
 11
22.55143349619531
 21
13.49308867643727
 31
0.0
  0
LINE
  5
5995
330
17
100
AcDbEntity
  8
PART
  6
SLD-SOLID
100
AcDbLine
 10
22.55143349619531
 20
13.49308867643727
 30
0.0
 11
22.56147183671271
 21
13.51165603322646
 31
0.0
  0
ARC
  5
5996
330
17
100
AcDbEntity
  8
PART
  6
SLD-SOLID
100
AcDbCircle
 10
22.54415996590165
 20
13.52101560207449
 30
0.0
 40
0.019680000000001
100
AcDbArc
 50
331.6023683484293
 51
0.0
  0
LINE
  5
5997
330
17
100
AcDbEntity
  8
PART
  6
SLD-SOLID
100
AcDbLine
 10
22.56383996590165
 20
13.72566266145256
 30
0.0
 11
22.56383996590165
 21
13.52101560207449
 31
0.0
  0
LINE
  5
5998
330
17
100
AcDbEntity
  8
PART
  6
SLD-SOLID
100
AcDbLine
 10
23.04383996590166
 20
13.72566266145256
 30
0.0
 11
23.04383996590166
 21
13.48608867643727
 31
0.0
  0
LINE
  5
5AF7
330
17
100
AcDbEntity
  8
DIM
 62
     0
100
AcDbLine
 10
8.353317313923461
 20
14.15603213978206
 30
0.0
 11
8.353317313923461
 21
14.25603213978206
 31
0.0
  0
LINE
  5
5AF8
330
17
100
AcDbEntity
  8
DIM
 62
     0
100
AcDbLine
 10
8.353317313923461
 20
14.15603213978206
 30
0.0
 11
8.25331731392346
 21
14.15603213978206
 31
0.0
  0
LINE
  5
5AF9
330
17
100
AcDbEntity
  8
DIM
 62
     0
100
AcDbLine
 10
8.353317313923461
 20
14.15603213978206
 30
0.0
 11
8.353317313923461
 21
14.05603213978206
 31
0.0
  0
LINE
  5
5AFA
330
17
100
AcDbEntity
  8
DIM
 62
     0
100
AcDbLine
 10
8.353317313923461
 20
14.15603213978206
 30
0.0
 11
8.453317313923463
 21
14.15603213978206
 31
0.0
  0
LINE
  5
5AFB
330
17
100
AcDbEntity
  8
DIM
 62
     0
100
AcDbLine
 10
8.353317313923461
 20
14.35603213978206
 30
0.0
 11
8.353317313923461
 21
14.39203213978169
 31
0.0
  0
LINE
  5
5AFC
330
17
100
AcDbEntity
  8
DIM
 62
     0
100
AcDbLine
 10
8.153317313923462
 20
14.15603213978206
 30
0.0
 11
8.117317313923836
 21
14.15603213978206
 31
0.0
  0
LINE
  5
5AFD
330
17
100
AcDbEntity
  8
DIM
 62
     0
100
AcDbLine
 10
8.353317313923461
 20
13.95603213978206
 30
0.0
 11
8.353317313923461
 21
13.92003213978243
 31
0.0
  0
LINE
  5
5AFE
330
17
100
AcDbEntity
  8
DIM
 62
     0
100
AcDbLine
 10
8.553317313923461
 20
14.15603213978206
 30
0.0
 11
8.589317313923087
 21
14.15603213978206
 31
0.0
  0
LINE
  5
5AFF
330
17
100
AcDbEntity
  8
DIM
 62
     0
100
AcDbLine
 10
14.46591573521336
 20
14.1560321397821
 30
0.0
 11
14.46591573521336
 21
14.2560321397821
 31
0.0
  0
LINE
  5
5B00
330
17
100
AcDbEntity
  8
DIM
 62
     0
100
AcDbLine
 10
14.46591573521336
 20
14.1560321397821
 30
0.0
 11
14.36591573521336
 21
14.1560321397821
 31
0.0
  0
LINE
  5
5B01
330
17
100
AcDbEntity
  8
DIM
 62
     0
100
AcDbLine
 10
14.46591573521336
 20
14.1560321397821
 30
0.0
 11
14.46591573521336
 21
14.0560321397821
 31
0.0
  0
LINE
  5
5B02
330
17
100
AcDbEntity
  8
DIM
 62
     0
100
AcDbLine
 10
14.46591573521336
 20
14.1560321397821
 30
0.0
 11
14.56591573521336
 21
14.1560321397821
 31
0.0
  0
LINE
  5
5B03
330
17
100
AcDbEntity
  8
DIM
 62
     0
100
AcDbLine
 10
14.46591573521336
 20
14.3560321397821
 30
0.0
 11
14.46591573521336
 21
14.39203213978173
 31
0.0
  0
LINE
  5
5B04
330
17
100
AcDbEntity
  8
DIM
 62
     0
100
AcDbLine
 10
14.26591573521336
 20
14.1560321397821
 30
0.0
 11
14.22991573521374
 21
14.1560321397821
 31
0.0
  0
LINE
  5
5B05
330
17
100
AcDbEntity
  8
DIM
 62
     0
100
AcDbLine
 10
14.46591573521336
 20
13.9560321397821
 30
0.0
 11
14.46591573521336
 21
13.92003213978247
 31
0.0
  0
LINE
  5
5B06
330
17
100
AcDbEntity
  8
DIM
 62
     0
100
AcDbLine
 10
14.66591573521336
 20
14.1560321397821
 30
0.0
 11
14.70191573521299
 21
14.1560321397821
 31
0.0
  0
LINE
  5
5B6F
330
17
100
AcDbEntity
  8
DIM
100
AcDbLine
 10
7.001447233229882
 20
18.37459966932657
 30
0.0
 11
4.984809930256683
 21
18.37459966932657
 31
0.0
  0
LINE
  5
5B70
330
17
100
AcDbEntity
  8
DIM
100
AcDbLine
 10
6.387274004883292
 20
13.48608867643724
 30
0.0
 11
4.984809930256681
 21
13.48608867643724
 31
0.0
  0
LINE
  5
5B71
330
17
100
AcDbEntity
  8
DIM
100
AcDbLine
 10
5.09379197395017
 20
18.24459966932657
 30
0.0
 11
5.093791973950169
 21
16.21047219481786
 31
0.0
  0
LINE
  5
5B72
330
17
100
AcDbEntity
  8
DIM
100
AcDbLine
 10
5.093791973950168
 20
13.61608867643724
 30
0.0
 11
5.093791973950169
 21
15.54552192886456
 31
0.0
  0
SOLID
  5
5B73
330
17
100
AcDbEntity
  8
DIM
100
AcDbTrace
 10
5.072125307283504
 20
18.24459966932657
 30
0.0
 11
5.115458640616837
 21
18.24459966932657
 31
0.0
 12
5.09379197395017
 22
18.37459966932657
 32
0.0
 13
5.09379197395017
 23
18.37459966932657
 33
0.0
  0
SOLID
  5
5B74
330
17
100
AcDbEntity
  8
DIM
100
AcDbTrace
 10
5.072125307283502
 20
13.61608867643724
 30
0.0
 11
5.115458640616835
 21
13.61608867643724
 31
0.0
 12
5.093791973950168
 22
13.48608867643724
 32
0.0
 13
5.093791973950168
 23
13.48608867643724
 33
0.0
  0
MTEXT
  5
5B75
330
17
100
AcDbEntity
  8
DIM
100
AcDbMText
 10
5.093791973950167
 20
15.85754138941477
 30
0.0
 40
0.156
 41
0.0
 71
     2
 72
     1
  1
{\fCentury Gothic|b0|i0|c0|p34;(124.17)}
  7
SLDTEXTSTYLE6
1001
ACAD
1000
MTEXTBEGIN
1070
    73
1070
     1
1070
    44
1040
1.0
1070
    74
1070
     0
1000
MTEXTEND
  0
LINE
  5
5B76
330
17
100
AcDbEntity
  8
DIM
100
AcDbLine
 10
8.054817313923834
 20
14.15603213978206
 30
0.0
 11
5.69415838198158
 21
14.15603213978206
 31
0.0
  0
LINE
  5
5B77
330
17
100
AcDbEntity
  8
DIM
100
AcDbLine
 10
6.387274004883292
 20
13.48608867643724
 30
0.0
 11
5.694158381981579
 21
13.48608867643724
 31
0.0
  0
MTEXT
  5
5B7C
330
17
100
AcDbEntity
  8
DIM
100
AcDbMText
 10
5.803140425675064
 20
14.03850189000151
 30
0.0
 40
0.156
 41
0.0
 71
     2
 72
     1
  1
{\fCentury Gothic|b0|i0|c0|p34;.670}
  7
SLDTEXTSTYLE6
1001
ACAD
1000
MTEXTBEGIN
1070
    73
1070
     1
1070
    44
1040
1.0
1070
    74
1070
     0
1000
MTEXTEND
  0
LINE
  5
5B7D
330
17
100
AcDbEntity
  8
DIM
100
AcDbLine
 10
6.44977400488329
 20
13.42358867643724
 30
0.0
 11
6.44977400488329
 21
12.85616643234276
 31
0.0
  0
LINE
  5
5B7E
330
17
100
AcDbEntity
  8
DIM
100
AcDbLine
 10
8.353317313923461
 20
13.85753213978243
 30
0.0
 11
8.353317313923461
 21
12.85616643234276
 31
0.0
  0
LINE
  5
5B7F
330
17
100
AcDbEntity
  8
DIM
100
AcDbLine
 10
6.57977400488329
 20
12.85616643234276
 30
0.0
 11
6.960360017977436
 21
12.85616643234276
 31
0.0
  0
LINE
  5
5B80
330
17
100
AcDbEntity
  8
DIM
100
AcDbLine
 10
8.223317313923461
 20
12.85616643234276
 30
0.0
 11
7.812531398190329
 21
12.85616643234276
 31
0.0
  0
SOLID
  5
5B81
330
17
100
AcDbEntity
  8
DIM
100
AcDbTrace
 10
6.57977400488329
 20
12.87783309900942
 30
0.0
 11
6.57977400488329
 21
12.83449976567609
 31
0.0
 12
6.44977400488329
 22
12.85616643234276
 32
0.0
 13
6.44977400488329
 23
12.85616643234276
 33
0.0
  0
SOLID
  5
5B82
330
17
100
AcDbEntity
  8
DIM
100
AcDbTrace
 10
8.223317313923461
 20
12.87783309900942
 30
0.0
 11
8.223317313923461
 21
12.83449976567609
 31
0.0
 12
8.353317313923461
 22
12.85616643234276
 32
0.0
 13
8.353317313923461
 23
12.85616643234276
 33
0.0
  0
MTEXT
  5
5B83
330
17
100
AcDbEntity
  8
DIM
100
AcDbMText
 10
7.386445708083883
 20
13.058816409807
 30
0.0
 40
0.156
 41
0.0
 71
     2
 72
     1
  1
{\fCentury Gothic|b0|i0|c0|p34;1.904}
  7
SLDTEXTSTYLE6
1001
ACAD
1000
MTEXTBEGIN
1070
    73
1070
     1
1070
    44
1040
1.0
1070
    74
1070
     0
1000
MTEXTEND
  0
LINE
  5
5B84
330
17
100
AcDbEntity
  8
DIM
100
AcDbLine
 10
6.44977400488329
 20
13.42358867643724
 30
0.0
 11
6.44977400488329
 21
12.14750501501991
 31
0.0
  0
LINE
  5
5B85
330
17
100
AcDbEntity
  8
DIM
100
AcDbLine
 10
14.46591573521336
 20
13.85753213978247
 30
0.0
 11
14.46591573521336
 21
12.29528546393027
 31
0.0
  0
LINE
  5
5B86
330
17
100
AcDbEntity
  8
DIM
100
AcDbLine
 10
6.57977400488329
 20
12.48739998442629
 30
0.0
 11
9.590303927839322
 21
12.48739998442629
 31
0.0
  0
LINE
  5
5B87
330
17
100
AcDbEntity
  8
DIM
100
AcDbLine
 10
14.33591573521336
 20
12.48739998442629
 30
0.0
 11
10.41869256156837
 21
12.48739998442629
 31
0.0
  0
SOLID
  5
5B88
330
17
100
AcDbEntity
  8
DIM
100
AcDbTrace
 10
6.57977400488329
 20
12.50906665109296
 30
0.0
 11
6.57977400488329
 21
12.46573331775963
 31
0.0
 12
6.44977400488329
 22
12.48739998442629
 32
0.0
 13
6.44977400488329
 23
12.48739998442629
 33
0.0
  0
SOLID
  5
5B89
330
17
100
AcDbEntity
  8
DIM
100
AcDbTrace
 10
14.33591573521336
 20
12.50906665109296
 30
0.0
 11
14.33591573521336
 21
12.46573331775963
 31
0.0
 12
14.46591573521336
 22
12.48739998442629
 32
0.0
 13
14.46591573521336
 23
12.48739998442629
 33
0.0
  0
MTEXT
  5
5B8A
330
17
100
AcDbEntity
  8
DIM
100
AcDbMText
 10
9.990391643268065
 20
12.69004996189053
 30
0.0
 40
0.156
 41
0.0
 71
     2
 72
     1
  1
{\fCentury Gothic|b0|i0|c0|p34;8.016}
  7
SLDTEXTSTYLE6
1001
ACAD
1000
MTEXTBEGIN
1070
    73
1070
     1
1070
    44
1040
1.0
1070
    74
1070
     0
1000
MTEXTEND
  0
LINE
  5
5B8B
330
17
100
AcDbEntity
  8
DIM
100
AcDbLine
 10
6.44977400488329
 20
13.42358867643724
 30
0.0
 11
6.44977400488329
 21
11.86740681542056
 31
0.0
  0
LINE
  5
5B8C
330
17
100
AcDbEntity
  8
DIM
100
AcDbLine
 10
16.36945904425351
 20
13.4235886764373
 30
0.0
 11
16.36945904425351
 21
11.86740681542056
 31
0.0
  0
LINE
  5
5B8D
330
17
100
AcDbEntity
  8
DIM
100
AcDbLine
 10
6.57977400488329
 20
11.95607506373763
 30
0.0
 11
11.02653939205976
 21
11.95607506373763
 31
0.0
  0
LINE
  5
5B8E
330
17
100
AcDbEntity
  8
DIM
100
AcDbLine
 10
16.23945904425351
 20
11.95607506373763
 30
0.0
 11
11.92951282566904
 21
11.95607506373763
 31
0.0
  0
SOLID
  5
5B8F
330
17
100
AcDbEntity
  8
DIM
100
AcDbTrace
 10
6.57977400488329
 20
11.97774173040429
 30
0.0
 11
6.57977400488329
 21
11.93440839707096
 31
0.0
 12
6.44977400488329
 22
11.95607506373763
 32
0.0
 13
6.44977400488329
 23
11.95607506373763
 33
0.0
  0
SOLID
  5
5B90
330
17
100
AcDbEntity
  8
DIM
100
AcDbTrace
 10
16.23945904425351
 20
11.97774173040429
 30
0.0
 11
16.23945904425351
 21
11.93440839707096
 31
0.0
 12
16.36945904425351
 22
11.95607506373763
 32
0.0
 13
16.36945904425351
 23
11.95607506373763
 33
0.0
  0
MTEXT
  5
5B91
330
17
100
AcDbEntity
  8
DIM
100
AcDbMText
 10
11.49565941134662
 20
12.15872504120186
 30
0.0
 40
0.156
 41
0.0
 71
     2
 72
     1
  1
{\fCentury Gothic|b0|i0|c0|p34;9.920}
  7
SLDTEXTSTYLE6
1001
ACAD
1000
MTEXTBEGIN
1070
    73
1070
     1
1070
    44
1040
1.0
1070
    74
1070
     0
1000
MTEXTEND
  0
LINE
  5
5B92
330
17
100
AcDbEntity
  8
DIM
100
AcDbLine
 10
6.387274004883292
 20
9.691000726790385
 30
0.0
 11
5.422437436053885
 21
9.691000726790385
 31
0.0
  0
LINE
  5
5B93
330
17
100
AcDbEntity
  8
DIM
100
AcDbLine
 10
6.387274004883292
 20
9.198594257084046
 30
0.0
 11
5.422437436053885
 21
9.198594257084046
 31
0.0
  0
LINE
  5
5B94
330
17
100
AcDbEntity
  8
DIM
100
AcDbLine
 10
5.489515110185638
 20
9.821000726790385
 30
0.0
 11
5.489515110185638
 21
9.951000726790384
 31
0.0
  0
LINE
  5
5B95
330
17
100
AcDbEntity
  8
DIM
100
AcDbLine
 10
5.489515110185638
 20
9.068594257084045
 30
0.0
 11
5.489515110185638
 21
8.938594257084046
 31
0.0
  0
SOLID
  5
5B96
330
17
100
AcDbEntity
  8
DIM
100
AcDbTrace
 10
5.467848443518971
 20
9.821000726790385
 30
0.0
 11
5.511181776852304
 21
9.821000726790385
 31
0.0
 12
5.489515110185638
 22
9.691000726790385
 32
0.0
 13
5.489515110185638
 23
9.691000726790385
 33
0.0
  0
SOLID
  5
5B97
330
17
100
AcDbEntity
  8
DIM
100
AcDbTrace
 10
5.467848443518971
 20
9.068594257084045
 30
0.0
 11
5.511181776852304
 21
9.068594257084045
 31
0.0
 12
5.489515110185638
 22
9.198594257084046
 32
0.0
 13
5.489515110185638
 23
9.198594257084046
 33
0.0
  0
MTEXT
  5
5B98
330
17
100
AcDbEntity
  8
DIM
100
AcDbMText
 10
5.489515110185637
 20
9.66516624940829
 30
0.0
 40
0.156
 41
0.0
 71
     2
 72
     1
  1
{\fCentury Gothic|b0|i0|c0|p34;.492}
  7
SLDTEXTSTYLE6
1001
ACAD
1000
MTEXTBEGIN
1070
    73
1070
     1
1070
    44
1040
1.0
1070
    74
1070
     0
1000
MTEXTEND
  0
LINE
  5
5B99
330
17
100
AcDbEntity
  8
DIM
100
AcDbLine
 10
5.803140425675067
 20
14.28603213978206
 30
0.0
 11
5.803140425675067
 21
14.41073681544709
 31
0.0
  0
SOLID
  5
5B9A
330
17
100
AcDbEntity
  8
DIM
100
AcDbTrace
 10
5.781473759008401
 20
14.28603213978206
 30
0.0
 11
5.824807092341734
 21
14.28603213978206
 31
0.0
 12
5.803140425675067
 22
14.15603213978206
 32
0.0
 13
5.803140425675067
 23
14.15603213978206
 33
0.0
  0
LINE
  5
5B9B
330
17
100
AcDbEntity
  8
DIM
100
AcDbLine
 10
5.803140425675066
 20
13.35608867643724
 30
0.0
 11
5.803140425675066
 21
13.24370861519556
 31
0.0
  0
SOLID
  5
5B9C
330
17
100
AcDbEntity
  8
DIM
100
AcDbTrace
 10
5.7814737590084
 20
13.35608867643724
 30
0.0
 11
5.824807092341733
 21
13.35608867643724
 31
0.0
 12
5.803140425675066
 22
13.48608867643724
 32
0.0
 13
5.803140425675066
 23
13.48608867643724
 33
0.0
  0
MTEXT
  5
5B9E
330
17
100
AcDbEntity
  8
DIM
100
AcDbMText
 10
5.803140425675064
 20
13.79823082958533
 30
0.0
 40
0.156
 41
0.0
 71
     2
 72
     1
  1
{\fCentury Gothic|b0|i0|c0|p34;(17.02)}
  7
SLDTEXTSTYLE6
1001
ACAD
1000
MTEXTBEGIN
1070
    73
1070
     1
1070
    44
1040
1.0
1070
    74
1070
     0
1000
MTEXTEND
  0
MTEXT
  5
5B9F
330
17
100
AcDbEntity
  8
DIM
100
AcDbMText
 10
5.093791973950167
 20
16.10058461734039
 30
0.0
 40
0.156
 41
0.0
 71
     2
 72
     1
  1
{\fCentury Gothic|b0|i0|c0|p34;4.889}
  7
SLDTEXTSTYLE6
1001
ACAD
1000
MTEXTBEGIN
1070
    73
1070
     1
1070
    44
1040
1.0
1070
    74
1070
     0
1000
MTEXTEND
  0
MTEXT
  5
5BA0
330
17
100
AcDbEntity
  8
DIM
100
AcDbMText
 10
7.386445708083883
 20
12.84931425325802
 30
0.0
 40
0.156
 41
0.0
 71
     2
 72
     1
  1
{\fCentury Gothic|b0|i0|c0|p34;(48.35)}
  7
SLDTEXTSTYLE6
1001
ACAD
1000
MTEXTBEGIN
1070
    73
1070
     1
1070
    44
1040
1.0
1070
    74
1070
     0
1000
MTEXTEND
  0
MTEXT
  5
5BA1
330
17
100
AcDbEntity
  8
DIM
100
AcDbMText
 10
9.990391643268065
 20
12.48054780534155
 30
0.0
 40
0.156
 41
0.0
 71
     2
 72
     1
  1
{\fCentury Gothic|b0|i0|c0|p34;(203.61}
  7
SLDTEXTSTYLE6
1001
ACAD
1000
MTEXTBEGIN
1070
    73
1070
     1
1070
    44
1040
1.0
1070
    74
1070
     0
1000
MTEXTEND
  0
MTEXT
  5
5BA2
330
17
100
AcDbEntity
  8
DIM
100
AcDbMText
 10
11.49565941134662
 20
11.94922288465289
 30
0.0
 40
0.156
 41
0.0
 71
     2
 72
     1
  1
{\fCentury Gothic|b0|i0|c0|p34;(251.96)}
  7
SLDTEXTSTYLE6
1001
ACAD
1000
MTEXTBEGIN
1070
    73
1070
     1
1070
    44
1040
1.0
1070
    74
1070
     0
1000
MTEXTEND
  0
MTEXT
  5
5BA3
330
17
100
AcDbEntity
  8
DIM
100
AcDbMText
 10
5.489515110185637
 20
9.438449316407574
 30
0.0
 40
0.156
 41
0.0
 71
     2
 72
     1
  1
{\fCentury Gothic|b0|i0|c0|p34;(12.51)}
  7
SLDTEXTSTYLE6
1001
ACAD
1000
MTEXTBEGIN
1070
    73
1070
     1
1070
    44
1040
1.0
1070
    74
1070
     0
1000
MTEXTEND
  0
ENDSEC
  0
SECTION
  2
OBJECTS
  0
DICTIONARY
  5
C
330
0
100
AcDbDictionary
  3
ACAD_GROUP
350
D
  3
ACAD_LAYOUT
350
4021
  3
ACAD_MLINESTYLE
350
1A
  3
ACAD_PLOTSETTINGS
350
4022
  3
ACAD_PLOTSTYLENAME
350
401F
  3
ACDBHEADERROUNDTRIPXREC
350
5BB0
  3
ACDBVARIABLEDICTIONARY
350
2B
  0
DICTIONARY
  5
404E
330
17
100
AcDbDictionary
280
     1
  3
ACAD_LAYOUTSELFREF
360
5BD1
  0
DICTIONARY
  5
404C
330
14
100
AcDbDictionary
280
     1
  3
ACAD_LAYOUTSELFREF
360
5BD0
  0
DICTIONARY
  5
D
102
{ACAD_REACTORS
330
C
102
}
330
C
100
AcDbDictionary
  0
DICTIONARY
  5
4021
102
{ACAD_REACTORS
330
C
102
}
330
C
100
AcDbDictionary
  0
DICTIONARY
  5
1A
102
{ACAD_REACTORS
330
C
102
}
330
C
100
AcDbDictionary
  3
STANDARD
350
1B
  0
DICTIONARY
  5
4022
102
{ACAD_REACTORS
330
C
102
}
330
C
100
AcDbDictionary
  0
ACDBDICTIONARYWDFLT
  5
401F
102
{ACAD_REACTORS
330
C
102
}
330
C
100
AcDbDictionary
281
     1
  3
Normal
350
4020
100
AcDbDictionaryWithDefault
340
4020
  0
DICTIONARY
  5
5BB0
102
{ACAD_REACTORS
330
C
102
}
330
C
100
AcDbDictionary
  3
CEPSNTYPE
350
5BBA
  3
FINGERPRINTGUID
350
5BBB
  3
HYPERLINKBASE
350
5BB3
  3
INSUNITS
350
5BB9
  3
LAYOUTDICT
350
5BB5
  3
LWETCUNION
350
5BB8
  3
PLOTSETDICT
350
5BB6
  3
PLOTSTYLNAMDICT
350
5BB7
  3
PSVPSCALE
350
5BBD
  3
PUCSBASE
350
5BC0
  3
PUCSORGBACK
350
5BC6
  3
PUCSORGBOTTOM
350
5BC2
  3
PUCSORGFRONT
350
5BC5
  3
PUCSORGLEFT
350
5BC3
  3
PUCSORGRIGHT
350
5BC4
  3
PUCSORGTOP
350
5BC1
  3
PUCSORTHOREF
350
5BBE
  3
PUCSORTHOVIEW
350
5BBF
  3
STYLESHEET
350
5BB4
  3
TSTACKALIGN
350
5BB1
  3
TSTACKSIZE
350
5BB2
  3
UCSBASE
350
5BC9
  3
UCSORGBACK
350
5BCF
  3
UCSORGBOTTOM
350
5BCB
  3
UCSORGFRONT
350
5BCE
  3
UCSORGLEFT
350
5BCC
  3
UCSORGRIGHT
350
5BCD
  3
UCSORGTOP
350
5BCA
  3
UCSORTHOREF
350
5BC7
  3
UCSORTHOVIEW
350
5BC8
  3
VERSIONGUID
350
5BBC
  0
DICTIONARY
  5
2B
102
{ACAD_REACTORS
330
C
102
}
330
C
100
AcDbDictionary
  3
DIMADEC
350
2C
  3
DIMASSOC
350
4052
  3
INDEXCTL
350
230D
  3
SORTENTS
350
230E
  0
XRECORD
  5
5BD1
102
{ACAD_REACTORS
330
404E
102
}
330
404E
100
AcDbXrecord
340
17
  0
XRECORD
  5
5BD0
102
{ACAD_REACTORS
330
404C
102
}
330
404C
100
AcDbXrecord
340
14
  0
MLINESTYLE
  5
1B
102
{ACAD_REACTORS
330
1A
102
}
330
1A
100
AcDbMlineStyle
  2
STANDARD
 70
     0
  3

 62
   256
 51
90.0
 52
90.0
 71
     2
 49
0.5
 62
   256
  6
BYLAYER
 49
-0.5
 62
   256
  6
BYLAYER
  0
ACDBPLACEHOLDER
  5
4020
102
{ACAD_REACTORS
330
401F
102
}
330
401F
100
AcDbPlaceHolder
280
     0
  0
XRECORD
  5
5BBA
102
{ACAD_REACTORS
330
5BB0
102
}
330
5BB0
100
AcDbXrecord
 90
        0
  0
XRECORD
  5
5BBB
102
{ACAD_REACTORS
330
5BB0
102
}
330
5BB0
100
AcDbXrecord
  1
{8269B36E-5346-4F75-9EC1-11DA917C5436}
  0
XRECORD
  5
5BB3
102
{ACAD_REACTORS
330
5BB0
102
}
330
5BB0
100
AcDbXrecord
  1

  0
XRECORD
  5
5BB9
102
{ACAD_REACTORS
330
5BB0
102
}
330
5BB0
100
AcDbXrecord
 90
        0
  0
XRECORD
  5
5BB5
102
{ACAD_REACTORS
330
5BB0
102
}
330
5BB0
100
AcDbXrecord
340
4021
  0
XRECORD
  5
5BB8
102
{ACAD_REACTORS
330
5BB0
102
}
330
5BB0
100
AcDbXrecord
 90
    10781
  0
XRECORD
  5
5BB6
102
{ACAD_REACTORS
330
5BB0
102
}
330
5BB0
100
AcDbXrecord
340
4022
  0
XRECORD
  5
5BB7
102
{ACAD_REACTORS
330
5BB0
102
}
330
5BB0
100
AcDbXrecord
340
401F
  0
XRECORD
  5
5BBD
102
{ACAD_REACTORS
330
5BB0
102
}
330
5BB0
100
AcDbXrecord
 40
0.0
  0
XRECORD
  5
5BC0
102
{ACAD_REACTORS
330
5BB0
102
}
330
5BB0
100
AcDbXrecord
340
0
  0
XRECORD
  5
5BC6
102
{ACAD_REACTORS
330
5BB0
102
}
330
5BB0
100
AcDbXrecord
 10
0.0
 20
0.0
 30
0.0
  0
XRECORD
  5
5BC2
102
{ACAD_REACTORS
330
5BB0
102
}
330
5BB0
100
AcDbXrecord
 10
0.0
 20
0.0
 30
0.0
  0
XRECORD
  5
5BC5
102
{ACAD_REACTORS
330
5BB0
102
}
330
5BB0
100
AcDbXrecord
 10
0.0
 20
0.0
 30
0.0
  0
XRECORD
  5
5BC3
102
{ACAD_REACTORS
330
5BB0
102
}
330
5BB0
100
AcDbXrecord
 10
0.0
 20
0.0
 30
0.0
  0
XRECORD
  5
5BC4
102
{ACAD_REACTORS
330
5BB0
102
}
330
5BB0
100
AcDbXrecord
 10
0.0
 20
0.0
 30
0.0
  0
XRECORD
  5
5BC1
102
{ACAD_REACTORS
330
5BB0
102
}
330
5BB0
100
AcDbXrecord
 10
0.0
 20
0.0
 30
0.0
  0
XRECORD
  5
5BBE
102
{ACAD_REACTORS
330
5BB0
102
}
330
5BB0
100
AcDbXrecord
340
0
  0
XRECORD
  5
5BBF
102
{ACAD_REACTORS
330
5BB0
102
}
330
5BB0
100
AcDbXrecord
 70
     0
  0
XRECORD
  5
5BB4
102
{ACAD_REACTORS
330
5BB0
102
}
330
5BB0
100
AcDbXrecord
  1
monochrome.ctb
  0
XRECORD
  5
5BB1
102
{ACAD_REACTORS
330
5BB0
102
}
330
5BB0
100
AcDbXrecord
 90
        1
  0
XRECORD
  5
5BB2
102
{ACAD_REACTORS
330
5BB0
102
}
330
5BB0
100
AcDbXrecord
 90
       70
  0
XRECORD
  5
5BC9
102
{ACAD_REACTORS
330
5BB0
102
}
330
5BB0
100
AcDbXrecord
340
0
  0
XRECORD
  5
5BCF
102
{ACAD_REACTORS
330
5BB0
102
}
330
5BB0
100
AcDbXrecord
 10
0.0
 20
0.0
 30
0.0
  0
XRECORD
  5
5BCB
102
{ACAD_REACTORS
330
5BB0
102
}
330
5BB0
100
AcDbXrecord
 10
0.0
 20
0.0
 30
0.0
  0
XRECORD
  5
5BCE
102
{ACAD_REACTORS
330
5BB0
102
}
330
5BB0
100
AcDbXrecord
 10
0.0
 20
0.0
 30
0.0
  0
XRECORD
  5
5BCC
102
{ACAD_REACTORS
330
5BB0
102
}
330
5BB0
100
AcDbXrecord
 10
0.0
 20
0.0
 30
0.0
  0
XRECORD
  5
5BCD
102
{ACAD_REACTORS
330
5BB0
102
}
330
5BB0
100
AcDbXrecord
 10
0.0
 20
0.0
 30
0.0
  0
XRECORD
  5
5BCA
102
{ACAD_REACTORS
330
5BB0
102
}
330
5BB0
100
AcDbXrecord
 10
0.0
 20
0.0
 30
0.0
  0
XRECORD
  5
5BC7
102
{ACAD_REACTORS
330
5BB0
102
}
330
5BB0
100
AcDbXrecord
340
0
  0
XRECORD
  5
5BC8
102
{ACAD_REACTORS
330
5BB0
102
}
330
5BB0
100
AcDbXrecord
 70
     0
  0
XRECORD
  5
5BBC
102
{ACAD_REACTORS
330
5BB0
102
}
330
5BB0
100
AcDbXrecord
  1
{22A5E682-4B99-4060-AD5F-F72072E19B53}
  0
DICTIONARYVAR
  5
2C
102
{ACAD_REACTORS
330
2B
102
}
330
2B
100
DictionaryVariables
280
     0
  1
-1
  0
DICTIONARYVAR
  5
4052
102
{ACAD_REACTORS
330
2B
102
}
330
2B
100
DictionaryVariables
280
     0
  1
0
  0
DICTIONARYVAR
  5
230D
102
{ACAD_REACTORS
330
2B
102
}
330
2B
100
DictionaryVariables
280
     0
  1
0
  0
DICTIONARYVAR
  5
230E
102
{ACAD_REACTORS
330
2B
102
}
330
2B
100
DictionaryVariables
280
     0
  1
96
  0
ENDSEC
  0
EOF
