  0
SECTION
  2
HEADER
  9
$ACADVER
  1
AC1014
  9
$ACADMAINTVER
 70
     9
  9
$DWGCODEPAGE
  3
ANSI_1252
  9
$INSBASE
 10
0.0
 20
0.0
 30
0.0
  9
$EXTMIN
 10
-0.0006500604028474
 20
-0.0008221653983469
 30
-0.0000000000000058
  9
$EXTMAX
 10
34.00055903133145
 20
22.00063956962292
 30
0.0000000000000104
  9
$LIMMIN
 10
-0.0011691468586008
 20
-0.001158055241639
  9
$LIMMAX
 10
34.00107780110693
 20
22.00097525454911
  9
$ORTHOMODE
 70
     1
  9
$REGENMODE
 70
     1
  9
$FILLMODE
 70
     1
  9
$QTEXTMODE
 70
     0
  9
$MIRRTEXT
 70
     1
  9
$DRAGMODE
 70
     2
  9
$LTSCALE
 40
0.2
  9
$OSMODE
 70
    37
  9
$ATTMODE
 70
     1
  9
$TEXTSIZE
 40
0.12
  9
$TRACEWID
 40
0.05
  9
$TEXTSTYLE
  7
ARIAL
  9
$CLAYER
  8
DIM
  9
$CELTYPE
  6
BYLAYER
  9
$CECOLOR
 62
   256
  9
$CELTSCALE
 40
1.0
  9
$DELOBJ
 70
     1
  9
$DISPSILH
 70
     0
  9
$DIMSCALE
 40
1.0
  9
$DIMASZ
 40
0.12
  9
$DIMEXO
 40
0.1
  9
$DIMDLI
 40
0.38
  9
$DIMRND
 40
0.0
  9
$DIMDLE
 40
0.0
  9
$DIMEXE
 40
0.1
  9
$DIMTP
 40
0.0
  9
$DIMTM
 40
0.0
  9
$DIMTXT
 40
0.12
  9
$DIMCEN
 40
0.09
  9
$DIMTSZ
 40
0.0
  9
$DIMTOL
 70
     0
  9
$DIMLIM
 70
     0
  9
$DIMTIH
 70
     1
  9
$DIMTOH
 70
     1
  9
$DIMSE1
 70
     0
  9
$DIMSE2
 70
     0
  9
$DIMTAD
 70
     0
  9
$DIMZIN
 70
     0
  9
$DIMBLK
  1

  9
$DIMASO
 70
     0
  9
$DIMSHO
 70
     0
  9
$DIMPOST
  1

  9
$DIMAPOST
  1

  9
$DIMALT
 70
     0
  9
$DIMALTD
 70
     2
  9
$DIMALTF
 40
25.4
  9
$DIMLFAC
 40
1.0
  9
$DIMTOFL
 70
     0
  9
$DIMTVP
 40
0.0
  9
$DIMTIX
 70
     0
  9
$DIMSOXD
 70
     0
  9
$DIMSAH
 70
     0
  9
$DIMBLK1
  1

  9
$DIMBLK2
  1

  9
$DIMSTYLE
  2
STANDARD
  9
$DIMCLRD
 70
   256
  9
$DIMCLRE
 70
   256
  9
$DIMCLRT
 70
   256
  9
$DIMTFAC
 40
1.0
  9
$DIMGAP
 40
0.09
  9
$DIMJUST
 70
     0
  9
$DIMSD1
 70
     0
  9
$DIMSD2
 70
     0
  9
$DIMTOLJ
 70
     1
  9
$DIMTZIN
 70
     0
  9
$DIMALTZ
 70
     0
  9
$DIMALTTZ
 70
     0
  9
$DIMFIT
 70
     3
  9
$DIMUPT
 70
     1
  9
$DIMUNIT
 70
     2
  9
$DIMDEC
 70
     3
  9
$DIMTDEC
 70
     4
  9
$DIMALTU
 70
     2
  9
$DIMALTTD
 70
     2
  9
$DIMTXSTY
  7
ROMANS
  9
$DIMAUNIT
 70
     0
  9
$LUNITS
 70
     2
  9
$LUPREC
 70
     3
  9
$SKETCHINC
 40
0.1
  9
$FILLETRAD
 40
0.0
  9
$AUNITS
 70
     0
  9
$AUPREC
 70
     1
  9
$MENU
  1
ACAD
  9
$ELEVATION
 40
0.0
  9
$PELEVATION
 40
0.0
  9
$THICKNESS
 40
0.0
  9
$LIMCHECK
 70
     0
  9
$BLIPMODE
 70
     0
  9
$CHAMFERA
 40
0.0
  9
$CHAMFERB
 40
0.0
  9
$CHAMFERC
 40
1.0
  9
$CHAMFERD
 40
0.0
  9
$SKPOLY
 70
     0
  9
$TDCREATE
 40
2456457.489174421
  9
$TDUPDATE
 40
2456507.491673808
  9
$TDINDWG
 40
0.1090017245
  9
$TDUSRTIMER
 40
0.1090016088
  9
$USRTIMER
 70
     1
  9
$ANGBASE
 50
0.0
  9
$ANGDIR
 70
     0
  9
$PDMODE
 70
     2
  9
$PDSIZE
 40
0.085
  9
$PLINEWID
 40
0.0
  9
$COORDS
 70
     1
  9
$SPLFRAME
 70
     0
  9
$SPLINETYPE
 70
     6
  9
$SPLINESEGS
 70
    16
  9
$ATTDIA
 70
     0
  9
$ATTREQ
 70
     1
  9
$HANDLING
 70
 22529
  9
$HANDSEED
  5
1D1E
  9
$SURFTAB1
 70
     6
  9
$SURFTAB2
 70
     6
  9
$SURFTYPE
 70
     6
  9
$SURFU
 70
     6
  9
$SURFV
 70
     6
  9
$UCSNAME
  2

  9
$UCSORG
 10
0.0
 20
0.0
 30
0.0
  9
$UCSXDIR
 10
1.0
 20
0.0
 30
0.0
  9
$UCSYDIR
 10
0.0
 20
1.0
 30
0.0
  9
$PUCSNAME
  2

  9
$PUCSORG
 10
0.0
 20
0.0
 30
0.0
  9
$PUCSXDIR
 10
1.0
 20
0.0
 30
0.0
  9
$PUCSYDIR
 10
0.0
 20
1.0
 30
0.0
  9
$USERI1
 70
     0
  9
$USERI2
 70
     0
  9
$USERI3
 70
     0
  9
$USERI4
 70
     0
  9
$USERI5
 70
     0
  9
$USERR1
 40
0.0
  9
$USERR2
 40
0.0
  9
$USERR3
 40
0.0
  9
$USERR4
 40
0.0
  9
$USERR5
 40
0.0
  9
$WORLDVIEW
 70
     1
  9
$SHADEDGE
 70
     3
  9
$SHADEDIF
 70
    70
  9
$TILEMODE
 70
     1
  9
$MAXACTVP
 70
    48
  9
$PINSBASE
 10
0.0
 20
0.0
 30
0.0
  9
$PLIMCHECK
 70
     0
  9
$PEXTMIN
 10
1.000000000000000E+20
 20
1.000000000000000E+20
 30
1.000000000000000E+20
  9
$PEXTMAX
 10
-1.000000000000000E+20
 20
-1.000000000000000E+20
 30
-1.000000000000000E+20
  9
$PLIMMIN
 10
0.0
 20
0.0
  9
$PLIMMAX
 10
12.0
 20
9.0
  9
$UNITMODE
 70
     0
  9
$VISRETAIN
 70
     0
  9
$PLINEGEN
 70
     0
  9
$PSLTSCALE
 70
     1
  9
$TREEDEPTH
 70
  3020
  9
$PICKSTYLE
 70
     1
  9
$CMLSTYLE
  2
STANDARD
  9
$CMLJUST
 70
     0
  9
$CMLSCALE
 40
1.0
  9
$PROXYGRAPHICS
 70
     1
  9
$MEASUREMENT
 70
     0
  0
ENDSEC
  0
SECTION
  2
CLASSES
  0
CLASS
  1
DICTIONARYVAR
  2
AcDbDictionaryVar
  3
AutoCAD 2000
 90
        0
280
     0
281
     0
  0
CLASS
  1
HATCH
  2
AcDbHatch
  3
AutoCAD 2000
 90
        0
280
     0
281
     1
  0
CLASS
  1
LWPOLYLINE
  2
AcDbPolyline
  3
AutoCAD 2000
 90
        0
280
     0
281
     1
  0
CLASS
  1
ACDBDICTIONARYWDFLT
  2
AcDbDictionaryWithDefault
  3
AutoCAD 2000
 90
        0
280
     0
281
     0
  0
CLASS
  1
ACDBPLACEHOLDER
  2
AcDbPlaceHolder
  3
AutoCAD 2000
 90
        0
280
     0
281
     0
  0
CLASS
  1
LAYOUT
  2
AcDbLayout
  3
AutoCAD 2000
 90
        0
280
     0
281
     0
  0
CLASS
  1
LONG_TRANSACTION
  2
AcDbLongTransaction
  3
AutoCAD 2000
 90
        0
280
     0
281
     0
  0
CLASS
  1
LWPOLYLINE
  2
AcDbPolyline
  3
AutoCAD 2000
 90
        0
280
     0
281
     1
  0
CLASS
  1
HATCH
  2
AcDbHatch
  3
AutoCAD 2000
 90
        0
280
     0
281
     1
  0
CLASS
  1
XRECORD
  2
AcDbXrecord
  3
AutoCAD 2000
 90
        0
280
     0
281
     0
  0
CLASS
  1
LONG_TRANSACTION
  2
AcDbLongTransaction
  3
AutoCAD 2000
 90
        0
280
     0
281
     0
  0
CLASS
  1
LWPOLYLINE
  2
AcDbPolyline
  3
AutoCAD 2000
 90
        0
280
     0
281
     1
  0
CLASS
  1
HATCH
  2
AcDbHatch
  3
AutoCAD 2000
 90
        0
280
     0
281
     1
  0
CLASS
  1
XRECORD
  2
AcDbXrecord
  3
AutoCAD 2000
 90
        0
280
     0
281
     0
  0
ENDSEC
  0
SECTION
  2
TABLES
  0
TABLE
  2
VPORT
  5
1D
330
0
100
AcDbSymbolTable
 70
     2
  0
VPORT
  5
1CFB
330
1D
100
AcDbSymbolTableRecord
100
AcDbViewportTableRecord
  2
*ACTIVE
 70
     0
 10
0.0
 20
0.0
 11
1.0
 21
1.0
 12
14.63084796757156
 22
11.35791867967142
 13
0.0
 23
0.0
 14
0.025
 24
0.025
 15
0.1
 25
0.1
 16
0.0
 26
0.0
 36
1.0
 17
0.0
 27
0.0
 37
0.0
 40
33.27522763508847
 41
1.437415881561238
 42
50.0
 43
0.0
 44
0.0
 50
0.0
 51
0.0
 71
     0
 72
  5000
 73
     1
 74
     0
 75
     0
 76
     0
 77
     0
 78
     0
  0
ENDTAB
  0
TABLE
  2
LTYPE
  5
18
330
0
100
AcDbSymbolTable
 70
     9
  0
LTYPE
  5
19
330
18
100
AcDbSymbolTableRecord
100
AcDbLinetypeTableRecord
  2
BYBLOCK
 70
     0
  3

 72
    65
 73
     0
 40
0.0
  0
LTYPE
  5
1A
330
18
100
AcDbSymbolTableRecord
100
AcDbLinetypeTableRecord
  2
BYLAYER
 70
     0
  3

 72
    65
 73
     0
 40
0.0
  0
LTYPE
  5
A
330
18
100
AcDbSymbolTableRecord
100
AcDbLinetypeTableRecord
  2
CONTINUOUS
 70
     0
  3
Solid line
 72
    65
 73
     0
 40
0.0
  0
LTYPE
  5
3B
330
18
100
AcDbSymbolTableRecord
100
AcDbLinetypeTableRecord
  2
PHANTOM
 70
     0
  3
_____ _ _ _____ _ _ _____ _ _ _____
 72
    65
 73
     6
 40
0.8
 49
0.45
 74
     0
 49
-0.05
 74
     0
 49
0.1
 74
     0
 49
-0.05
 74
     0
 49
0.1
 74
     0
 49
-0.05
 74
     0
  0
LTYPE
  5
2E
330
18
100
AcDbSymbolTableRecord
100
AcDbLinetypeTableRecord
  2
SLD-SOLID
 70
     0
  3
SolidWorks Line Style
 72
    65
 73
     0
 40
0.0
  0
ENDTAB
  0
TABLE
  2
LAYER
  5
14
330
0
100
AcDbSymbolTable
 70
     8
  0
LAYER
  5
6
330
14
100
AcDbSymbolTableRecord
100
AcDbLayerTableRecord
  2
0
 70
     0
 62
     9
  6
CONTINUOUS
  0
LAYER
  5
39
330
14
100
AcDbSymbolTableRecord
100
AcDbLayerTableRecord
  2
FORMAT
 70
     0
 62
     7
  6
CONTINUOUS
  0
LAYER
  5
116
330
14
100
AcDbSymbolTableRecord
100
AcDbLayerTableRecord
  2
TB-TXT
 70
     0
 62
     3
  6
CONTINUOUS
  0
LAYER
  5
2D
330
14
100
AcDbSymbolTableRecord
100
AcDbLayerTableRecord
  2
PART
 70
     0
 62
     4
  6
CONTINUOUS
  0
LAYER
  5
2B
330
14
100
AcDbSymbolTableRecord
100
AcDbLayerTableRecord
  2
DIM
 70
     0
 62
     1
  6
CONTINUOUS
  0
LAYER
  5
36
330
14
100
AcDbSymbolTableRecord
100
AcDbLayerTableRecord
  2
TXT
 70
     0
 62
     3
  6
CONTINUOUS
  0
LAYER
  5
77C
330
14
100
AcDbSymbolTableRecord
100
AcDbLayerTableRecord
  2
DEFPOINTS
 70
     0
 62
     7
  6
CONTINUOUS
  0
ENDTAB
  0
TABLE
  2
STYLE
  5
15
330
0
100
AcDbSymbolTable
 70
    11
  0
STYLE
  5
16
330
15
100
AcDbSymbolTableRecord
100
AcDbTextStyleTableRecord
  2
STANDARD
 70
     0
 40
0.0
 41
1.0
 50
0.0
 71
     0
 42
0.2
  3
txt
  4

  0
STYLE
  5
26
330
15
100
AcDbSymbolTableRecord
100
AcDbTextStyleTableRecord
  2
ROMANS
 70
     0
 40
0.0
 41
1.0
 50
0.0
 71
     0
 42
4.0
  3
ROMANS.SHX
  4

  0
STYLE
  5
27
330
15
100
AcDbSymbolTableRecord
100
AcDbTextStyleTableRecord
  2
ARIAL
 70
     0
 40
0.0
 41
1.0
 50
0.0
 71
     0
 42
0.12
  3
arial.ttf
  4

1001
ACAD
1000
Arial
1071
       34
  0
STYLE
  5
37
330
15
100
AcDbSymbolTableRecord
100
AcDbTextStyleTableRecord
  2
SLDTEXTSTYLE0
 70
     0
 40
0.0
 41
0.913
 50
0.0
 71
     0
 42
0.2
  3
GOTHIC.TTF
  4

1001
ACAD
1000
Century Gothic
1071
      290
  0
STYLE
  5
3B5
330
15
100
AcDbSymbolTableRecord
100
AcDbTextStyleTableRecord
  2
SLDTEXTSTYLE6
 70
     0
 40
0.0
 41
0.913
 50
0.0
 71
     0
 42
0.2
  3
GOTHIC.TTF
  4

1001
ACAD
1000
Century Gothic
1071
      290
  0
ENDTAB
  0
TABLE
  2
VIEW
  5
1B
330
0
100
AcDbSymbolTable
 70
     0
  0
ENDTAB
  0
TABLE
  2
UCS
  5
1C
330
0
100
AcDbSymbolTable
 70
     0
  0
ENDTAB
  0
TABLE
  2
APPID
  5
1F
330
0
100
AcDbSymbolTable
 70
     1
  0
APPID
  5
20
330
1F
100
AcDbSymbolTableRecord
100
AcDbRegAppTableRecord
  2
ACAD
 70
     0
  0
ENDTAB
  0
TABLE
  2
DIMSTYLE
  5
21
330
0
100
AcDbSymbolTable
 70
     6
  0
DIMSTYLE
105
29
330
21
100
AcDbSymbolTableRecord
100
AcDbDimStyleTableRecord
  2
STANDARD
 70
     0
  3

  4

  5

  6

  7

 40
1.0
 41
0.18
 42
0.0625
 43
0.38
 44
0.18
 45
0.0
 46
0.0
 47
0.0
 48
0.0
140
0.18
141
0.09
142
0.0
143
25.4
144
1.0
145
0.0
146
1.0
147
0.09
 71
     0
 72
     0
 73
     1
 74
     1
 75
     0
 76
     0
 77
     0
 78
     0
170
     0
171
     2
172
     0
173
     0
174
     0
175
     0
176
     0
177
     0
178
     0
270
     2
271
     4
272
     4
273
     2
274
     2
340
16
275
     0
280
     0
281
     0
282
     0
283
     1
284
     0
285
     0
286
     0
287
     3
288
     0
  0
ENDTAB
  0
TABLE
  2
BLOCK_RECORD
  5
1
330
0
100
AcDbSymbolTable
 70
    18
  0
BLOCK_RECORD
  5
2
102
{ACAD_XDICTIONARY
360
3
102
}
330
1
100
AcDbSymbolTableRecord
100
AcDbBlockTableRecord
  2
*MODEL_SPACE
  0
BLOCK_RECORD
  5
E
102
{ACAD_XDICTIONARY
360
F
102
}
330
1
100
AcDbSymbolTableRecord
100
AcDbBlockTableRecord
  2
*PAPER_SPACE
  0
BLOCK_RECORD
  5
117
330
1
100
AcDbSymbolTableRecord
100
AcDbBlockTableRecord
  2
TITLE-BLOCK
  0
BLOCK_RECORD
  5
DE1
330
1
100
AcDbSymbolTableRecord
100
AcDbBlockTableRecord
  2
SW_CENTERMARKSYMBOL_0
  0
BLOCK_RECORD
  5
DEC
330
1
100
AcDbSymbolTableRecord
100
AcDbBlockTableRecord
  2
SW_CENTERMARKSYMBOL_1
  0
ENDTAB
  0
ENDSEC
  0
SECTION
  2
BLOCKS
  0
BLOCK
  5
5
330
2
100
AcDbEntity
  8
0
100
AcDbBlockBegin
  2
*MODEL_SPACE
 70
     0
 10
0.0
 20
0.0
 30
0.0
  3
*MODEL_SPACE
  1

  0
ENDBLK
  5
B
330
2
100
AcDbEntity
  8
0
100
AcDbBlockEnd
  0
BLOCK
  5
11
330
E
100
AcDbEntity
 67
     1
  8
0
100
AcDbBlockBegin
  2
*PAPER_SPACE
 70
     0
 10
0.0
 20
0.0
 30
0.0
  3
*PAPER_SPACE
  1

  0
ENDBLK
  5
12
330
E
100
AcDbEntity
 67
     1
  8
0
100
AcDbBlockEnd
  0
BLOCK
  5
121
330
117
100
AcDbEntity
  8
0
100
AcDbBlockBegin
  2
TITLE-BLOCK
 70
     2
 10
0.0
 20
0.0
 30
0.0
  3
TITLE-BLOCK
  1

  0
ATTDEF
  5
118
330
117
100
AcDbEntity
  8
TB-TXT
100
AcDbText
 10
-5.452069740892156
 20
1.724637434505384
 30
0.0
 40
0.15996
  1

  7
ARIAL
100
AcDbAttributeDefinition
  3
TITLE (LINE 1)
  2
LINE1
 70
     0
  0
ATTDEF
  5
119
330
117
100
AcDbEntity
  8
TB-TXT
100
AcDbText
 10
-5.452069740892156
 20
1.465654577362527
 30
0.0
 40
0.15996
  1

  7
ARIAL
100
AcDbAttributeDefinition
  3
TITLE (LINE 2)
  2
LINE2
 70
     0
  0
ATTDEF
  5
11A
330
117
100
AcDbEntity
  8
TB-TXT
100
AcDbText
 10
-5.452069740892156
 20
1.20667172021967
 30
0.0
 40
0.15996
  1

  7
ARIAL
100
AcDbAttributeDefinition
  3
TITLE (LINE 3)
  2
LINE3
 70
     0
  0
ATTDEF
  5
11B
330
117
100
AcDbEntity
  8
TB-TXT
100
AcDbText
 10
-5.452069740892156
 20
0.9476888630768137
 30
0.0
 40
0.15996
  1

  7
ARIAL
100
AcDbAttributeDefinition
  3
TITLE (LINE 4)
  2
LINE4
 70
     0
  0
ATTDEF
  5
11C
330
117
100
AcDbEntity
  8
TB-TXT
100
AcDbText
 10
-2.607663526262058
 20
0.495823930069566
 30
0.0
 40
0.12
  1

  7
ARIAL
100
AcDbAttributeDefinition
  3
DWG NO.
  2
DWG#
 70
     0
  0
ATTDEF
  5
11D
330
117
100
AcDbEntity
  8
TB-TXT
100
AcDbText
 10
-5.506905230490374
 20
0.1136078675417114
 30
0.0
 40
0.12
  1

  7
ARIAL
100
AcDbAttributeDefinition
  3
FILE NO.
  2
FILE#
 70
     0
  0
ATTDEF
  5
11E
330
117
100
AcDbEntity
  8
TB-TXT
100
AcDbText
 10
-0.2425360425092862
 20
0.4881363695403174
 30
0.0
 40
0.12
  1

  7
ARIAL
 72
     4
 11
-0.2425360425092862
 21
0.4881363695403174
 31
0.0
100
AcDbAttributeDefinition
  3
REV
  2
REV
 70
     0
  0
ATTDEF
  5
11F
330
117
100
AcDbEntity
  8
TB-TXT
100
AcDbText
 10
-4.485055143223689
 20
0.495823930069566
 30
0.0
 40
0.12
  1
FULL
  7
ARIAL
100
AcDbAttributeDefinition
  3
SCALE
  2
SCALE
 70
     0
  0
ATTDEF
  5
120
330
117
100
AcDbEntity
  8
TB-TXT
100
AcDbText
 10
-1.004564496465349
 20
0.0916846763858388
 30
0.0
 40
0.12
  1
1 OF 1
  7
ARIAL
100
AcDbAttributeDefinition
  3
SHEET N0.
  2
SHT#
 70
     0
  0
ENDBLK
  5
122
330
117
100
AcDbEntity
  8
0
100
AcDbBlockEnd
  0
BLOCK
  5
DEA
330
DE1
100
AcDbEntity
  8
0
100
AcDbBlockBegin
  2
SW_CENTERMARKSYMBOL_0
 70
     0
 10
0.0
 20
0.0
 30
0.0
  3
SW_CENTERMARKSYMBOL_0
  1

  0
LINE
  5
DE2
330
DE1
100
AcDbEntity
  8
FORMAT
 62
     0
100
AcDbLine
 10
0.0
 20
0.0
 30
0.0
 11
0.0
 21
0.0999999999999995
 31
0.0
  0
LINE
  5
DE3
330
DE1
100
AcDbEntity
  8
FORMAT
 62
     0
100
AcDbLine
 10
0.0
 20
0.0
 30
0.0
 11
-0.1000000000000006
 21
0.0
 31
0.0
  0
LINE
  5
DE4
330
DE1
100
AcDbEntity
  8
FORMAT
 62
     0
100
AcDbLine
 10
0.0
 20
0.0
 30
0.0
 11
0.0
 21
-0.0999999999999995
 31
0.0
  0
LINE
  5
DE5
330
DE1
100
AcDbEntity
  8
FORMAT
 62
     0
100
AcDbLine
 10
0.0
 20
0.0
 30
0.0
 11
0.1000000000000006
 21
0.0
 31
0.0
  0
LINE
  5
DE6
330
DE1
100
AcDbEntity
  8
FORMAT
 62
     0
100
AcDbLine
 10
0.0
 20
0.2000000000000011
 30
0.0
 11
0.0
 21
0.2359999999996267
 31
0.0
  0
LINE
  5
DE7
330
DE1
100
AcDbEntity
  8
FORMAT
 62
     0
100
AcDbLine
 10
-0.2
 20
0.0
 30
0.0
 11
-0.2359999999996256
 21
0.0
 31
0.0
  0
LINE
  5
DE8
330
DE1
100
AcDbEntity
  8
FORMAT
 62
     0
100
AcDbLine
 10
0.0
 20
-0.199999999999999
 30
0.0
 11
0.0
 21
-0.2359999999996267
 31
0.0
  0
LINE
  5
DE9
330
DE1
100
AcDbEntity
  8
FORMAT
 62
     0
100
AcDbLine
 10
0.2
 20
0.0
 30
0.0
 11
0.2359999999996256
 21
0.0
 31
0.0
  0
ENDBLK
  5
DEB
330
DE1
100
AcDbEntity
  8
0
100
AcDbBlockEnd
  0
BLOCK
  5
DF5
330
DEC
100
AcDbEntity
  8
0
100
AcDbBlockBegin
  2
SW_CENTERMARKSYMBOL_1
 70
     0
 10
0.0
 20
0.0
 30
0.0
  3
SW_CENTERMARKSYMBOL_1
  1

  0
LINE
  5
DED
330
DEC
100
AcDbEntity
  8
FORMAT
 62
     0
100
AcDbLine
 10
0.0
 20
0.0
 30
0.0
 11
0.0
 21
0.0999999999999995
 31
0.0
  0
LINE
  5
DEE
330
DEC
100
AcDbEntity
  8
FORMAT
 62
     0
100
AcDbLine
 10
0.0
 20
0.0
 30
0.0
 11
-0.0999999999999995
 21
0.0
 31
0.0
  0
LINE
  5
DEF
330
DEC
100
AcDbEntity
  8
FORMAT
 62
     0
100
AcDbLine
 10
0.0
 20
0.0
 30
0.0
 11
0.0
 21
-0.1000000000000017
 31
0.0
  0
LINE
  5
DF0
330
DEC
100
AcDbEntity
  8
FORMAT
 62
     0
100
AcDbLine
 10
0.0
 20
0.0
 30
0.0
 11
0.1000000000000017
 21
0.0
 31
0.0
  0
LINE
  5
DF1
330
DEC
100
AcDbEntity
  8
FORMAT
 62
     0
100
AcDbLine
 10
0.0
 20
0.199999999999999
 30
0.0
 11
0.0
 21
0.2359999999996245
 31
0.0
  0
LINE
  5
DF2
330
DEC
100
AcDbEntity
  8
FORMAT
 62
     0
100
AcDbLine
 10
-0.199999999999999
 20
0.0
 30
0.0
 11
-0.2359999999996245
 21
0.0
 31
0.0
  0
LINE
  5
DF3
330
DEC
100
AcDbEntity
  8
FORMAT
 62
     0
100
AcDbLine
 10
0.0
 20
-0.2000000000000011
 30
0.0
 11
0.0
 21
-0.2359999999996267
 31
0.0
  0
LINE
  5
DF4
330
DEC
100
AcDbEntity
  8
FORMAT
 62
     0
100
AcDbLine
 10
0.2000000000000011
 20
0.0
 30
0.0
 11
0.2359999999996267
 21
0.0
 31
0.0
  0
ENDBLK
  5
DF6
330
DEC
100
AcDbEntity
  8
0
100
AcDbBlockEnd
  0
ENDSEC
  0
SECTION
  2
ENTITIES
  0
MTEXT
  5
35
330
2
100
AcDbEntity
  8
TXT
100
AcDbMText
 10
12.48775363406185
 20
4.486629342360419
 30
0.0
 40
0.375
 41
0.0
 71
     1
 72
     1
  1
KINSINGTON LOCK OPTION
  7
SLDTEXTSTYLE0
1001
ACAD
1000
MTEXTBEGIN
1070
    73
1070
     1
1070
    44
1040
1.0
1070
    74
1070
     0
1000
MTEXTEND
  0
LWPOLYLINE
  5
38
330
2
100
AcDbEntity
  8
FORMAT
100
AcDbPolyline
 90
        4
 70
     1
 43
0.0290909090909091
 10
0.5
 20
0.5
 10
33.5
 20
0.5
 10
33.5
 20
21.49999999999999
 10
0.5
 20
21.49999999999999
  0
LWPOLYLINE
  5
3A
330
2
100
AcDbEntity
  8
FORMAT
  6
PHANTOM
 48
10.0
100
AcDbPolyline
 90
        2
 70
     0
 43
0.001
 10
34.0
 20
22.0
 10
0.0
 20
22.0
  0
HATCH
  5
3C
330
2
100
AcDbEntity
  8
FORMAT
  6
CONTINUOUS
100
AcDbHatch
 10
0.0
 20
0.0
 30
0.0
210
0.0
220
0.0
230
1.0
  2
ARROW_TOP
 70
     1
 71
     0
 91
        1
 92
        1
 93
        3
 72
     1
 10
17.11349099999999
 20
21.696573
 11
16.88650799999999
 21
21.696573
 72
     1
 10
16.88650799999999
 20
21.696573
 11
16.99999999999999
 21
21.49999999999999
 72
     1
 10
17.0
 20
21.49999999999999
 11
17.113491
 21
21.696573
 97
        0
 75
     0
 76
     1
 98
        1
 10
0.0
 20
0.0
  0
HATCH
  5
3D
330
2
100
AcDbEntity
  8
FORMAT
  6
CONTINUOUS
100
AcDbHatch
 10
0.0
 20
0.0
 30
0.0
210
0.0
220
0.0
230
1.0
  2
ARROW_BOTTOM
 70
     1
 71
     0
 91
        1
 92
        1
 93
        3
 72
     1
 10
17.11349199999999
 20
0.3034269999999992
 11
16.99999999999999
 21
0.5
 72
     1
 10
17.0
 20
0.5
 11
16.886509
 21
0.3034269999999992
 72
     1
 10
16.88650899999998
 20
0.3034269999999992
 11
17.11349199999999
 21
0.3034269999999992
 97
        0
 75
     0
 76
     1
 98
        1
 10
0.0
 20
0.0
  0
LWPOLYLINE
  5
3E
330
2
100
AcDbEntity
  8
FORMAT
  6
PHANTOM
 48
10.0
100
AcDbPolyline
 90
        2
 70
     0
 43
0.001
 10
0.0
 20
0.0
 10
34.0
 20
0.0
  0
LINE
  5
3F
330
2
100
AcDbEntity
  8
FORMAT
  6
CONTINUOUS
100
AcDbLine
 10
16.88650899999998
 20
0.3034269999999992
 30
0.0
 11
17.11349199999999
 21
0.3034269999999992
 31
0.0
  0
LINE
  5
40
330
2
100
AcDbEntity
  8
FORMAT
  6
CONTINUOUS
100
AcDbLine
 10
17.11349099999999
 20
21.696573
 30
0.0
 11
16.88650799999999
 21
21.696573
 31
0.0
  0
LINE
  5
41
330
2
100
AcDbEntity
  8
FORMAT
  6
CONTINUOUS
100
AcDbLine
 10
17.0
 20
0.5
 30
0.0
 11
16.88650899999998
 21
0.3034269999999992
 31
0.0
  0
LINE
  5
42
330
2
100
AcDbEntity
  8
FORMAT
  6
CONTINUOUS
100
AcDbLine
 10
16.88650799999999
 20
21.696573
 30
0.0
 11
17.0
 21
21.49999999999999
 31
0.0
  0
HATCH
  5
45
330
2
100
AcDbEntity
  8
FORMAT
  6
CONTINUOUS
100
AcDbHatch
 10
0.0
 20
0.0
 30
0.0
210
0.0
220
0.0
230
1.0
  2
ARROW_LEFT
 70
     1
 71
     0
 91
        1
 92
        1
 93
        3
 72
     1
 10
0.3034269999999992
 20
10.88650799999999
 11
0.4999999999999992
 21
10.99999999999999
 72
     1
 10
0.5
 20
10.99999999999999
 11
0.3034270000000001
 21
11.11349099999999
 72
     1
 10
0.3034269999999992
 20
11.11349099999999
 11
0.3034269999999992
 21
10.88650799999999
 97
        0
 75
     0
 76
     1
 98
        1
 10
-0.25
 20
0.0
  0
LWPOLYLINE
  5
46
330
2
100
AcDbEntity
  8
FORMAT
  6
PHANTOM
 48
10.0
100
AcDbPolyline
 90
        2
 70
     0
 43
0.001
 10
0.0
 20
22.0
 10
0.0
 20
0.0
  0
LINE
  5
47
330
2
100
AcDbEntity
  8
FORMAT
  6
CONTINUOUS
100
AcDbLine
 10
0.3034269999999992
 20
11.11349099999999
 30
0.0
 11
0.3034269999999992
 21
10.88650799999999
 31
0.0
  0
LINE
  5
48
330
2
100
AcDbEntity
  8
FORMAT
  6
CONTINUOUS
100
AcDbLine
 10
0.3034269999999992
 20
10.88650799999999
 30
0.0
 11
0.5
 21
11.0
 31
0.0
  0
TEXT
  5
4A
330
2
100
AcDbEntity
  8
FORMAT
  6
CONTINUOUS
100
AcDbText
 10
6.255030695770805
 20
0.1499999999999986
 30
0.0
 40
0.25
  1
B
  7
ARIAL
 72
     1
 11
6.375
 21
0.1499999999999986
 31
0.0
100
AcDbText
  0
TEXT
  5
4B
330
2
100
AcDbEntity
  8
FORMAT
  6
CONTINUOUS
100
AcDbText
 10
0.1226466575716206
 20
2.625
 30
0.0
 40
0.25
  1
4
  7
ARIAL
 72
     2
 11
0.2999999999999971
 21
2.625
 31
0.0
100
AcDbText
  0
TEXT
  5
4C
330
2
100
AcDbEntity
  8
FORMAT
  6
CONTINUOUS
100
AcDbText
 10
2.008526603001364
 20
0.1499999999999986
 30
0.0
 40
0.25
  1
A
  7
ARIAL
 72
     1
 11
2.125
 21
0.1499999999999986
 31
0.0
100
AcDbText
  0
LINE
  5
4D
330
2
100
AcDbEntity
  8
FORMAT
  6
CONTINUOUS
100
AcDbLine
 10
4.25
 20
0.0
 30
0.0
 11
4.25
 21
0.5
 31
0.0
  0
LINE
  5
4E
330
2
100
AcDbEntity
  8
FORMAT
  6
CONTINUOUS
100
AcDbLine
 10
0.0
 20
5.5
 30
0.0
 11
0.5
 21
5.5
 31
0.0
  0
TEXT
  5
4F
330
2
100
AcDbEntity
  8
FORMAT
  6
CONTINUOUS
100
AcDbText
 10
0.1216234652114569
 20
8.125
 30
0.0
 40
0.25
  1
3
  7
ARIAL
 72
     2
 11
0.2999999999999971
 21
8.125
 31
0.0
100
AcDbText
  0
LINE
  5
6E
330
2
100
AcDbEntity
  8
FORMAT
  6
CONTINUOUS
100
AcDbLine
 10
8.5
 20
0.0
 30
0.0
 11
8.5
 21
0.5
 31
0.0
  0
TEXT
  5
6F
330
2
100
AcDbEntity
  8
FORMAT
  6
CONTINUOUS
100
AcDbText
 10
10.49710095497953
 20
0.1499999999999986
 30
0.0
 40
0.25
  1
C
  7
ARIAL
 72
     1
 11
10.625
 21
0.1499999999999986
 31
0.0
100
AcDbText
  0
LINE
  5
70
330
2
100
AcDbEntity
  8
FORMAT
  6
CONTINUOUS
100
AcDbLine
 10
12.75
 20
0.0
 30
0.0
 11
12.75
 21
0.5
 31
0.0
  0
TEXT
  5
71
330
2
100
AcDbEntity
  8
FORMAT
  6
CONTINUOUS
100
AcDbText
 10
14.74471350613915
 20
0.1499999999999986
 30
0.0
 40
0.25
  1
D
  7
ARIAL
 72
     1
 11
14.875
 21
0.1499999999999986
 31
0.0
100
AcDbText
  0
TEXT
  5
76
330
2
100
AcDbEntity
  8
FORMAT
  6
CONTINUOUS
100
AcDbText
 10
6.255030695770805
 20
21.59999999999999
 30
0.0
 40
0.25
  1
B
  7
ARIAL
 72
     1
 11
6.375
 21
21.59999999999999
 31
0.0
100
AcDbText
  0
LINE
  5
79
330
2
100
AcDbEntity
  8
FORMAT
  6
CONTINUOUS
100
AcDbLine
 10
0.5
 20
11.0
 30
0.0
 11
0.3034269999999992
 21
11.11349099999999
 31
0.0
  0
LINE
  5
7A
330
2
100
AcDbEntity
  8
FORMAT
  6
CONTINUOUS
100
AcDbLine
 10
0.0
 20
11.0
 30
0.0
 11
0.5
 21
11.0
 31
0.0
  0
TEXT
  5
7B
330
2
100
AcDbEntity
  8
FORMAT
  6
CONTINUOUS
100
AcDbText
 10
0.1241814461118662
 20
13.625
 30
0.0
 40
0.25
  1
2
  7
ARIAL
 72
     2
 11
0.2999999999999971
 21
13.625
 31
0.0
100
AcDbText
  0
LINE
  5
7C
330
2
100
AcDbEntity
  8
FORMAT
  6
CONTINUOUS
100
AcDbLine
 10
0.0
 20
16.5
 30
0.0
 11
0.5
 21
16.5
 31
0.0
  0
TEXT
  5
9B
330
2
100
AcDbEntity
  8
FORMAT
  6
CONTINUOUS
100
AcDbText
 10
0.1698840381991786
 20
19.125
 30
0.0
 40
0.25
  1
1
  7
ARIAL
 72
     2
 11
0.2999999999999971
 21
19.125
 31
0.0
100
AcDbText
  0
TEXT
  5
A1
330
2
100
AcDbEntity
  8
FORMAT
  6
CONTINUOUS
100
AcDbText
 10
2.008526603001364
 20
21.59999999999999
 30
0.0
 40
0.25
  1
A
  7
ARIAL
 72
     1
 11
2.125
 21
21.59999999999999
 31
0.0
100
AcDbText
  0
LINE
  5
A2
330
2
100
AcDbEntity
  8
FORMAT
  6
CONTINUOUS
100
AcDbLine
 10
4.25
 20
21.49999999999999
 30
0.0
 11
4.25
 21
22.0
 31
0.0
  0
LINE
  5
100
330
2
100
AcDbEntity
  8
FORMAT
  6
CONTINUOUS
100
AcDbLine
 10
8.5
 20
21.49999999999999
 30
0.0
 11
8.5
 21
22.0
 31
0.0
  0
TEXT
  5
101
330
2
100
AcDbEntity
  8
FORMAT
  6
CONTINUOUS
100
AcDbText
 10
10.49710095497953
 20
21.59999999999999
 30
0.0
 40
0.25
  1
C
  7
ARIAL
 72
     1
 11
10.625
 21
21.59999999999999
 31
0.0
100
AcDbText
  0
LINE
  5
102
330
2
100
AcDbEntity
  8
FORMAT
  6
CONTINUOUS
100
AcDbLine
 10
12.75
 20
21.49999999999999
 30
0.0
 11
12.75
 21
22.0
 31
0.0
  0
TEXT
  5
103
330
2
100
AcDbEntity
  8
FORMAT
  6
CONTINUOUS
100
AcDbText
 10
14.74471350613915
 20
21.59999999999999
 30
0.0
 40
0.25
  1
D
  7
ARIAL
 72
     1
 11
14.875
 21
21.59999999999999
 31
0.0
100
AcDbText
  0
LWPOLYLINE
  5
108
330
2
100
AcDbEntity
  8
FORMAT
  6
PHANTOM
 48
10.0
100
AcDbPolyline
 90
        2
 70
     0
 43
0.001
 10
34.0
 20
0.0
 10
34.0
 20
22.0
  0
HATCH
  5
109
330
2
100
AcDbEntity
  8
FORMAT
  6
CONTINUOUS
100
AcDbHatch
 10
0.0
 20
0.0
 30
0.0
210
0.0
220
0.0
230
1.0
  2
ARROW_RIGHT
 70
     1
 71
     0
 91
        1
 92
        1
 93
        3
 72
     1
 10
33.5
 20
10.99999999999999
 11
33.696573
 21
10.88650899999999
 72
     1
 10
33.696573
 20
10.88650899999999
 11
33.696573
 21
11.11349199999999
 72
     1
 10
33.696573
 20
11.11349199999999
 11
33.5
 21
10.99999999999999
 97
        0
 75
     0
 76
     1
 98
        1
 10
0.25
 20
0.0
  0
LINE
  5
10A
330
2
100
AcDbEntity
  8
FORMAT
  6
CONTINUOUS
100
AcDbLine
 10
33.696573
 20
10.88650899999999
 30
0.0
 11
33.696573
 21
11.113492
 31
0.0
  0
LINE
  5
10B
330
2
100
AcDbEntity
  8
FORMAT
  6
CONTINUOUS
100
AcDbLine
 10
33.5
 20
11.0
 30
0.0
 11
33.696573
 21
10.88650899999999
 31
0.0
  0
INSERT
  5
10C
330
2
100
AcDbEntity
  8
TB-TXT
100
AcDbBlockReference
 66
     1
  2
TITLE-BLOCK
 10
32.60259009549838
 20
0.4871808286051192
 30
0.0
 41
0.9696969696969773
 42
0.9696969696969773
 43
0.9696969696969773
  0
ATTRIB
  5
10D
330
10C
100
AcDbEntity
  8
TB-TXT
100
AcDbText
 10
27.31573458917869
 20
2.159556522670953
 30
0.0
 40
0.17
  1
PICTORIAL, 
  7
ARIAL
100
AcDbAttribute
  2
LINE1
 70
     0
  0
ATTRIB
  5
10E
330
10C
100
AcDbEntity
  8
TB-TXT
100
AcDbText
 10
27.31573458917869
 20
1.908421630896071
 30
0.0
 40
0.17
  1
MXA-STMK-10, SECURE TABLE MOUNT KIT, 
  7
ARIAL
100
AcDbAttribute
  2
LINE2
 70
     0
  0
ATTRIB
  5
10F
330
10C
100
AcDbEntity
  8
TB-TXT
100
AcDbText
 10
27.31573458917869
 20
1.657286739121175
 30
0.0
 40
0.17
  1
MODERO X 10.1  
  7
ARIAL
100
AcDbAttribute
  2
LINE3
 70
     0
  0
ATTRIB
  5
110
330
10C
100
AcDbEntity
  8
TB-TXT
100
AcDbText
 10
27.31573458917869
 20
1.406151847346279
 30
0.0
 40
0.17
  1
 
  7
ARIAL
100
AcDbAttribute
  2
LINE4
 70
     0
  0
ATTRIB
  5
111
330
10C
100
AcDbEntity
  8
TB-TXT
100
AcDbText
 10
28.67240744538594
 20
0.9393484331170611
 30
0.0
 40
0.17
  1
95-5968-66
  7
ARIAL
100
AcDbAttribute
  2
DWG#
 70
     0
  0
ATTRIB
  5
112
330
10C
100
AcDbEntity
  8
TB-TXT
100
AcDbText
 10
29.67184955913904
 20
0.6131212011589185
 30
0.0
 40
0.1163636363636373
  1
 
  7
ARIAL
100
AcDbAttribute
  2
FILE#
 70
     0
  0
ATTRIB
  5
113
330
10C
100
AcDbEntity
  8
TB-TXT
100
AcDbText
 10
33.15909260795084
 20
0.8971920186209283
 30
0.0
 40
0.17
  1
A
  7
ARIAL
 72
     4
 11
33.23829451790992
 21
0.9821920186209283
 31
0.0
100
AcDbAttribute
  2
REV
 70
     0
  0
ATTRIB
  5
114
330
10C
100
AcDbEntity
  8
TB-TXT
100
AcDbText
 10
27.7341555078267
 20
0.5791391671473889
 30
0.0
 40
0.17
  1
1/1
  7
ARIAL
100
AcDbAttribute
  2
SCALE
 70
     0
  0
ATTRIB
  5
115
330
10C
100
AcDbEntity
  8
TB-TXT
100
AcDbText
 10
32.56139344279876
 20
0.585935475765524
 30
0.0
 40
0.17
  1
2 OF 2
  7
ARIAL
100
AcDbAttribute
  2
SHT#
 70
     0
  0
SEQEND
  5
123
330
10C
100
AcDbEntity
  8
TB-TXT
  0
HATCH
  5
124
330
2
100
AcDbEntity
  8
FORMAT
100
AcDbHatch
 10
0.0
 20
0.0
 30
0.0
210
0.0
220
0.0
230
1.0
  2
SOLID
 70
     1
 71
     1
 91
        5
 92
        1
 93
        4
 72
     1
 10
27.89524244557755
 20
3.009898395795563
 11
27.99604627712901
 21
2.75012602185323
 72
     2
 10
28.42523413703466
 20
0.4867236379588187
 40
2.303734483509177
 50
100.7369884767685
 51
115.8445848643794
 73
     1
 72
     1
 10
27.42096358594918
 20
2.560038189765119
 11
27.72221440253551
 21
3.009898395795563
 72
     1
 10
27.72221440253551
 20
3.009898395795563
 11
27.89524244557755
 21
3.009898395795563
 97
        1
330
125
 92
       16
 93
        4
 72
     1
 10
27.82625138631124
 20
2.746301120733491
 11
27.82647137730056
 21
2.746087929262984
 72
     1
 10
27.82647137730056
 20
2.746087929262984
 11
27.78730301109048
 21
2.857448970448498
 72
     1
 10
27.78730301109048
 20
2.857448970448498
 11
27.71638256267897
 21
2.746087929262984
 72
     1
 10
27.71638256267897
 20
2.746087929262984
 11
27.82625138631124
 21
2.746301120733491
 97
        1
330
173
 92
        1
 93
        7
 72
     1
 10
27.85379733476327
 20
2.669165529635449
 11
27.89252030058969
 21
2.560038189765117
 72
     1
 10
27.89252030058969
 20
2.560038189765117
 11
28.22439509774364
 21
2.560038189765117
 72
     1
 10
28.22439509774364
 20
2.560038189765117
 11
28.2534481466875
 21
2.734356483428371
 72
     2
 10
28.84418016139653
 20
-2.211762160162989
 40
4.98127031485787
 50
96.81077116038439
 51
98.7658188097698
 73
     1
 72
     1
 10
28.08505320817211
 20
2.711324292315012
 11
28.06284416794594
 21
2.577987260808255
 72
     1
 10
28.06284416794594
 20
2.577987260808255
 11
28.01571075607803
 21
2.699450484025899
 72
     2
 10
28.4520446382265
 20
-0.0812992519853255
 40
2.814774653686729
 50
98.91769894924955
 51
102.2711423007092
 73
     1
 97
        1
330
174
 92
        1
 93
       13
 72
     1
 10
29.38348614891178
 20
3.009898395795563
 11
29.19279654184188
 21
2.849663121732444
 72
     2
 10
29.75206810599112
 20
-32.64549153385557
 40
35.49956040159622
 50
90.90269359832781
 51
91.4276731912744
 73
     1
 72
     1
 10
28.86759586955777
 20
2.843048835812439
 11
28.73192948971407
 21
2.999019518033357
 72
     1
 10
28.73192948971407
 20
2.999019518033357
 11
28.70471702376885
 21
2.835744722362004
 72
     2
 10
29.00055122292874
 20
-2.744979632338445
 40
5.588559939424407
 50
93.03440911951204
 51
99.32746877910854
 73
     1
 72
     1
 10
28.09477463227537
 20
2.769689076148374
 11
28.13478466086577
 21
3.009898395795563
 72
     1
 10
28.13478466086577
 20
3.009898395795563
 11
28.27250800784915
 21
3.009898395795563
 72
     1
 10
28.27250800784915
 20
3.009898395795563
 11
28.40846516441128
 21
2.86109542429461
 72
     1
 10
28.40846516441128
 20
2.86109542429461
 11
28.59422335947938
 21
3.009898395795563
 72
     1
 10
28.59422335947938
 20
3.009898395795563
 11
28.93608238153996
 21
3.009898395795563
 72
     1
 10
28.93608238153996
 20
3.009898395795563
 11
29.03481323325339
 21
2.896391141339901
 72
     1
 10
29.03481323325339
 20
2.896391141339901
 11
29.16989368840465
 21
3.009898395795563
 72
     1
 10
29.16989368840465
 20
3.009898395795563
 11
29.38348614891178
 21
3.009898395795563
 97
        1
330
171
 92
        1
 93
       10
 72
     1
 10
28.84812546490569
 20
2.560038189765117
 11
29.00159362169353
 21
2.6889965139272
 72
     1
 10
29.00159362169353
 20
2.6889965139272
 11
29.11376411899891
 21
2.560038189765117
 72
     1
 10
29.11376411899891
 20
2.560038189765117
 11
29.32737967356207
 21
2.560038189765117
 72
     1
 10
29.32737967356207
 20
2.560038189765117
 11
29.13999480838106
 21
2.775467725762407
 72
     2
 10
29.05510266338243
 20
-3.190012262200435
 40
5.966083988938442
 50
89.18470377236852
 51
91.59664224690866
 73
     1
 72
     1
 10
28.88886932108983
 20
2.773755392477088
 11
28.66271243457582
 21
2.58371718720382
 72
     1
 10
28.66271243457582
 20
2.58371718720382
 11
28.69329665119762
 21
2.76722248693467
 72
     2
 10
28.84418016139635
 20
-2.211762160162928
 40
4.981270314857797
 50
91.73576423011793
 51
93.6434845729463
 73
     1
 72
     1
 10
28.52763063088184
 20
2.75943994238878
 11
28.49439700544456
 21
2.560038189765117
 72
     1
 10
28.49439700544456
 20
2.560038189765117
 11
28.84812546490569
 21
2.560038189765117
 97
        1
330
172
 75
     0
 76
     1
 98
        1
 10
27.40349142259076
 20
2.321955963782295
  0
LWPOLYLINE
  5
125
102
{ACAD_REACTORS
330
124
102
}
330
2
100
AcDbEntity
  8
FORMAT
100
AcDbPolyline
 90
        4
 70
     1
 43
0.0
 10
27.89524244557755
 20
3.009898395795563
 10
27.99604627712901
 20
2.75012602185323
 42
0.0660149720166298
 10
27.42096358594918
 20
2.560038189765119
 10
27.72221440253551
 20
3.009898395795563
  0
TEXT
  5
126
330
2
100
AcDbEntity
  8
FORMAT
100
AcDbText
 10
27.17012525851521
 20
0.6672081632976301
 30
0.0
 40
0.1088
  1
SCALE
  7
ARIAL
100
AcDbText
  0
LWPOLYLINE
  5
127
330
2
100
AcDbEntity
  8
FORMAT
100
AcDbPolyline
 90
        3
 70
     0
 43
0.02
 10
24.07707447757575
 20
0.5000000047629812
 10
24.07707451602714
 20
3.113341425599678
 10
33.5
 20
3.113341435521647
  0
LWPOLYLINE
  5
128
330
2
100
AcDbEntity
  8
FORMAT
100
AcDbPolyline
 90
        2
 70
     0
 43
0.02
 10
27.12431506274814
 20
2.441891417892239
 10
33.5
 20
2.441891417892239
  0
LWPOLYLINE
  5
129
330
2
100
AcDbEntity
  8
FORMAT
100
AcDbPolyline
 90
        2
 70
     0
 43
0.02
 10
27.12431506274814
 20
1.272892106623777
 10
33.5
 20
1.272892106623777
  0
LWPOLYLINE
  5
12A
330
2
100
AcDbEntity
  8
FORMAT
100
AcDbPolyline
 90
        2
 70
     0
 43
0.02
 10
27.12431506274814
 20
0.8236485696487072
 10
33.5
 20
0.8236485696487072
  0
LWPOLYLINE
  5
12B
330
2
100
AcDbEntity
  8
FORMAT
100
AcDbPolyline
 90
        2
 70
     0
 43
0.02
 10
27.61703378072079
 20
1.272892106623777
 10
27.61703378072079
 20
0.8236485696487072
  0
TEXT
  5
12C
330
2
100
AcDbEntity
  8
FORMAT
  6
CONTINUOUS
100
AcDbText
 10
27.49079126875852
 20
0.1499999999999986
 30
0.0
 40
0.25
  1
G
  7
ARIAL
 72
     1
 11
27.625
 21
0.1499999999999986
 31
0.0
100
AcDbText
  0
LINE
  5
12D
330
2
100
AcDbEntity
  8
FORMAT
  6
CONTINUOUS
100
AcDbLine
 10
17.0
 20
0.0
 30
0.0
 11
17.0
 21
0.5
 31
0.0
  0
LINE
  5
12E
330
2
100
AcDbEntity
  8
FORMAT
  6
CONTINUOUS
100
AcDbLine
 10
17.11349199999999
 20
0.3034269999999992
 30
0.0
 11
17.0
 21
0.5
 31
0.0
  0
TEXT
  5
12F
330
2
100
AcDbEntity
  8
FORMAT
  6
CONTINUOUS
100
AcDbText
 10
19.00409276944065
 20
0.1499999999999986
 30
0.0
 40
0.25
  1
E
  7
ARIAL
 72
     1
 11
19.125
 21
0.1499999999999986
 31
0.0
100
AcDbText
  0
LINE
  5
130
330
2
100
AcDbEntity
  8
FORMAT
  6
CONTINUOUS
100
AcDbLine
 10
21.25
 20
0.0
 30
0.0
 11
21.25
 21
0.5
 31
0.0
  0
TEXT
  5
131
330
2
100
AcDbEntity
  8
FORMAT
100
AcDbText
 10
24.27837190414677
 20
0.6510078951555514
 30
0.0
 40
0.131328
  1
written permission.
  7
ARIAL
100
AcDbText
  0
LWPOLYLINE
  5
132
330
2
100
AcDbEntity
  8
FORMAT
100
AcDbPolyline
 90
        2
 70
     0
 43
0.02
 10
27.12431506274814
 20
3.113341435521647
 10
27.12431506274814
 20
0.5
  0
TEXT
  5
133
330
2
100
AcDbEntity
  8
FORMAT
  6
CONTINUOUS
100
AcDbText
 10
23.26202251023192
 20
0.1499999999999986
 30
0.0
 40
0.25
  1
F
  7
ARIAL
 72
     1
 11
23.37499999999999
 21
0.1499999999999986
 31
0.0
100
AcDbText
  0
LINE
  5
134
330
2
100
AcDbEntity
  8
FORMAT
  6
CONTINUOUS
100
AcDbLine
 10
25.5
 20
0.0
 30
0.0
 11
25.5
 21
0.5
 31
0.0
  0
TEXT
  5
135
330
2
100
AcDbEntity
  8
FORMAT
100
AcDbText
 10
24.26672617426953
 20
2.408766585469344
 30
0.0
 40
0.131328
  1
All information contained herein
  7
ARIAL
100
AcDbText
  0
TEXT
  5
136
330
2
100
AcDbEntity
  8
FORMAT
100
AcDbText
 10
24.26699492188211
 20
1.091007458593473
 30
0.0
 40
0.131328
  1
reproduced, or used as the basis
  7
ARIAL
100
AcDbText
  0
TEXT
  5
137
330
2
100
AcDbEntity
  8
FORMAT
100
AcDbText
 10
24.27720733115904
 20
0.8698878951555641
 30
0.0
 40
0.131328
  1
for manufacture or sale without
  7
ARIAL
100
AcDbText
  0
TEXT
  5
138
330
2
100
AcDbEntity
  8
FORMAT
100
AcDbText
 10
24.27460943757102
 20
1.309887458593486
 30
0.0
 40
0.131328
  1
This drawing may not be copied,
  7
ARIAL
100
AcDbText
  0
TEXT
  5
139
330
2
100
AcDbEntity
  8
FORMAT
100
AcDbText
 10
24.26681575680705
 20
1.528767458593485
 30
0.0
 40
0.131328
  1
has been previously established.
  7
ARIAL
100
AcDbText
  0
TEXT
  5
13A
330
2
100
AcDbEntity
  8
FORMAT
100
AcDbText
 10
24.27568442802122
 20
1.747647458593483
 30
0.0
 40
0.131328
  1
to the extent the information
  7
ARIAL
100
AcDbText
  0
TEXT
  5
13B
330
2
100
AcDbEntity
  8
FORMAT
100
AcDbText
 10
24.27568442802122
 20
2.189886585469331
 30
0.0
 40
0.131328
  1
that is not generally known 
  7
ARIAL
100
AcDbText
  0
TEXT
  5
13C
330
2
100
AcDbEntity
  8
FORMAT
100
AcDbText
 10
24.26681575680705
 20
2.629886148907267
 30
0.0
 40
0.131328
  1
property of AMX LLC.
  7
ARIAL
100
AcDbText
  0
TEXT
  5
13D
330
2
100
AcDbEntity
  8
FORMAT
100
AcDbText
 10
24.26493452351919
 20
2.851005712345191
 30
0.0
 40
0.131328
  1
NOTICE:   This drawing is the 
  7
ARIAL
100
AcDbText
  0
TEXT
  5
13E
330
2
100
AcDbEntity
  8
FORMAT
100
AcDbText
 10
24.27326569950829
 20
1.968767022031421
 30
0.0
 40
0.131328
  1
shall be confidential except
  7
ARIAL
100
AcDbText
  0
TEXT
  5
13F
330
2
100
AcDbEntity
  8
FORMAT
100
AcDbText
 10
27.18997948867459
 20
1.112168497683782
 30
0.0
 40
0.1088
  1
SIZE
  7
ARIAL
100
AcDbText
  0
TEXT
  5
140
330
2
100
AcDbEntity
  8
FORMAT
100
AcDbText
 10
27.2922243621056
 20
0.8984635216691145
 30
0.0
 40
0.16
  1
D
  7
ARIAL
100
AcDbText
  0
TEXT
  5
168
330
2
100
AcDbEntity
  8
FORMAT
  6
BYBLOCK
100
AcDbText
 10
31.4299650373904
 20
2.556087548643318
 30
0.0
 40
0.1035906873199564
  1
RICHARDSON, TX 75082
 41
1.018884921437547
  7
ARIAL
100
AcDbText
  0
TEXT
  5
169
330
2
100
AcDbEntity
  8
FORMAT
  6
BYBLOCK
100
AcDbText
 10
31.43486788649962
 20
2.733670985046202
 30
0.0
 40
0.1035906873199564
  1
3000 RESEARCH DRIVE
 41
1.011836867459718
  7
ARIAL
100
AcDbText
  0
TEXT
  5
16A
330
2
100
AcDbEntity
  8
FORMAT
100
AcDbText
 10
31.85237387102683
 20
0.6672081632976301
 30
0.0
 40
0.1163636363636364
  1
SHEET
  7
ARIAL
100
AcDbText
  0
LWPOLYLINE
  5
16B
330
2
100
AcDbEntity
  8
FORMAT
100
AcDbPolyline
 90
        2
 70
     0
 43
0.02
 10
31.81895966809327
 20
0.8236485696487072
 10
31.81895966809327
 20
0.5
  0
LWPOLYLINE
  5
16C
330
2
100
AcDbEntity
  8
FORMAT
100
AcDbPolyline
 90
        2
 70
     0
 43
0.02
 10
28.42063372699124
 20
0.8236485696487072
 10
28.42063372699124
 20
0.5
  0
TEXT
  5
16D
330
2
100
AcDbEntity
  8
FORMAT
100
AcDbText
 10
28.46644392275831
 20
0.6672081632976301
 30
0.0
 40
0.1088
  1
ACAD FILE NO.
  7
ARIAL
100
AcDbText
  0
LINE
  5
16E
330
2
100
AcDbEntity
  8
FORMAT
  6
CONTINUOUS
100
AcDbLine
 10
29.75
 20
0.0
 30
0.0
 11
29.75
 21
0.5
 31
0.0
  0
TEXT
  5
16F
330
2
100
AcDbEntity
  8
FORMAT
  6
CONTINUOUS
100
AcDbText
 10
31.74897680763983
 20
0.1499999999999986
 30
0.0
 40
0.25
  1
H
  7
ARIAL
 72
     1
 11
31.875
 21
0.1499999999999986
 31
0.0
100
AcDbText
  0
TEXT
  5
170
330
2
100
AcDbEntity
  8
FORMAT
100
AcDbText
 10
27.68095276043268
 20
1.112168497683782
 30
0.0
 40
0.1088
  1
DWG. NO.
  7
ARIAL
100
AcDbText
  0
LWPOLYLINE
  5
171
102
{ACAD_REACTORS
330
124
102
}
330
2
100
AcDbEntity
  8
FORMAT
100
AcDbPolyline
 90
       13
 70
     1
 43
0.0
 10
29.38348614891178
 20
3.009898395795563
 10
29.19279654184188
 20
2.849663121732444
 42
0.0022906596071181
 10
28.86759586955777
 20
2.843048835812439
 10
28.73192948971407
 20
2.999019518033357
 10
28.70471702376885
 20
2.835744722362004
 42
0.0274655559228494
 10
28.09477463227537
 20
2.769689076148374
 10
28.13478466086577
 20
3.009898395795563
 10
28.27250800784915
 20
3.009898395795563
 10
28.40846516441128
 20
2.86109542429461
 10
28.59422335947938
 20
3.009898395795563
 10
28.93608238153996
 20
3.009898395795563
 10
29.03481323325339
 20
2.896391141339901
 10
29.16989368840465
 20
3.009898395795563
  0
LWPOLYLINE
  5
172
102
{ACAD_REACTORS
330
124
102
}
330
2
100
AcDbEntity
  8
FORMAT
100
AcDbPolyline
 90
       10
 70
     1
 43
0.0
 10
28.84812546490569
 20
2.560038189765117
 10
29.00159362169353
 20
2.6889965139272
 10
29.11376411899891
 20
2.560038189765117
 10
29.32737967356207
 20
2.560038189765117
 10
29.13999480838106
 20
2.775467725762407
 42
0.0105244554857435
 10
28.88886932108983
 20
2.773755392477088
 10
28.66271243457582
 20
2.58371718720382
 10
28.69329665119762
 20
2.76722248693467
 42
0.0083241925565687
 10
28.52763063088184
 20
2.75943994238878
 10
28.49439700544456
 20
2.560038189765117
  0
LWPOLYLINE
  5
173
102
{ACAD_REACTORS
330
124
102
}
330
2
100
AcDbEntity
  8
FORMAT
100
AcDbPolyline
 90
        4
 70
     1
 43
0.0
 10
27.82625138631124
 20
2.746301120733491
 10
27.82647137730056
 20
2.746087929262984
 10
27.78730301109048
 20
2.857448970448498
 10
27.71638256267897
 20
2.746087929262984
  0
LWPOLYLINE
  5
174
102
{ACAD_REACTORS
330
124
102
}
330
2
100
AcDbEntity
  8
FORMAT
100
AcDbPolyline
 90
        7
 70
     1
 43
0.0
 10
27.85379733476327
 20
2.669165529635449
 10
27.89252030058969
 20
2.560038189765117
 10
28.22439509774364
 20
2.560038189765117
 10
28.2534481466875
 20
2.734356483428371
 42
0.0085307115550227
 10
28.08505320817211
 20
2.711324292315012
 10
28.06284416794594
 20
2.577987260808255
 10
28.01571075607803
 20
2.699450484025899
 42
0.014633201278307
  0
TEXT
  5
175
330
2
100
AcDbEntity
  8
FORMAT
100
AcDbText
 10
29.37565033606138
 20
2.561556359369892
 30
0.0
 40
0.0583271326082317
  1
TM
  7
ARIAL
 11
29.37565033606138
 21
2.590719925674008
 31
0.0
100
AcDbText
 73
     2
  0
TEXT
  5
176
330
2
100
AcDbEntity
  8
FORMAT
  6
BYBLOCK
100
AcDbText
 10
31.43486788649962
 20
2.911254421449086
 30
0.0
 40
0.1035906873199564
  1
AMX LLC
 41
1.011836867459718
  7
ARIAL
100
AcDbText
  0
TEXT
  5
177
330
2
100
AcDbEntity
  8
FORMAT
100
AcDbText
 10
33.07693135410495
 20
1.112168497683782
 30
0.0
 40
0.1088
  1
REV.
  7
ARIAL
 72
     1
 11
33.25367569244056
 21
1.112168497683782
 31
0.0
100
AcDbText
  0
LWPOLYLINE
  5
178
330
2
100
AcDbEntity
  8
FORMAT
100
AcDbPolyline
 90
        2
 70
     0
 43
0.02
 10
32.94931437403055
 20
1.272892106623777
 10
32.94931437403055
 20
0.8236485696487072
  0
TEXT
  5
179
330
2
100
AcDbEntity
  8
FORMAT
  6
CONTINUOUS
100
AcDbText
 10
33.64274376044011
 20
2.625
 30
0.0
 40
0.25
  1
4
  7
ARIAL
 72
     2
 11
33.82009710286848
 21
2.625
 31
0.0
100
AcDbText
  0
LINE
  5
17A
330
2
100
AcDbEntity
  8
FORMAT
  6
CONTINUOUS
100
AcDbLine
 10
33.5
 20
5.5
 30
0.0
 11
34.0
 21
5.5
 31
0.0
  0
TEXT
  5
17B
330
2
100
AcDbEntity
  8
FORMAT
  6
CONTINUOUS
100
AcDbText
 10
33.64172056807994
 20
8.125
 30
0.0
 40
0.25
  1
3
  7
ARIAL
 72
     2
 11
33.82009710286848
 21
8.125
 31
0.0
100
AcDbText
  0
TEXT
  5
17C
330
2
100
AcDbEntity
  8
FORMAT
  6
CONTINUOUS
100
AcDbText
 10
27.49079126875852
 20
21.59999999999999
 30
0.0
 40
0.25
  1
G
  7
ARIAL
 72
     1
 11
27.625
 21
21.59999999999999
 31
0.0
100
AcDbText
  0
LINE
  5
1BF
330
2
100
AcDbEntity
  8
FORMAT
  6
CONTINUOUS
100
AcDbLine
 10
17.0
 20
21.49999999999999
 30
0.0
 11
17.0
 21
22.0
 31
0.0
  0
LINE
  5
1C0
330
2
100
AcDbEntity
  8
FORMAT
  6
CONTINUOUS
100
AcDbLine
 10
17.0
 20
21.49999999999999
 30
0.0
 11
17.11349099999999
 21
21.696573
 31
0.0
  0
TEXT
  5
1C1
330
2
100
AcDbEntity
  8
FORMAT
  6
CONTINUOUS
100
AcDbText
 10
19.00409276944065
 20
21.59999999999999
 30
0.0
 40
0.25
  1
E
  7
ARIAL
 72
     1
 11
19.125
 21
21.59999999999999
 31
0.0
100
AcDbText
  0
LINE
  5
1C2
330
2
100
AcDbEntity
  8
FORMAT
  6
CONTINUOUS
100
AcDbLine
 10
21.25
 20
21.49999999999999
 30
0.0
 11
21.25
 21
22.0
 31
0.0
  0
TEXT
  5
1C3
330
2
100
AcDbEntity
  8
FORMAT
  6
CONTINUOUS
100
AcDbText
 10
23.26202251023192
 20
21.59999999999999
 30
0.0
 40
0.25
  1
F
  7
ARIAL
 72
     1
 11
23.37499999999999
 21
21.59999999999999
 31
0.0
100
AcDbText
  0
LINE
  5
1C4
330
2
100
AcDbEntity
  8
FORMAT
  6
CONTINUOUS
100
AcDbLine
 10
25.5
 20
21.49999999999999
 30
0.0
 11
25.5
 21
22.0
 31
0.0
  0
LINE
  5
1F0
330
2
100
AcDbEntity
  8
FORMAT
  6
CONTINUOUS
100
AcDbLine
 10
33.696573
 20
11.113492
 30
0.0
 11
33.5
 21
11.0
 31
0.0
  0
LINE
  5
1F1
330
2
100
AcDbEntity
  8
FORMAT
  6
CONTINUOUS
100
AcDbLine
 10
33.5
 20
11.0
 30
0.0
 11
34.0
 21
11.0
 31
0.0
  0
TEXT
  5
1F2
330
2
100
AcDbEntity
  8
FORMAT
  6
CONTINUOUS
100
AcDbText
 10
33.64427854898035
 20
13.625
 30
0.0
 40
0.25
  1
2
  7
ARIAL
 72
     2
 11
33.82009710286848
 21
13.625
 31
0.0
100
AcDbText
  0
LINE
  5
1F3
330
2
100
AcDbEntity
  8
FORMAT
  6
CONTINUOUS
100
AcDbLine
 10
33.5
 20
16.5
 30
0.0
 11
34.0
 21
16.5
 31
0.0
  0
LINE
  5
1F7
330
2
100
AcDbEntity
  8
FORMAT
  6
CONTINUOUS
100
AcDbLine
 10
29.75
 20
21.49999999999999
 30
0.0
 11
29.75
 21
22.0
 31
0.0
  0
TEXT
  5
1F8
330
2
100
AcDbEntity
  8
FORMAT
  6
CONTINUOUS
100
AcDbText
 10
31.74897680763983
 20
21.59999999999999
 30
0.0
 40
0.25
  1
H
  7
ARIAL
 72
     1
 11
31.875
 21
21.59999999999999
 31
0.0
100
AcDbText
  0
TEXT
  5
1F9
330
2
100
AcDbEntity
  8
FORMAT
  6
CONTINUOUS
100
AcDbText
 10
33.68998114106767
 20
19.125
 30
0.0
 40
0.25
  1
1
  7
ARIAL
 72
     2
 11
33.82009710286848
 21
19.125
 31
0.0
100
AcDbText
  0
LINE
  5
1357
330
2
100
AcDbEntity
  8
PART
  6
SLD-SOLID
100
AcDbLine
 10
15.98597279693913
 20
8.105825549142387
 30
0.0
 11
6.066287757568897
 21
8.105825549142387
 31
0.0
  0
LINE
  5
1358
330
2
100
AcDbEntity
  8
PART
  6
SLD-SOLID
100
AcDbLine
 10
15.98597279693913
 20
7.613419079436045
 30
0.0
 11
15.98597279693913
 21
8.105825549142387
 31
0.0
  0
LINE
  5
1359
330
2
100
AcDbEntity
  8
PART
  6
SLD-SOLID
100
AcDbLine
 10
15.98597279693913
 20
7.613419079436045
 30
0.0
 11
6.066287757568897
 21
7.613419079436045
 31
0.0
  0
LINE
  5
135A
330
2
100
AcDbEntity
  8
PART
  6
SLD-SOLID
100
AcDbLine
 10
6.066287757568897
 20
7.613419079436045
 30
0.0
 11
6.066287757568897
 21
8.105825549142387
 31
0.0
  0
LINE
  5
135C
330
2
100
AcDbEntity
  8
PART
  6
SLD-SOLID
100
AcDbLine
 10
8.081051537096511
 20
16.9537445859549
 30
0.0
 11
8.175292485971263
 21
16.9537445859549
 31
0.0
  0
ARC
  5
135D
330
2
100
AcDbEntity
  8
PART
  6
SLD-SOLID
100
AcDbCircle
 10
8.066287757568947
 20
16.96850836548247
 30
0.0
 40
0.1100000000000072
100
AcDbArc
 50
352.2867023136047
 51
7.713297686392035
  0
LINE
  5
135E
330
2
100
AcDbEntity
  8
PART
  6
SLD-SOLID
100
AcDbLine
 10
8.175292485971256
 20
16.98327214501002
 30
0.0
 11
8.081051537096506
 21
16.98327214501002
 31
0.0
  0
LINE
  5
135F
330
2
100
AcDbEntity
  8
PART
  6
SLD-SOLID
100
AcDbLine
 10
8.081051537096506
 20
16.98327214501002
 30
0.0
 11
8.081051537096511
 21
17.07751309388478
 31
0.0
  0
ARC
  5
1360
330
2
100
AcDbEntity
  8
PART
  6
SLD-SOLID
100
AcDbCircle
 10
8.066287757568947
 20
16.96850836548247
 30
0.0
 40
0.1100000000000029
100
AcDbArc
 50
82.28670231360316
 51
97.71329768639011
  0
LINE
  5
1361
330
2
100
AcDbEntity
  8
PART
  6
SLD-SOLID
100
AcDbLine
 10
8.051523978041394
 20
17.07751309388478
 30
0.0
 11
8.051523978041391
 21
16.98327214501002
 31
0.0
  0
LINE
  5
1362
330
2
100
AcDbEntity
  8
PART
  6
SLD-SOLID
100
AcDbLine
 10
8.051523978041391
 20
16.98327214501002
 30
0.0
 11
7.957283029166639
 21
16.98327214501001
 31
0.0
  0
ARC
  5
1363
330
2
100
AcDbEntity
  8
PART
  6
SLD-SOLID
100
AcDbCircle
 10
8.066287757568947
 20
16.96850836548247
 30
0.0
 40
0.1099999999999969
100
AcDbArc
 50
172.2867023136096
 51
187.7132976863985
  0
LINE
  5
1364
330
2
100
AcDbEntity
  8
PART
  6
SLD-SOLID
100
AcDbLine
 10
7.957283029166639
 20
16.9537445859549
 30
0.0
 11
8.051523978041391
 21
16.9537445859549
 31
0.0
  0
LINE
  5
1365
330
2
100
AcDbEntity
  8
PART
  6
SLD-SOLID
100
AcDbLine
 10
8.051523978041391
 20
16.9537445859549
 30
0.0
 11
8.051523978041387
 21
16.85950363708015
 31
0.0
  0
ARC
  5
1366
330
2
100
AcDbEntity
  8
PART
  6
SLD-SOLID
100
AcDbCircle
 10
8.066287757568947
 20
16.96850836548247
 30
0.0
 40
0.1100000000000071
100
AcDbArc
 50
262.2867023136084
 51
277.7132976863973
  0
LINE
  5
1367
330
2
100
AcDbEntity
  8
PART
  6
SLD-SOLID
100
AcDbLine
 10
8.081051537096509
 20
16.85950363708015
 30
0.0
 11
8.081051537096511
 21
16.9537445859549
 31
0.0
  0
CIRCLE
  5
1368
330
2
100
AcDbEntity
  8
PART
  6
SLD-SOLID
100
AcDbCircle
 10
8.066287757568947
 20
16.96850836548247
 30
0.0
 40
0.1395000000000017
  0
LINE
  5
1369
330
2
100
AcDbEntity
  8
PART
  6
SLD-SOLID
100
AcDbLine
 10
8.065035587178131
 20
17.06497222166461
 30
0.0
 11
8.051523978041394
 21
17.07751309388478
 31
0.0
  0
LINE
  5
136A
330
2
100
AcDbEntity
  8
PART
  6
SLD-SOLID
100
AcDbLine
 10
8.067267924139628
 20
16.96948853205314
 30
0.0
 11
8.081051537096506
 21
16.98327214501002
 31
0.0
  0
LINE
  5
136B
330
2
100
AcDbEntity
  8
PART
  6
SLD-SOLID
100
AcDbLine
 10
8.067267924139628
 20
16.96948853205314
 30
0.0
 11
8.067267924139628
 21
16.9695142295353
 31
0.0
  0
LINE
  5
136C
330
2
100
AcDbEntity
  8
PART
  6
SLD-SOLID
100
AcDbLine
 10
8.065307590998271
 20
17.04426056609521
 30
0.0
 11
8.065307590998276
 21
16.96948853205314
 31
0.0
  0
LINE
  5
136D
330
2
100
AcDbEntity
  8
PART
  6
SLD-SOLID
100
AcDbLine
 10
8.065307590998276
 20
16.96948853205314
 30
0.0
 11
8.051523978041391
 21
16.98327214501002
 31
0.0
  0
LINE
  5
136E
330
2
100
AcDbEntity
  8
PART
  6
SLD-SOLID
100
AcDbLine
 10
8.065307590998276
 20
16.96948853205314
 30
0.0
 11
8.065281893516091
 21
16.96948853205314
 31
0.0
  0
LINE
  5
136F
330
2
100
AcDbEntity
  8
PART
  6
SLD-SOLID
100
AcDbLine
 10
7.969823901386913
 20
16.96725619509176
 30
0.0
 11
7.957283029166639
 21
16.9537445859549
 31
0.0
  0
LINE
  5
1370
330
2
100
AcDbEntity
  8
PART
  6
SLD-SOLID
100
AcDbLine
 10
8.16275161375109
 20
16.96976053587327
 30
0.0
 11
8.175292485971256
 21
16.98327214501002
 31
0.0
  0
LINE
  5
1371
330
2
100
AcDbEntity
  8
PART
  6
SLD-SOLID
100
AcDbLine
 10
8.142039958182245
 20
16.96948853205314
 30
0.0
 11
8.067267924139628
 21
16.96948853205314
 31
0.0
  0
LINE
  5
1372
330
2
100
AcDbEntity
  8
PART
  6
SLD-SOLID
100
AcDbLine
 10
7.990535556956881
 20
16.96752819891179
 30
0.0
 11
8.065307590998276
 21
16.96752819891179
 31
0.0
  0
LINE
  5
1373
330
2
100
AcDbEntity
  8
PART
  6
SLD-SOLID
100
AcDbLine
 10
8.065307590998276
 20
16.96752819891179
 30
0.0
 11
8.051523978041391
 21
16.9537445859549
 31
0.0
  0
LINE
  5
1374
330
2
100
AcDbEntity
  8
PART
  6
SLD-SOLID
100
AcDbLine
 10
8.067539927959774
 20
16.87204450930031
 30
0.0
 11
8.081051537096509
 21
16.85950363708015
 31
0.0
  0
LINE
  5
1375
330
2
100
AcDbEntity
  8
PART
  6
SLD-SOLID
100
AcDbLine
 10
8.067267924139628
 20
16.89275616486978
 30
0.0
 11
8.067267924139621
 21
16.96752819891179
 31
0.0
  0
LINE
  5
1376
330
2
100
AcDbEntity
  8
PART
  6
SLD-SOLID
100
AcDbLine
 10
8.067267924139621
 20
16.96752819891179
 30
0.0
 11
8.081051537096511
 21
16.9537445859549
 31
0.0
  0
LINE
  5
1377
330
2
100
AcDbEntity
  8
PART
  6
SLD-SOLID
100
AcDbLine
 10
8.067267924139621
 20
16.96752819891179
 30
0.0
 11
8.067293621621807
 21
16.96752819891179
 31
0.0
  0
LINE
  5
1378
330
2
100
AcDbEntity
  8
PART
  6
SLD-SOLID
100
AcDbLine
 10
8.065307590998276
 20
16.96752819891179
 30
0.0
 11
8.065307590998271
 21
16.96750250142959
 31
0.0
  0
LINE
  5
1379
330
2
100
AcDbEntity
  8
PART
  6
SLD-SOLID
100
AcDbLine
 10
8.081051537096529
 20
16.45374458595486
 30
0.0
 11
8.175292485971281
 21
16.45374458595486
 31
0.0
  0
ARC
  5
137A
330
2
100
AcDbEntity
  8
PART
  6
SLD-SOLID
100
AcDbCircle
 10
8.066287757568963
 20
16.46850836548242
 30
0.0
 40
0.110000000000008
100
AcDbArc
 50
352.2867023136047
 51
7.713297686391009
  0
LINE
  5
137B
330
2
100
AcDbEntity
  8
PART
  6
SLD-SOLID
100
AcDbLine
 10
8.175292485971274
 20
16.48327214500997
 30
0.0
 11
8.081051537096524
 21
16.48327214500998
 31
0.0
  0
LINE
  5
137C
330
2
100
AcDbEntity
  8
PART
  6
SLD-SOLID
100
AcDbLine
 10
8.081051537096524
 20
16.48327214500998
 30
0.0
 11
8.081051537096529
 21
16.57751309388474
 31
0.0
  0
ARC
  5
137D
330
2
100
AcDbEntity
  8
PART
  6
SLD-SOLID
100
AcDbCircle
 10
8.066287757568963
 20
16.46850836548242
 30
0.0
 40
0.1100000000000012
100
AcDbArc
 50
82.28670231360256
 51
97.71329768639011
  0
LINE
  5
137E
330
2
100
AcDbEntity
  8
PART
  6
SLD-SOLID
100
AcDbLine
 10
8.05152397804141
 20
16.57751309388474
 30
0.0
 11
8.051523978041409
 21
16.48327214500998
 31
0.0
  0
LINE
  5
137F
330
2
100
AcDbEntity
  8
PART
  6
SLD-SOLID
100
AcDbLine
 10
8.051523978041409
 20
16.48327214500998
 30
0.0
 11
7.957283029166656
 21
16.48327214500997
 31
0.0
  0
ARC
  5
1380
330
2
100
AcDbEntity
  8
PART
  6
SLD-SOLID
100
AcDbCircle
 10
8.066287757568963
 20
16.46850836548242
 30
0.0
 40
0.1099999999999969
100
AcDbArc
 50
172.2867023136096
 51
187.7132976863985
  0
LINE
  5
1381
330
2
100
AcDbEntity
  8
PART
  6
SLD-SOLID
100
AcDbLine
 10
7.957283029166656
 20
16.45374458595485
 30
0.0
 11
8.051523978041409
 21
16.45374458595486
 31
0.0
  0
LINE
  5
1382
330
2
100
AcDbEntity
  8
PART
  6
SLD-SOLID
100
AcDbLine
 10
8.051523978041409
 20
16.45374458595486
 30
0.0
 11
8.051523978041405
 21
16.35950363708011
 31
0.0
  0
ARC
  5
1383
330
2
100
AcDbEntity
  8
PART
  6
SLD-SOLID
100
AcDbCircle
 10
8.066287757568963
 20
16.46850836548242
 30
0.0
 40
0.1100000000000071
100
AcDbArc
 50
262.2867023136084
 51
277.7132976863978
  0
LINE
  5
1384
330
2
100
AcDbEntity
  8
PART
  6
SLD-SOLID
100
AcDbLine
 10
8.081051537096527
 20
16.35950363708011
 30
0.0
 11
8.081051537096529
 21
16.45374458595486
 31
0.0
  0
CIRCLE
  5
1385
330
2
100
AcDbEntity
  8
PART
  6
SLD-SOLID
100
AcDbCircle
 10
8.066287757568963
 20
16.46850836548242
 30
0.0
 40
0.1395
  0
LINE
  5
1386
330
2
100
AcDbEntity
  8
PART
  6
SLD-SOLID
100
AcDbLine
 10
8.067267924139644
 20
16.56471975986544
 30
0.0
 11
8.081051537096529
 21
16.57751309388474
 31
0.0
  0
ARC
  5
1387
330
2
100
AcDbEntity
  8
PART
  6
SLD-SOLID
100
AcDbCircle
 10
8.066287757568963
 20
16.46850836548242
 30
0.0
 40
0.0962163870431145
100
AcDbArc
 50
89.41631170287257
 51
90.58368829712005
  0
LINE
  5
1388
330
2
100
AcDbEntity
  8
PART
  6
SLD-SOLID
100
AcDbLine
 10
8.065307590998294
 20
16.56471975986544
 30
0.0
 11
8.05152397804141
 21
16.57751309388474
 31
0.0
  0
LINE
  5
1389
330
2
100
AcDbEntity
  8
PART
  6
SLD-SOLID
100
AcDbLine
 10
8.067267924139644
 20
16.46948853205309
 30
0.0
 11
8.081051537096524
 21
16.48327214500998
 31
0.0
  0
LINE
  5
138A
330
2
100
AcDbEntity
  8
PART
  6
SLD-SOLID
100
AcDbLine
 10
8.067267924139644
 20
16.46948853205309
 30
0.0
 11
8.067267924139644
 21
16.56471975986544
 31
0.0
  0
LINE
  5
138B
330
2
100
AcDbEntity
  8
PART
  6
SLD-SOLID
100
AcDbLine
 10
8.065307590998294
 20
16.56471975986544
 30
0.0
 11
8.065307590998294
 21
16.46948853205309
 31
0.0
  0
LINE
  5
138C
330
2
100
AcDbEntity
  8
PART
  6
SLD-SOLID
100
AcDbLine
 10
8.065307590998294
 20
16.46948853205309
 30
0.0
 11
8.051523978041409
 21
16.48327214500998
 31
0.0
  0
LINE
  5
138D
330
2
100
AcDbEntity
  8
PART
  6
SLD-SOLID
100
AcDbLine
 10
8.162499151951987
 20
16.4694885320531
 30
0.0
 11
8.175292485971274
 21
16.48327214500997
 31
0.0
  0
LINE
  5
138E
330
2
100
AcDbEntity
  8
PART
  6
SLD-SOLID
100
AcDbLine
 10
8.162499151951987
 20
16.4694885320531
 30
0.0
 11
8.067267924139644
 21
16.46948853205309
 31
0.0
  0
LINE
  5
138F
330
2
100
AcDbEntity
  8
PART
  6
SLD-SOLID
100
AcDbLine
 10
7.970076363185949
 20
16.4694885320531
 30
0.0
 11
7.957283029166656
 21
16.48327214500997
 31
0.0
  0
ARC
  5
1390
330
2
100
AcDbEntity
  8
PART
  6
SLD-SOLID
100
AcDbCircle
 10
8.066287757568963
 20
16.46850836548242
 30
0.0
 40
0.0962163870431136
100
AcDbArc
 50
179.4163117028756
 51
180.5836882971281
  0
LINE
  5
1391
330
2
100
AcDbEntity
  8
PART
  6
SLD-SOLID
100
AcDbLine
 10
7.970076363185953
 20
16.46752819891174
 30
0.0
 11
7.957283029166656
 21
16.45374458595485
 31
0.0
  0
LINE
  5
1392
330
2
100
AcDbEntity
  8
PART
  6
SLD-SOLID
100
AcDbLine
 10
8.16249915195198
 20
16.46752819891175
 30
0.0
 11
8.175292485971281
 21
16.45374458595486
 31
0.0
  0
ARC
  5
1393
330
2
100
AcDbEntity
  8
PART
  6
SLD-SOLID
100
AcDbCircle
 10
8.066287757568963
 20
16.46850836548242
 30
0.0
 40
0.0962163870431224
100
AcDbArc
 50
359.4163117028764
 51
0.5836882971241334
  0
LINE
  5
1394
330
2
100
AcDbEntity
  8
PART
  6
SLD-SOLID
100
AcDbLine
 10
8.065307590998294
 20
16.46948853205309
 30
0.0
 11
7.970076363185949
 21
16.4694885320531
 31
0.0
  0
LINE
  5
1395
330
2
100
AcDbEntity
  8
PART
  6
SLD-SOLID
100
AcDbLine
 10
7.970076363185953
 20
16.46752819891174
 30
0.0
 11
8.065307590998294
 21
16.46752819891175
 31
0.0
  0
LINE
  5
1396
330
2
100
AcDbEntity
  8
PART
  6
SLD-SOLID
100
AcDbLine
 10
8.065307590998294
 20
16.46752819891175
 30
0.0
 11
8.051523978041409
 21
16.45374458595486
 31
0.0
  0
LINE
  5
1397
330
2
100
AcDbEntity
  8
PART
  6
SLD-SOLID
100
AcDbLine
 10
8.067267924139638
 20
16.46752819891175
 30
0.0
 11
8.081051537096529
 21
16.45374458595486
 31
0.0
  0
LINE
  5
1398
330
2
100
AcDbEntity
  8
PART
  6
SLD-SOLID
100
AcDbLine
 10
8.067267924139638
 20
16.46752819891175
 30
0.0
 11
8.16249915195198
 21
16.46752819891175
 31
0.0
  0
LINE
  5
1399
330
2
100
AcDbEntity
  8
PART
  6
SLD-SOLID
100
AcDbLine
 10
8.065307590998294
 20
16.46752819891175
 30
0.0
 11
8.065307590998287
 21
16.3722969710994
 31
0.0
  0
LINE
  5
139A
330
2
100
AcDbEntity
  8
PART
  6
SLD-SOLID
100
AcDbLine
 10
8.065307590998287
 20
16.3722969710994
 30
0.0
 11
8.051523978041405
 21
16.35950363708011
 31
0.0
  0
LINE
  5
139B
330
2
100
AcDbEntity
  8
PART
  6
SLD-SOLID
100
AcDbLine
 10
8.067267924139644
 20
16.3722969710994
 30
0.0
 11
8.081051537096527
 21
16.35950363708011
 31
0.0
  0
LINE
  5
139C
330
2
100
AcDbEntity
  8
PART
  6
SLD-SOLID
100
AcDbLine
 10
8.067267924139644
 20
16.3722969710994
 30
0.0
 11
8.067267924139638
 21
16.46752819891175
 31
0.0
  0
ARC
  5
139D
330
2
100
AcDbEntity
  8
PART
  6
SLD-SOLID
100
AcDbCircle
 10
8.066287757568963
 20
16.46850836548242
 30
0.0
 40
0.0962163870431216
100
AcDbArc
 50
269.4163117028765
 51
270.5836882971282
  0
LINE
  5
139E
330
2
100
AcDbEntity
  8
PART
  6
SLD-SOLID
100
AcDbLine
 10
8.080664597817202
 20
16.98364919889256
 30
0.0
 11
8.078226216765369
 21
17.07785859727011
 31
0.0
  0
ARC
  5
139F
330
2
100
AcDbEntity
  8
PART
  6
SLD-SOLID
100
AcDbCircle
 10
8.066287757568947
 20
16.96850836548244
 30
0.0
 40
0.1100000000000074
100
AcDbArc
 50
83.76933314140625
 51
99.19592851419336
  0
LINE
  5
13A0
330
2
100
AcDbEntity
  8
PART
  6
SLD-SOLID
100
AcDbLine
 10
8.048708543106997
 20
17.07709460410825
 30
0.0
 11
8.051146924158832
 21
16.9828852057307
 31
0.0
  0
LINE
  5
13A1
330
2
100
AcDbEntity
  8
PART
  6
SLD-SOLID
100
AcDbLine
 10
8.051146924158832
 20
16.9828852057307
 30
0.0
 11
7.956937525781281
 21
16.98044682467887
 31
0.0
  0
ARC
  5
13A2
330
2
100
AcDbEntity
  8
PART
  6
SLD-SOLID
100
AcDbCircle
 10
8.066287757568947
 20
16.96850836548244
 30
0.0
 40
0.1100000000000034
100
AcDbArc
 50
173.7693331414041
 51
189.1959285141924
  0
LINE
  5
13A3
330
2
100
AcDbEntity
  8
PART
  6
SLD-SOLID
100
AcDbLine
 10
7.957701518943139
 20
16.9509291510205
 30
0.0
 11
8.051910917320688
 21
16.95336753207233
 31
0.0
  0
LINE
  5
13A4
330
2
100
AcDbEntity
  8
PART
  6
SLD-SOLID
100
AcDbLine
 10
8.051910917320688
 20
16.95336753207233
 30
0.0
 11
8.054349298372528
 21
16.85915813369479
 31
0.0
  0
ARC
  5
13A5
330
2
100
AcDbEntity
  8
PART
  6
SLD-SOLID
100
AcDbCircle
 10
8.066287757568947
 20
16.96850836548244
 30
0.0
 40
0.109999999999998
100
AcDbArc
 50
263.76933314141
 51
279.1959285141986
  0
LINE
  5
13A6
330
2
100
AcDbEntity
  8
PART
  6
SLD-SOLID
100
AcDbLine
 10
8.083866972030902
 20
16.85992212685663
 30
0.0
 11
8.081428590979061
 21
16.95413152523419
 31
0.0
  0
LINE
  5
13A7
330
2
100
AcDbEntity
  8
PART
  6
SLD-SOLID
100
AcDbLine
 10
8.081428590979061
 20
16.95413152523419
 30
0.0
 11
8.175637989356614
 21
16.95656990628602
 31
0.0
  0
ARC
  5
13A8
330
2
100
AcDbEntity
  8
PART
  6
SLD-SOLID
100
AcDbCircle
 10
8.066287757568947
 20
16.96850836548244
 30
0.0
 40
0.1100000000000062
100
AcDbArc
 50
353.7693331414088
 51
9.195928514197992
  0
LINE
  5
13A9
330
2
100
AcDbEntity
  8
PART
  6
SLD-SOLID
100
AcDbLine
 10
8.174873996194751
 20
16.9860875799444
 30
0.0
 11
8.080664597817202
 21
16.98364919889256
 31
0.0
  0
LINE
  5
13AA
330
2
100
AcDbEntity
  8
PART
  6
SLD-SOLID
100
AcDbLine
 10
8.067242235260579
 20
16.96951356464117
 30
0.0
 11
8.080664597817202
 21
16.98364919889256
 31
0.0
  0
LINE
  5
13AB
330
2
100
AcDbEntity
  8
PART
  6
SLD-SOLID
100
AcDbLine
 10
8.067242235260579
 20
16.96951356464117
 30
0.0
 11
8.065307590998276
 21
17.04426056609494
 31
0.0
  0
LINE
  5
13AC
330
2
100
AcDbEntity
  8
PART
  6
SLD-SOLID
100
AcDbLine
 10
8.06504361241425
 20
17.06497232550406
 30
0.0
 11
8.078226216765369
 21
17.07785859727011
 31
0.0
  0
LINE
  5
13AD
330
2
100
AcDbEntity
  8
PART
  6
SLD-SOLID
100
AcDbLine
 10
8.065281893516093
 20
16.96948853205314
 30
0.0
 11
8.065282558410221
 21
16.96946284317408
 31
0.0
  0
LINE
  5
13AE
330
2
100
AcDbEntity
  8
PART
  6
SLD-SOLID
100
AcDbLine
 10
8.065282558410221
 20
16.96946284317408
 30
0.0
 11
8.051146924158832
 21
16.9828852057307
 31
0.0
  0
LINE
  5
13AF
330
2
100
AcDbEntity
  8
PART
  6
SLD-SOLID
100
AcDbLine
 10
8.162751717590554
 20
16.96975251063715
 30
0.0
 11
8.175637989356614
 21
16.95656990628602
 31
0.0
  0
LINE
  5
13B0
330
2
100
AcDbEntity
  8
PART
  6
SLD-SOLID
100
AcDbLine
 10
8.067267924139628
 20
16.9695142295353
 30
0.0
 11
8.067242235260579
 21
16.96951356464117
 31
0.0
  0
LINE
  5
13B1
330
2
100
AcDbEntity
  8
PART
  6
SLD-SOLID
100
AcDbLine
 10
8.065282558410221
 20
16.96946284317408
 30
0.0
 11
7.99053555695681
 21
16.96752819891178
 31
0.0
  0
LINE
  5
13B2
330
2
100
AcDbEntity
  8
PART
  6
SLD-SOLID
100
AcDbLine
 10
7.96982379754732
 20
16.96726422032776
 30
0.0
 11
7.956937525781281
 21
16.98044682467887
 31
0.0
  0
LINE
  5
13B3
330
2
100
AcDbEntity
  8
PART
  6
SLD-SOLID
100
AcDbLine
 10
8.067292956727673
 20
16.96755388779081
 30
0.0
 11
8.081428590979061
 21
16.95413152523419
 31
0.0
  0
LINE
  5
13B4
330
2
100
AcDbEntity
  8
PART
  6
SLD-SOLID
100
AcDbLine
 10
8.067292956727673
 20
16.96755388779081
 30
0.0
 11
8.142039958182348
 21
16.96948853205314
 31
0.0
  0
LINE
  5
13B5
330
2
100
AcDbEntity
  8
PART
  6
SLD-SOLID
100
AcDbLine
 10
8.067293621621807
 20
16.96752819891179
 30
0.0
 11
8.067292956727673
 21
16.96755388779081
 31
0.0
  0
LINE
  5
13B6
330
2
100
AcDbEntity
  8
PART
  6
SLD-SOLID
100
AcDbLine
 10
8.065307590998273
 20
16.96750250142958
 30
0.0
 11
8.065333279877314
 21
16.96750316632372
 31
0.0
  0
LINE
  5
13B7
330
2
100
AcDbEntity
  8
PART
  6
SLD-SOLID
100
AcDbLine
 10
8.065333279877314
 20
16.96750316632372
 30
0.0
 11
8.051910917320688
 21
16.95336753207233
 31
0.0
  0
LINE
  5
13B8
330
2
100
AcDbEntity
  8
PART
  6
SLD-SOLID
100
AcDbLine
 10
8.065333279877314
 20
16.96750316632372
 30
0.0
 11
8.067267924139628
 21
16.8927561648698
 31
0.0
  0
LINE
  5
13B9
330
2
100
AcDbEntity
  8
PART
  6
SLD-SOLID
100
AcDbLine
 10
8.067531902723636
 20
16.87204440546082
 30
0.0
 11
8.054349298372528
 21
16.85915813369479
 31
0.0
  0
ARC
  5
13BA
330
2
100
AcDbEntity
  8
PART
  6
SLD-SOLID
100
AcDbCircle
 10
8.066287757568947
 20
17.84350836548244
 30
0.0
 40
0.4000000000000004
100
AcDbArc
 50
0.0
 51
180.0
  0
LINE
  5
13BB
330
2
100
AcDbEntity
  8
PART
  6
SLD-SOLID
100
AcDbLine
 10
7.666287757568944
 20
17.84350836548244
 30
0.0
 11
7.616287757568946
 21
17.84350836548244
 31
0.0
  0
ARC
  5
13BC
330
2
100
AcDbEntity
  8
PART
  6
SLD-SOLID
100
AcDbCircle
 10
8.066287757568947
 20
17.84350836548244
 30
0.0
 40
0.4500000000000002
100
AcDbArc
 50
0.0
 51
180.0
  0
LINE
  5
13BD
330
2
100
AcDbEntity
  8
PART
  6
SLD-SOLID
100
AcDbLine
 10
8.466287757568945
 20
17.84350836548244
 30
0.0
 11
8.516287757568946
 21
17.84350836548244
 31
0.0
  0
LINE
  5
13BE
330
2
100
AcDbEntity
  8
PART
  6
SLD-SOLID
100
AcDbLine
 10
7.666287757568944
 20
16.21850836548244
 30
0.0
 11
8.466287757568945
 21
16.21850836548244
 31
0.0
  0
LINE
  5
13BF
330
2
100
AcDbEntity
  8
PART
  6
SLD-SOLID
100
AcDbLine
 10
7.916287757568946
 20
17.87350836548244
 30
0.0
 11
7.916287757568946
 21
17.81350836548244
 31
0.0
  0
ARC
  5
13C0
330
2
100
AcDbEntity
  8
PART
  6
SLD-SOLID
100
AcDbCircle
 10
7.946287757568946
 20
17.81350836548244
 30
0.0
 40
0.0299999999999994
100
AcDbArc
 50
180.0
 51
270.0000000000008
  0
LINE
  5
13C1
330
2
100
AcDbEntity
  8
PART
  6
SLD-SOLID
100
AcDbLine
 10
7.946287757568946
 20
17.78350836548244
 30
0.0
 11
8.186287757568944
 21
17.78350836548244
 31
0.0
  0
ARC
  5
13C2
330
2
100
AcDbEntity
  8
PART
  6
SLD-SOLID
100
AcDbCircle
 10
8.186287757568944
 20
17.81350836548244
 30
0.0
 40
0.0300000000000011
100
AcDbArc
 50
270.0000000000008
 51
0.0
  0
LINE
  5
13C3
330
2
100
AcDbEntity
  8
PART
  6
SLD-SOLID
100
AcDbLine
 10
8.216287757568945
 20
17.81350836548244
 30
0.0
 11
8.216287757568945
 21
17.87350836548244
 31
0.0
  0
ARC
  5
13C4
330
2
100
AcDbEntity
  8
PART
  6
SLD-SOLID
100
AcDbCircle
 10
8.186287757568944
 20
17.87350836548244
 30
0.0
 40
0.0300000000000011
100
AcDbArc
 50
0.0
 51
90.0
  0
LINE
  5
13C5
330
2
100
AcDbEntity
  8
PART
  6
SLD-SOLID
100
AcDbLine
 10
8.186287757568944
 20
17.90350836548243
 30
0.0
 11
7.946287757568946
 21
17.90350836548243
 31
0.0
  0
ARC
  5
13C6
330
2
100
AcDbEntity
  8
PART
  6
SLD-SOLID
100
AcDbCircle
 10
7.946287757568946
 20
17.87350836548244
 30
0.0
 40
0.0299999999999994
100
AcDbArc
 50
90.0
 51
180.0
  0
LINE
  5
13C7
330
2
100
AcDbEntity
  8
PART
  6
SLD-SOLID
100
AcDbLine
 10
7.666287757568944
 20
16.21850836548244
 30
0.0
 11
7.616287757568946
 21
16.21850836548244
 31
0.0
  0
LINE
  5
13C8
330
2
100
AcDbEntity
  8
PART
  6
SLD-SOLID
100
AcDbLine
 10
7.616287757568946
 20
16.21850836548244
 30
0.0
 11
7.616287757568946
 21
16.97850836548133
 31
0.0
  0
LINE
  5
13C9
330
2
100
AcDbEntity
  8
PART
  6
SLD-SOLID
100
AcDbLine
 10
7.616287757568946
 20
17.21850836548259
 30
0.0
 11
7.616287757568946
 21
17.84350836548244
 31
0.0
  0
LINE
  5
13CA
330
2
100
AcDbEntity
  8
PART
  6
SLD-SOLID
100
AcDbLine
 10
8.516287757568946
 20
17.84350836548244
 30
0.0
 11
8.516287757568946
 21
17.21850836548259
 31
0.0
  0
LINE
  5
13CB
330
2
100
AcDbEntity
  8
PART
  6
SLD-SOLID
100
AcDbLine
 10
8.516287757568946
 20
16.97850836548131
 30
0.0
 11
8.516287757568946
 21
16.21850836548244
 31
0.0
  0
LINE
  5
13CC
330
2
100
AcDbEntity
  8
PART
  6
SLD-SOLID
100
AcDbLine
 10
8.516287757568946
 20
16.21850836548244
 30
0.0
 11
8.466287757568945
 21
16.21850836548244
 31
0.0
  0
LINE
  5
13CD
330
2
100
AcDbEntity
  8
PART
  6
SLD-SOLID
100
AcDbLine
 10
15.98597279693913
 20
12.33699737259327
 30
0.0
 11
6.066287757568893
 21
12.33699737259327
 31
0.0
  0
LINE
  5
13CE
330
2
100
AcDbEntity
  8
PART
  6
SLD-SOLID
100
AcDbLine
 10
15.98597279693913
 20
12.35556472938245
 30
0.0
 11
6.066287757568893
 21
12.35556472938245
 31
0.0
  0
LINE
  5
13CF
330
2
100
AcDbEntity
  8
PART
  6
SLD-SOLID
100
AcDbLine
 10
6.066287757568893
 20
12.35556472938245
 30
0.0
 11
6.066287757568893
 21
12.33699737259327
 31
0.0
  0
LINE
  5
13D0
330
2
100
AcDbEntity
  8
PART
  6
SLD-SOLID
100
AcDbLine
 10
15.98597279693913
 20
12.33699737259327
 30
0.0
 11
15.98597279693913
 21
12.35556472938245
 31
0.0
  0
LINE
  5
13D1
330
2
100
AcDbEntity
  8
PART
  6
SLD-SOLID
100
AcDbLine
 10
15.98597279693913
 20
12.32999737259326
 30
0.0
 11
6.066287757568893
 21
12.32999737259326
 31
0.0
  0
LINE
  5
13D2
330
2
100
AcDbEntity
  8
PART
  6
SLD-SOLID
100
AcDbLine
 10
6.066287757568893
 20
12.33699737259327
 30
0.0
 11
6.066287757568893
 21
12.32999737259326
 31
0.0
  0
LINE
  5
13D3
330
2
100
AcDbEntity
  8
PART
  6
SLD-SOLID
100
AcDbLine
 10
15.98597279693913
 20
12.32999737259326
 30
0.0
 11
15.98597279693913
 21
12.33699737259327
 31
0.0
  0
LINE
  5
13D4
330
2
100
AcDbEntity
  8
PART
  6
SLD-SOLID
100
AcDbLine
 10
6.066287757568893
 20
12.36492429823049
 30
0.0
 11
15.98597279693913
 21
12.36492429823049
 31
0.0
  0
LINE
  5
13D5
330
2
100
AcDbEntity
  8
PART
  6
SLD-SOLID
100
AcDbLine
 10
6.066287757568893
 20
12.35556472938245
 30
0.0
 11
6.066287757568893
 21
12.36492429823049
 31
0.0
  0
LINE
  5
13D6
330
2
100
AcDbEntity
  8
PART
  6
SLD-SOLID
100
AcDbLine
 10
15.98597279693913
 20
12.36492429823049
 30
0.0
 11
15.98597279693913
 21
12.35556472938245
 31
0.0
  0
CIRCLE
  5
13D7
330
2
100
AcDbEntity
  8
PART
  6
SLD-SOLID
100
AcDbCircle
 10
14.92691767882889
 20
13.14132332611091
 30
0.0
 40
0.0847500000000015
  0
CIRCLE
  5
13D8
330
2
100
AcDbEntity
  8
PART
  6
SLD-SOLID
100
AcDbCircle
 10
7.125382245757872
 20
13.14132332611091
 30
0.0
 40
0.0847500000000015
  0
LINE
  5
13D9
330
2
100
AcDbEntity
  8
PART
  6
SLD-SOLID
100
AcDbLine
 10
14.17077112098915
 20
13.2249408359377
 30
0.0
 11
13.99408785480881
 21
13.2249408359377
 31
0.0
  0
ARC
  5
13DA
330
2
100
AcDbEntity
  8
PART
  6
SLD-SOLID
100
AcDbCircle
 10
13.97042353567641
 20
13.1939408359377
 30
0.0
 40
0.0390000000000004
100
AcDbArc
 50
52.64314802709321
 51
187.3568519729079
  0
LINE
  5
13DB
330
2
100
AcDbEntity
  8
PART
  6
SLD-SOLID
100
AcDbLine
 10
13.9317445885929
 20
13.18894693440578
 30
0.0
 11
13.84340295550273
 21
13.03593473747
 31
0.0
  0
ARC
  5
13DC
330
2
100
AcDbEntity
  8
PART
  6
SLD-SOLID
100
AcDbCircle
 10
13.85841758345384
 20
12.99994083593807
 30
0.0
 40
0.039000000000001
100
AcDbArc
 50
112.643148027096
 51
247.3568519729057
  0
LINE
  5
13DD
330
2
100
AcDbEntity
  8
PART
  6
SLD-SOLID
100
AcDbLine
 10
13.84340295550273
 20
12.96394693440616
 30
0.0
 11
13.9317445885929
 21
12.81093473747037
 31
0.0
  0
ARC
  5
13DE
330
2
100
AcDbEntity
  8
PART
  6
SLD-SOLID
100
AcDbCircle
 10
13.97042353567641
 20
12.80594083593845
 30
0.0
 40
0.0390000000000004
100
AcDbArc
 50
172.6431480270955
 51
307.3568519729075
  0
LINE
  5
13DF
330
2
100
AcDbEntity
  8
PART
  6
SLD-SOLID
100
AcDbLine
 10
13.99408785480881
 20
12.77494083593845
 30
0.0
 11
14.17077112098915
 21
12.77494083593845
 31
0.0
  0
ARC
  5
13E0
330
2
100
AcDbEntity
  8
PART
  6
SLD-SOLID
100
AcDbCircle
 10
14.19443544012155
 20
12.80594083593845
 30
0.0
 40
0.0390000000000015
100
AcDbArc
 50
232.6431480270919
 51
7.356851972904415
  0
LINE
  5
13E1
330
2
100
AcDbEntity
  8
PART
  6
SLD-SOLID
100
AcDbLine
 10
14.23311438720507
 20
12.81093473747037
 30
0.0
 11
14.32145602029524
 21
12.96394693440616
 31
0.0
  0
ARC
  5
13E2
330
2
100
AcDbEntity
  8
PART
  6
SLD-SOLID
100
AcDbCircle
 10
14.30644139234412
 20
12.99994083593807
 30
0.0
 40
0.039000000000002
100
AcDbArc
 50
292.6431480270957
 51
67.35685197290843
  0
LINE
  5
13E3
330
2
100
AcDbEntity
  8
PART
  6
SLD-SOLID
100
AcDbLine
 10
14.32145602029524
 20
13.03593473747
 30
0.0
 11
14.23311438720507
 21
13.18894693440577
 31
0.0
  0
ARC
  5
13E4
330
2
100
AcDbEntity
  8
PART
  6
SLD-SOLID
100
AcDbCircle
 10
14.19443544012155
 20
13.1939408359377
 30
0.0
 40
0.0390000000000005
100
AcDbArc
 50
352.6431480270885
 51
127.3568519729068
  0
LINE
  5
13E5
330
2
100
AcDbEntity
  8
PART
  6
SLD-SOLID
100
AcDbLine
 10
7.819146167302985
 20
13.18894693440578
 30
0.0
 11
7.730804534212815
 21
13.03593473747
 31
0.0
  0
ARC
  5
13E6
330
2
100
AcDbEntity
  8
PART
  6
SLD-SOLID
100
AcDbCircle
 10
7.745819162163931
 20
12.99994083593807
 30
0.0
 40
0.039
100
AcDbArc
 50
112.6431480270936
 51
247.3568519729094
  0
LINE
  5
13E7
330
2
100
AcDbEntity
  8
PART
  6
SLD-SOLID
100
AcDbLine
 10
7.730804534212815
 20
12.96394693440616
 30
0.0
 11
7.819146167302985
 21
12.81093473747037
 31
0.0
  0
ARC
  5
13E8
330
2
100
AcDbEntity
  8
PART
  6
SLD-SOLID
100
AcDbCircle
 10
7.8578251143865
 20
12.80594083593845
 30
0.0
 40
0.0389999999999998
100
AcDbArc
 50
172.6431480270951
 51
307.3568519729064
  0
LINE
  5
13E9
330
2
100
AcDbEntity
  8
PART
  6
SLD-SOLID
100
AcDbLine
 10
7.8814894335189
 20
12.77494083593845
 30
0.0
 11
8.058172699699243
 21
12.77494083593845
 31
0.0
  0
ARC
  5
13EA
330
2
100
AcDbEntity
  8
PART
  6
SLD-SOLID
100
AcDbCircle
 10
8.081837018831643
 20
12.80594083593845
 30
0.0
 40
0.0390000000000007
100
AcDbArc
 50
232.6431480270939
 51
7.356851972904212
  0
LINE
  5
13EB
330
2
100
AcDbEntity
  8
PART
  6
SLD-SOLID
100
AcDbLine
 10
8.12051596591516
 20
12.81093473747037
 30
0.0
 11
8.20885759900533
 21
12.96394693440616
 31
0.0
  0
ARC
  5
13EC
330
2
100
AcDbEntity
  8
PART
  6
SLD-SOLID
100
AcDbCircle
 10
8.193842971054213
 20
12.99994083593807
 30
0.0
 40
0.0390000000000007
100
AcDbArc
 50
292.6431480270945
 51
67.35685197290059
  0
LINE
  5
13ED
330
2
100
AcDbEntity
  8
PART
  6
SLD-SOLID
100
AcDbLine
 10
8.208857599005334
 20
13.03593473747
 30
0.0
 11
8.12051596591516
 21
13.18894693440578
 31
0.0
  0
ARC
  5
13EE
330
2
100
AcDbEntity
  8
PART
  6
SLD-SOLID
100
AcDbCircle
 10
8.081837018831643
 20
13.1939408359377
 30
0.0
 40
0.0390000000000004
100
AcDbArc
 50
352.6431480270962
 51
127.3568519729068
  0
LINE
  5
13EF
330
2
100
AcDbEntity
  8
PART
  6
SLD-SOLID
100
AcDbLine
 10
8.058172699699243
 20
13.2249408359377
 30
0.0
 11
7.8814894335189
 21
13.2249408359377
 31
0.0
  0
ARC
  5
13F0
330
2
100
AcDbEntity
  8
PART
  6
SLD-SOLID
100
AcDbCircle
 10
7.857825114386502
 20
13.1939408359377
 30
0.0
 40
0.0390000000000007
100
AcDbArc
 50
52.64314802709526
 51
187.3568519729049
  0
CIRCLE
  5
13F1
330
2
100
AcDbEntity
  8
PART
  6
SLD-SOLID
100
AcDbCircle
 10
15.52421167068716
 20
13.08465009776445
 30
0.0
 40
0.1670000000000851
  0
CIRCLE
  5
13F2
330
2
100
AcDbEntity
  8
PART
  6
SLD-SOLID
100
AcDbCircle
 10
6.528048883820861
 20
13.08465009776445
 30
0.0
 40
0.1670000000000851
  0
LINE
  5
13F3
330
2
100
AcDbEntity
  8
PART
  6
SLD-SOLID
100
AcDbLine
 10
10.62938420366389
 20
17.21850836548259
 30
0.0
 11
10.62938420366389
 21
16.97850836548133
 31
0.0
  0
LINE
  5
13F4
330
2
100
AcDbEntity
  8
PART
  6
SLD-SOLID
100
AcDbLine
 10
10.62938420366389
 20
16.97850836548133
 30
0.0
 11
9.54235200782722
 21
16.9785083654813
 31
0.0
  0
ARC
  5
13F5
330
2
100
AcDbEntity
  8
PART
  6
SLD-SOLID
100
AcDbCircle
 10
9.54235200782722
 20
17.0610280505207
 30
0.0
 40
0.0825196850394288
100
AcDbArc
 50
221.0637497422375
 51
270.0000000000008
  0
ARC
  5
13F6
330
2
100
AcDbEntity
  8
PART
  6
SLD-SOLID
100
AcDbCircle
 10
9.379673584340608
 20
16.91929576705613
 30
0.0
 40
0.1332401574803747
100
AcDbArc
 50
41.06374974224448
 51
138.9362502577555
  0
ARC
  5
13F7
330
2
100
AcDbEntity
  8
PART
  6
SLD-SOLID
100
AcDbCircle
 10
9.216995160853993
 20
17.0610280505207
 30
0.0
 40
0.0825196850394302
100
AcDbArc
 50
270.0000000000008
 51
318.9362502577649
  0
LINE
  5
13F8
330
2
100
AcDbEntity
  8
PART
  6
SLD-SOLID
100
AcDbLine
 10
9.216995160853993
 20
16.97850836548127
 30
0.0
 11
8.279922960661057
 21
16.97850836548133
 31
0.0
  0
ARC
  5
13F9
330
2
100
AcDbEntity
  8
PART
  6
SLD-SOLID
100
AcDbCircle
 10
8.279922960661057
 20
17.06150836548133
 30
0.0
 40
0.083000000000002
100
AcDbArc
 50
203.524528642208
 51
270.0000000000008
  0
ARC
  5
13FA
330
2
100
AcDbEntity
  8
PART
  6
SLD-SOLID
100
AcDbCircle
 10
8.066287757568932
 20
16.96850836548247
 30
0.0
 40
0.1499999999999998
100
AcDbArc
 50
23.52452864218022
 51
156.4754713578109
  0
ARC
  5
13FB
330
2
100
AcDbEntity
  8
PART
  6
SLD-SOLID
100
AcDbCircle
 10
7.852652554476808
 20
17.06150836548133
 30
0.0
 40
0.0830000000000002
100
AcDbArc
 50
270.0000000000008
 51
336.4754713578106
  0
LINE
  5
13FC
330
2
100
AcDbEntity
  8
PART
  6
SLD-SOLID
100
AcDbLine
 10
7.852652554476808
 20
16.97850836548133
 30
0.0
 11
7.098599313851831
 21
16.97850836548133
 31
0.0
  0
ARC
  5
13FD
330
2
100
AcDbEntity
  8
PART
  6
SLD-SOLID
100
AcDbCircle
 10
6.931642088277556
 20
16.9822878930401
 30
0.0
 40
0.1670000000000839
100
AcDbArc
 50
358.7031768366733
 51
266.1610205668607
  0
LINE
  5
13FE
330
2
100
AcDbEntity
  8
PART
  6
SLD-SOLID
100
AcDbLine
 10
6.920460985915351
 20
16.81566261599609
 30
0.0
 11
6.920460985915351
 21
13.69768159382773
 31
0.0
  0
ARC
  5
13FF
330
2
100
AcDbEntity
  8
PART
  6
SLD-SOLID
100
AcDbCircle
 10
7.058571222135823
 20
13.69768159382773
 30
0.0
 40
0.1381102362204842
100
AcDbArc
 50
180.0
 51
270.0000000000008
  0
LINE
  5
1400
330
2
100
AcDbEntity
  8
PART
  6
SLD-SOLID
100
AcDbLine
 10
7.058571222135823
 20
13.55957135760725
 30
0.0
 11
14.9936893323722
 21
13.55957135760725
 31
0.0
  0
ARC
  5
1401
330
2
100
AcDbEntity
  8
PART
  6
SLD-SOLID
100
AcDbCircle
 10
14.9936893323722
 20
13.69768159382773
 30
0.0
 40
0.1381102362204807
100
AcDbArc
 50
270.0000000000008
 51
0.0
  0
LINE
  5
1402
330
2
100
AcDbEntity
  8
PART
  6
SLD-SOLID
100
AcDbLine
 10
15.13179956859267
 20
13.69768159382773
 30
0.0
 11
15.13179956859267
 21
16.81566261599609
 31
0.0
  0
ARC
  5
1403
330
2
100
AcDbEntity
  8
PART
  6
SLD-SOLID
100
AcDbCircle
 10
15.12061846623047
 20
16.9822878930401
 30
0.0
 40
0.1670000000000837
100
AcDbArc
 50
273.83897943314
 51
181.2968231633282
  0
LINE
  5
1404
330
2
100
AcDbEntity
  8
PART
  6
SLD-SOLID
100
AcDbLine
 10
14.95366124065619
 20
16.97850836548133
 30
0.0
 11
14.77857248026826
 21
16.9785083654813
 31
0.0
  0
ARC
  5
1405
330
2
100
AcDbEntity
  8
PART
  6
SLD-SOLID
100
AcDbCircle
 10
14.77857248026826
 20
17.0610280505207
 30
0.0
 40
0.0825196850394596
100
AcDbArc
 50
221.0637497422188
 51
270.0000000000008
  0
ARC
  5
1406
330
2
100
AcDbEntity
  8
PART
  6
SLD-SOLID
100
AcDbCircle
 10
14.61589405678161
 20
16.91929576705613
 30
0.0
 40
0.1332401574803771
100
AcDbArc
 50
41.06374974224448
 51
138.9362502577625
  0
ARC
  5
1407
330
2
100
AcDbEntity
  8
PART
  6
SLD-SOLID
100
AcDbCircle
 10
14.453215633295
 20
17.0610280505207
 30
0.0
 40
0.0825196850394292
100
AcDbArc
 50
270.0000000000008
 51
318.9362502577536
  0
LINE
  5
1408
330
2
100
AcDbEntity
  8
PART
  6
SLD-SOLID
100
AcDbLine
 10
14.453215633295
 20
16.97850836548127
 30
0.0
 11
11.42287635084417
 21
16.97850836548133
 31
0.0
  0
LINE
  5
1409
330
2
100
AcDbEntity
  8
PART
  6
SLD-SOLID
100
AcDbLine
 10
11.42287635084417
 20
17.21850836548259
 30
0.0
 11
11.42287635084417
 21
16.97850836548133
 31
0.0
  0
SPLINE
  5
140A
330
2
100
AcDbEntity
  8
PART
  6
SLD-SOLID
100
AcDbSpline
210
0.0
220
0.0
230
1.0
 70
     8
 71
     3
 72
    67
 73
    63
 74
     0
 42
0.0000000001
 43
0.0000000001
 40
0.0
 40
0.0
 40
0.0
 40
0.0
 40
0.021629366031009
 40
0.0429036354412167
 40
0.0638228082308347
 40
0.0843868844000854
 40
0.1045958639492029
 40
0.1244497468784335
 40
0.1428438826956064
 40
0.1609223448650311
 40
0.1786851333869497
 40
0.1961322482616177
 40
0.2132636894893045
 40
0.2320108404217057
 40
0.2503647833881973
 40
0.2683255183892265
 40
0.2858930454252705
 40
0.3030673644968395
 40
0.3198484756044792
 40
0.3362363787487749
 40
0.3522310739303548
 40
0.3678325611498952
 40
0.3830408404081241
 40
0.3978559117058281
 40
0.4122777750438575
 40
0.4263064304231344
 40
0.4399418778446611
 40
0.4531841173095283
 40
0.4660331488189273
 40
0.4758529690165793
 40
0.4854300434881119
 40
0.4947643722342662
 40
0.5038837683301879
 40
0.51314568871923
 40
0.5226524756718739
 40
0.5324041291887453
 40
0.5424006492704237
 40
0.5554776388697622
 40
0.5689512718321675
 40
0.5828215481585738
 40
0.5970884678498373
 40
0.6117520309067448
 40
0.6268122373300209
 40
0.6422690871203344
 40
0.6581225802783041
 40
0.675156426428321
 40
0.6926255909241258
 40
0.7105300737662849
 40
0.7288698749553242
 40
0.7476449944917335
 40
0.7668554323759688
 40
0.7865011886084564
 40
0.806582263189594
 40
0.8270986561197551
 40
0.8480503673992888
 40
0.8694373970285237
 40
0.8912597450077685
 40
0.912233817746593
 40
0.9335948796150164
 40
0.9553429306132564
 40
0.9774779707415191
 40
1.0
 40
1.0
 40
1.0
 40
1.0
 10
15.37179956859251
 20
17.21850836548259
 30
0.0
 10
15.3762217378236
 20
17.18498973422006
 30
0.0
 10
15.38499347603721
 20
17.11850275840604
 30
0.0
 10
15.39804256837059
 20
17.01959777559645
 30
0.0
 10
15.41087414458346
 20
16.92234369047174
 30
0.0
 10
15.42348823100192
 20
16.82674050650515
 30
0.0
 10
15.43588482074327
 20
16.73278822278862
 30
0.0
 10
15.44783803798222
 20
16.64219869224381
 30
0.0
 10
15.45935592200547
 20
16.55491081906815
 30
0.0
 10
15.47044651208607
 20
16.47086350745714
 30
0.0
 10
15.48134375331056
 20
16.38828381264166
 30
0.0
 10
15.49204764568008
 20
16.30717173462184
 30
0.0
 10
15.50295317228301
 20
16.22453425830529
 30
0.0
 10
15.51404452088637
 20
16.14049154245809
 30
0.0
 10
15.52530588422466
 20
16.05516374650235
 30
0.0
 10
15.53632640917308
 20
15.97166403666848
 30
0.0
 10
15.5471060957164
 20
15.88999241295445
 30
0.0
 10
15.55764494384028
 20
15.81014887535834
 30
0.0
 10
15.56794295352844
 20
15.73213342387801
 30
0.0
 10
15.57800012476314
 20
15.6559460585111
 30
0.0
 10
15.58781645752487
 20
15.58158677925503
 30
0.0
 10
15.59739195179212
 20
15.50905558610692
 30
0.0
 10
15.60672660754116
 20
15.43835247906363
 30
0.0
 10
15.6158204247456
 20
15.36947745812166
 30
0.0
 10
15.62467340337656
 20
15.30243052327715
 30
0.0
 10
15.63328554340035
 20
15.23721167452565
 30
0.0
 10
15.64165684478479
 20
15.17382091186286
 30
0.0
 10
15.64978730747441
 20
15.11225823528143
 30
0.0
 10
15.65713740766486
 20
15.05660853322946
 30
0.0
 10
15.66373780467652
 20
15.00663862355133
 30
0.0
 10
15.66961916167051
 20
14.96211532459614
 30
0.0
 10
15.67535752896296
 20
14.91867748822171
 30
0.0
 10
15.68103179645049
 20
14.87572808448708
 30
0.0
 10
15.68674175685331
 20
14.83251148270331
 30
0.0
 10
15.6925815353518
 20
14.78831515608925
 30
0.0
 10
15.69857208755499
 20
14.74298051087045
 30
0.0
 10
15.70529409385846
 20
14.69211338874817
 30
0.0
 10
15.71277875673391
 20
14.63547860665096
 30
0.0
 10
15.72105728093164
 20
14.5728409818105
 30
0.0
 10
15.72958003304299
 20
14.5083594689073
 30
0.0
 10
15.73834701308851
 20
14.44203406794407
 30
0.0
 10
15.74735822110396
 20
14.3738647789255
 30
0.0
 10
15.75661365711693
 20
14.30385160185523
 30
0.0
 10
15.76611332115191
 20
14.23199453673646
 30
0.0
 10
15.77601777473863
 20
14.15707912680299
 30
0.0
 10
15.78633496710896
 20
14.07904544371064
 30
0.0
 10
15.79707284610271
 20
13.99783355893154
 30
0.0
 10
15.80807876680229
 20
13.91459799657516
 30
0.0
 10
15.81935272922534
 20
13.82933875664383
 30
0.0
 10
15.83089473339001
 20
13.74205583913993
 30
0.0
 10
15.8427047793122
 20
13.65274924406555
 30
0.0
 10
15.85478286700673
 20
13.56141897142266
 30
0.0
 10
15.86712899648642
 20
13.46806502121292
 30
0.0
 10
15.87974316776587
 20
13.37268739343827
 30
0.0
 10
15.89262538084738
 20
13.27528608809901
 30
0.0
 10
15.90577563577581
 20
13.17586110520106
 30
0.0
 10
15.91893084372646
 20
13.07640151957459
 30
0.0
 10
15.93208107467105
 20
12.97698221964635
 30
0.0
 10
15.94521639830754
 20
12.87767809380667
 30
0.0
 10
15.9585900110175
 20
12.77657496062347
 30
0.0
 10
15.97220188707276
 20
12.67367281669332
 30
0.0
 10
15.98135605093956
 20
12.60447173815298
 30
0.0
 10
15.98597279693916
 20
12.56957135760838
 30
0.0
  0
SPLINE
  5
140B
330
2
100
AcDbEntity
  8
PART
  6
SLD-SOLID
100
AcDbSpline
210
0.0
220
0.0
230
1.0
 70
     8
 71
     3
 72
     9
 73
     5
 74
     0
 42
0.0000000001
 43
0.0000000001
 40
0.0
 40
0.0
 40
0.0
 40
0.0
 40
0.5000000003280512
 40
1.0
 40
1.0
 40
1.0
 40
1.0
 10
6.0662877575689
 20
12.56957135760855
 30
0.0
 10
6.16878443199417
 20
13.3443764279168
 30
0.0
 10
6.373777780710215
 20
14.89398656751659
 30
0.0
 10
6.578233250891811
 20
16.44366776649951
 30
0.0
 10
6.680460985915537
 20
17.21850836548259
 30
0.0
  0
LINE
  5
140C
330
2
100
AcDbEntity
  8
PART
  6
SLD-SOLID
100
AcDbLine
 10
11.42287635084417
 20
17.21850836548259
 30
0.0
 11
15.37179956859251
 21
17.21850836548259
 31
0.0
  0
LINE
  5
140D
330
2
100
AcDbEntity
  8
PART
  6
SLD-SOLID
100
AcDbLine
 10
6.680460985915519
 20
17.21850836548259
 30
0.0
 11
10.62938420366389
 21
17.21850836548259
 31
0.0
  0
LINE
  5
140E
330
2
100
AcDbEntity
  8
PART
  6
SLD-SOLID
100
AcDbLine
 10
6.066287757568893
 20
12.36492429823049
 30
0.0
 11
6.066287757568893
 21
12.56957135760855
 31
0.0
  0
LINE
  5
140F
330
2
100
AcDbEntity
  8
PART
  6
SLD-SOLID
100
AcDbLine
 10
15.98597279693913
 20
12.56957135760855
 30
0.0
 11
15.98597279693913
 21
12.36492429823049
 31
0.0
  0
ARC
  5
1410
330
2
100
AcDbEntity
  8
PART
  6
SLD-SOLID
100
AcDbCircle
 10
8.066287757568932
 20
15.5935083654825
 30
0.0
 40
0.46
100
AcDbArc
 50
179.9999999999918
 51
0.0000000000081422
  0
LINE
  5
1411
330
2
100
AcDbEntity
  8
PART
  6
SLD-SOLID
100
AcDbLine
 10
14.77328775756905
 20
16.39399737259334
 30
0.0
 11
14.77328775756905
 21
15.04399737259332
 31
0.0
  0
ARC
  5
1412
330
2
100
AcDbEntity
  8
PART
  6
SLD-SOLID
100
AcDbCircle
 10
14.56628775756901
 20
16.39399737259334
 30
0.0
 40
0.207000000000038
100
AcDbArc
 50
0.0
 51
180.0
  0
LINE
  5
1413
330
2
100
AcDbEntity
  8
PART
  6
SLD-SOLID
100
AcDbLine
 10
14.35928775756901
 20
15.04399737259332
 30
0.0
 11
14.35928775756901
 21
16.39399737259334
 31
0.0
  0
ARC
  5
1414
330
2
100
AcDbEntity
  8
PART
  6
SLD-SOLID
100
AcDbCircle
 10
14.56628775756901
 20
15.04399737259332
 30
0.0
 40
0.207000000000038
100
AcDbArc
 50
180.0
 51
0.0
  0
ARC
  5
1415
330
2
100
AcDbEntity
  8
PART
  6
SLD-SOLID
100
AcDbCircle
 10
13.56628775756901
 20
15.26899737259332
 30
0.0
 40
0.1820000000000004
100
AcDbArc
 50
180.0
 51
0.0
  0
LINE
  5
1416
330
2
100
AcDbEntity
  8
PART
  6
SLD-SOLID
100
AcDbLine
 10
13.74828775756901
 20
16.16899737259333
 30
0.0
 11
13.74828775756901
 21
15.26899737259332
 31
0.0
  0
ARC
  5
1417
330
2
100
AcDbEntity
  8
PART
  6
SLD-SOLID
100
AcDbCircle
 10
13.56628775756901
 20
16.16899737259333
 30
0.0
 40
0.1820000000000004
100
AcDbArc
 50
0.0
 51
180.0
  0
LINE
  5
1418
330
2
100
AcDbEntity
  8
PART
  6
SLD-SOLID
100
AcDbLine
 10
13.38428775756901
 20
15.26899737259332
 30
0.0
 11
13.38428775756901
 21
16.16899737259333
 31
0.0
  0
LINE
  5
1419
330
2
100
AcDbEntity
  8
PART
  6
SLD-SOLID
100
AcDbLine
 10
7.606287757568933
 20
16.97850836548133
 30
0.0
 11
7.606287757568933
 21
15.59350836548256
 31
0.0
  0
LINE
  5
141A
330
2
100
AcDbEntity
  8
PART
  6
SLD-SOLID
100
AcDbLine
 10
8.526287757568933
 20
15.59350836548256
 30
0.0
 11
8.526287757568933
 21
16.97850836548133
 31
0.0
  0
ARC
  5
141B
330
2
100
AcDbEntity
  8
PART
  6
SLD-SOLID
100
AcDbCircle
 10
15.12061846623047
 20
16.9822878930401
 30
0.0
 40
0.1670000000000837
100
AcDbArc
 50
181.2968231633282
 51
273.83897943314
  0
ARC
  5
141C
330
2
100
AcDbEntity
  8
PART
  6
SLD-SOLID
100
AcDbCircle
 10
6.931642088277556
 20
16.9822878930401
 30
0.0
 40
0.1670000000000839
100
AcDbArc
 50
266.1610205668607
 51
358.7031768366733
  0
LINE
  5
141D
330
2
100
AcDbEntity
  8
PART
  6
SLD-SOLID
100
AcDbLine
 10
10.62938420366389
 20
17.21850836548259
 30
0.0
 11
11.42287635084417
 21
17.21850836548259
 31
0.0
  0
ARC
  5
141E
330
2
100
AcDbEntity
  8
PART
  6
SLD-SOLID
100
AcDbCircle
 10
14.56628775756901
 20
16.39399737259334
 30
0.0
 40
0.2000000000000401
100
AcDbArc
 50
0.0
 51
180.0
  0
LINE
  5
141F
330
2
100
AcDbEntity
  8
PART
  6
SLD-SOLID
100
AcDbLine
 10
14.36628775756901
 20
16.39399737259334
 30
0.0
 11
14.35928775756901
 21
16.39399737259334
 31
0.0
  0
LINE
  5
1420
330
2
100
AcDbEntity
  8
PART
  6
SLD-SOLID
100
AcDbLine
 10
14.76628775756905
 20
16.39399737259334
 30
0.0
 11
14.77328775756905
 21
16.39399737259334
 31
0.0
  0
LINE
  5
1421
330
2
100
AcDbEntity
  8
PART
  6
SLD-SOLID
100
AcDbLine
 10
14.76628775756905
 20
15.04399737259332
 30
0.0
 11
14.76628775756905
 21
16.39399737259334
 31
0.0
  0
LINE
  5
1422
330
2
100
AcDbEntity
  8
PART
  6
SLD-SOLID
100
AcDbLine
 10
14.77328775756905
 20
15.04399737259332
 30
0.0
 11
14.76628775756905
 21
15.04399737259332
 31
0.0
  0
LINE
  5
1423
330
2
100
AcDbEntity
  8
PART
  6
SLD-SOLID
100
AcDbLine
 10
14.36628775756901
 20
16.39399737259334
 30
0.0
 11
14.36628775756901
 21
15.04399737259332
 31
0.0
  0
LINE
  5
1424
330
2
100
AcDbEntity
  8
PART
  6
SLD-SOLID
100
AcDbLine
 10
14.35928775756901
 20
15.04399737259332
 30
0.0
 11
14.36628775756901
 21
15.04399737259332
 31
0.0
  0
ARC
  5
1425
330
2
100
AcDbEntity
  8
PART
  6
SLD-SOLID
100
AcDbCircle
 10
13.56628775756901
 20
16.16899737259333
 30
0.0
 40
0.1750000000000007
100
AcDbArc
 50
0.0
 51
180.0
  0
LINE
  5
1426
330
2
100
AcDbEntity
  8
PART
  6
SLD-SOLID
100
AcDbLine
 10
13.38428775756901
 20
16.16899737259333
 30
0.0
 11
13.39128775756901
 21
16.16899737259333
 31
0.0
  0
LINE
  5
1427
330
2
100
AcDbEntity
  8
PART
  6
SLD-SOLID
100
AcDbLine
 10
13.74128775756901
 20
16.16899737259333
 30
0.0
 11
13.74828775756901
 21
16.16899737259333
 31
0.0
  0
LINE
  5
1428
330
2
100
AcDbEntity
  8
PART
  6
SLD-SOLID
100
AcDbLine
 10
13.74128775756901
 20
15.26899737259332
 30
0.0
 11
13.74128775756901
 21
16.16899737259333
 31
0.0
  0
LINE
  5
1429
330
2
100
AcDbEntity
  8
PART
  6
SLD-SOLID
100
AcDbLine
 10
13.74128775756901
 20
15.26899737259332
 30
0.0
 11
13.74828775756901
 21
15.26899737259332
 31
0.0
  0
LINE
  5
142A
330
2
100
AcDbEntity
  8
PART
  6
SLD-SOLID
100
AcDbLine
 10
13.39128775756901
 20
16.16899737259333
 30
0.0
 11
13.39128775756901
 21
15.26899737259332
 31
0.0
  0
LINE
  5
142B
330
2
100
AcDbEntity
  8
PART
  6
SLD-SOLID
100
AcDbLine
 10
13.38428775756901
 20
15.26899737259332
 30
0.0
 11
13.39128775756901
 21
15.26899737259332
 31
0.0
  0
ARC
  5
142C
330
2
100
AcDbEntity
  8
PART
  6
SLD-SOLID
100
AcDbCircle
 10
13.56628775756901
 20
15.26899737259332
 30
0.0
 40
0.1750000000000007
100
AcDbArc
 50
180.0
 51
0.0
  0
ARC
  5
142D
330
2
100
AcDbEntity
  8
PART
  6
SLD-SOLID
100
AcDbCircle
 10
14.56628775756901
 20
15.04399737259332
 30
0.0
 40
0.2000000000000401
100
AcDbArc
 50
180.0
 51
0.0
  0
CIRCLE
  5
142E
330
2
100
AcDbEntity
  8
PART
  6
SLD-SOLID
100
AcDbCircle
 10
14.08242948789898
 20
12.99994083593807
 30
0.0
 40
0.1359999999996262
  0
CIRCLE
  5
142F
330
2
100
AcDbEntity
  8
PART
  6
SLD-SOLID
100
AcDbCircle
 10
7.969831066609074
 20
12.99994083593807
 30
0.0
 40
0.1359999999996262
  0
LINE
  5
1430
330
2
100
AcDbEntity
  8
PART
  6
SLD-SOLID
100
AcDbLine
 10
7.606287757568933
 20
15.59350836548256
 30
0.0
 11
7.656287757568932
 21
15.59350836548256
 31
0.0
  0
LINE
  5
1431
330
2
100
AcDbEntity
  8
PART
  6
SLD-SOLID
100
AcDbLine
 10
8.526287757568933
 20
15.59350836548256
 30
0.0
 11
8.476287757568933
 21
15.59350836548256
 31
0.0
  0
ARC
  5
1432
330
2
100
AcDbEntity
  8
PART
  6
SLD-SOLID
100
AcDbCircle
 10
8.066287757568932
 20
15.5935083654825
 30
0.0
 40
0.4100000000000002
100
AcDbArc
 50
179.9999999999908
 51
0.00000000000916
  0
LINE
  5
1433
330
2
100
AcDbEntity
  8
PART
  6
SLD-SOLID
100
AcDbLine
 10
8.466287757568945
 20
16.21850836548244
 30
0.0
 11
8.466287757568945
 21
16.97850836548131
 31
0.0
  0
LINE
  5
1434
330
2
100
AcDbEntity
  8
PART
  6
SLD-SOLID
100
AcDbLine
 10
8.466287757568945
 20
17.21850836548259
 30
0.0
 11
8.466287757568945
 21
17.84350836548244
 31
0.0
  0
LINE
  5
1435
330
2
100
AcDbEntity
  8
PART
  6
SLD-SOLID
100
AcDbLine
 10
7.666287757568944
 20
17.84350836548244
 30
0.0
 11
7.666287757568944
 21
17.21850836548259
 31
0.0
  0
LINE
  5
1436
330
2
100
AcDbEntity
  8
PART
  6
SLD-SOLID
100
AcDbLine
 10
7.666287757568944
 20
16.97850836548133
 30
0.0
 11
7.666287757568944
 21
16.21850836548244
 31
0.0
  0
LINE
  5
1437
330
2
100
AcDbEntity
  8
PART
  6
SLD-SOLID
100
AcDbLine
 10
7.656287757568932
 20
16.21850836548246
 30
0.0
 11
7.656287757568932
 21
15.59350836548256
 31
0.0
  0
LINE
  5
1438
330
2
100
AcDbEntity
  8
PART
  6
SLD-SOLID
100
AcDbLine
 10
8.476287757568933
 20
15.59350836548256
 30
0.0
 11
8.476287757568933
 21
16.21850836548246
 31
0.0
  0
INSERT
  5
1441
330
2
100
AcDbEntity
  8
PART
100
AcDbBlockReference
  2
SW_CENTERMARKSYMBOL_0
 10
7.969831066609089
 20
12.99994083593806
 30
0.0
  0
INSERT
  5
1442
330
2
100
AcDbEntity
  8
PART
100
AcDbBlockReference
  2
SW_CENTERMARKSYMBOL_1
 10
14.08242948789899
 20
12.9999408359381
 30
0.0
  0
ARC
  5
1443
330
2
100
AcDbEntity
  8
PART
  6
SLD-SOLID
100
AcDbCircle
 10
20.01074463300144
 20
18.24350836548244
 30
0.0
 40
0.0500000000000007
100
AcDbArc
 50
0.0
 51
90.0
  0
LINE
  5
1444
330
2
100
AcDbEntity
  8
PART
  6
SLD-SOLID
100
AcDbLine
 10
20.01074463300144
 20
18.29350836548243
 30
0.0
 11
19.86074463300144
 21
18.29350836548243
 31
0.0
  0
ARC
  5
1445
330
2
100
AcDbEntity
  8
PART
  6
SLD-SOLID
100
AcDbCircle
 10
19.86074463300144
 20
18.24350836548244
 30
0.0
 40
0.0500000000000007
100
AcDbArc
 50
90.0
 51
180.0
  0
LINE
  5
1446
330
2
100
AcDbEntity
  8
PART
  6
SLD-SOLID
100
AcDbLine
 10
20.06074463300144
 20
17.84350836548244
 30
0.0
 11
20.01074463300144
 21
17.84350836548244
 31
0.0
  0
LINE
  5
1447
330
2
100
AcDbEntity
  8
PART
  6
SLD-SOLID
100
AcDbLine
 10
20.06074463300144
 20
17.84350836548244
 30
0.0
 11
20.06074463300144
 21
17.21850836548264
 31
0.0
  0
LINE
  5
1448
330
2
100
AcDbEntity
  8
PART
  6
SLD-SOLID
100
AcDbLine
 10
19.81074463300144
 20
17.21850836548264
 30
0.0
 11
19.81074463300144
 21
17.84350836548244
 31
0.0
  0
LINE
  5
1449
330
2
100
AcDbEntity
  8
PART
  6
SLD-SOLID
100
AcDbLine
 10
19.81074463300144
 20
17.84350836548244
 30
0.0
 11
19.86074463300144
 21
17.84350836548244
 31
0.0
  0
LINE
  5
144A
330
2
100
AcDbEntity
  8
PART
  6
SLD-SOLID
100
AcDbLine
 10
19.86074463300144
 20
17.84350836548244
 30
0.0
 11
20.01074463300144
 21
17.84350836548244
 31
0.0
  0
LINE
  5
144B
330
2
100
AcDbEntity
  8
PART
  6
SLD-SOLID
100
AcDbLine
 10
20.06074463300144
 20
18.24350836548244
 30
0.0
 11
20.06074463300144
 21
17.84350836548244
 31
0.0
  0
LINE
  5
144C
330
2
100
AcDbEntity
  8
PART
  6
SLD-SOLID
100
AcDbLine
 10
19.81074463300144
 20
17.84350836548244
 30
0.0
 11
19.81074463300144
 21
18.24350836548244
 31
0.0
  0
LINE
  5
144D
330
2
100
AcDbEntity
  8
PART
  6
SLD-SOLID
100
AcDbLine
 10
20.20074463300144
 20
17.21850836548259
 30
0.0
 11
19.72074463300144
 21
17.21850836548259
 31
0.0
  0
LINE
  5
144E
330
2
100
AcDbEntity
  8
PART
  6
SLD-SOLID
100
AcDbLine
 10
20.20074463300144
 20
12.56957135760855
 30
0.0
 11
19.72074463300144
 21
12.56957135760855
 31
0.0
  0
SPLINE
  5
144F
330
2
100
AcDbEntity
  8
PART
  6
SLD-SOLID
100
AcDbSpline
210
0.0
220
0.0
230
1.0
 70
    24
 71
     3
 72
    67
 73
    63
 74
     0
 42
0.0000000001
 43
0.0000000001
 40
0.0
 40
0.0
 40
0.0
 40
0.0
 40
0.0216293660310091
 40
0.0429036354412167
 40
0.0638228082308347
 40
0.0843868844000854
 40
0.1045958639492028
 40
0.1244497468784335
 40
0.1428438826956063
 40
0.1609223448650311
 40
0.1786851333869497
 40
0.1961322482616176
 40
0.2132636894893044
 40
0.2320108404217056
 40
0.2503647833881973
 40
0.2683255183892265
 40
0.2858930454252705
 40
0.3030673644968394
 40
0.3198484756044792
 40
0.3362363787487749
 40
0.3522310739303547
 40
0.3678325611498951
 40
0.3830408404081241
 40
0.397855911705828
 40
0.4122777750438574
 40
0.4263064304231344
 40
0.439941877844661
 40
0.4531841173095283
 40
0.4660331488189272
 40
0.4758529690165792
 40
0.4854300434881119
 40
0.4947643722342662
 40
0.5038837683301879
 40
0.51314568871923
 40
0.5226524756718738
 40
0.5324041291887453
 40
0.5424006492704237
 40
0.5554776388697622
 40
0.5689512718321675
 40
0.5828215481585737
 40
0.5970884678498371
 40
0.6117520309067447
 40
0.6268122373300206
 40
0.642269087120334
 40
0.6581225802783038
 40
0.6751564264283206
 40
0.6926255909241255
 40
0.7105300737662846
 40
0.7288698749553239
 40
0.7476449944917332
 40
0.7668554323759686
 40
0.7865011886084562
 40
0.8065822631895938
 40
0.8270986561197549
 40
0.8480503673992886
 40
0.8694373970285235
 40
0.8912597450077683
 40
0.9122338177465929
 40
0.9335948796150162
 40
0.9553429306132562
 40
0.9774779707415188
 40
1.0
 40
1.0
 40
1.0
 40
1.0
 10
19.72074463300144
 20
17.21850836548259
 30
0.0
 10
19.72074463300144
 20
17.18498973422006
 30
0.0
 10
19.72074463300144
 20
17.11850275840603
 30
0.0
 10
19.72074463300144
 20
17.01959777559644
 30
0.0
 10
19.72074463300144
 20
16.92234369047173
 30
0.0
 10
19.72074463300144
 20
16.82674050650514
 30
0.0
 10
19.72074463300144
 20
16.73278822278862
 30
0.0
 10
19.72074463300144
 20
16.64219869224381
 30
0.0
 10
19.72074463300144
 20
16.55491081906814
 30
0.0
 10
19.72074463300144
 20
16.47086350745714
 30
0.0
 10
19.72074463300144
 20
16.38828381264165
 30
0.0
 10
19.72074463300144
 20
16.30717173462183
 30
0.0
 10
19.72074463300144
 20
16.22453425830528
 30
0.0
 10
19.72074463300144
 20
16.14049154245809
 30
0.0
 10
19.72074463300144
 20
16.05516374650235
 30
0.0
 10
19.72074463300144
 20
15.97166403666848
 30
0.0
 10
19.72074463300144
 20
15.88999241295444
 30
0.0
 10
19.72074463300144
 20
15.81014887535834
 30
0.0
 10
19.72074463300144
 20
15.73213342387801
 30
0.0
 10
19.72074463300144
 20
15.6559460585111
 30
0.0
 10
19.72074463300144
 20
15.58158677925503
 30
0.0
 10
19.72074463300144
 20
15.50905558610692
 30
0.0
 10
19.72074463300144
 20
15.43835247906363
 30
0.0
 10
19.72074463300144
 20
15.36947745812165
 30
0.0
 10
19.72074463300144
 20
15.30243052327715
 30
0.0
 10
19.72074463300144
 20
15.23721167452565
 30
0.0
 10
19.72074463300144
 20
15.17382091186286
 30
0.0
 10
19.72074463300144
 20
15.11225823528143
 30
0.0
 10
19.72074463300144
 20
15.05660853322946
 30
0.0
 10
19.72074463300144
 20
15.00663862355132
 30
0.0
 10
19.72074463300144
 20
14.96211532459614
 30
0.0
 10
19.72074463300144
 20
14.91867748822171
 30
0.0
 10
19.72074463300144
 20
14.87572808448708
 30
0.0
 10
19.72074463300144
 20
14.83251148270331
 30
0.0
 10
19.72074463300144
 20
14.78831515608925
 30
0.0
 10
19.72074463300144
 20
14.74298051087045
 30
0.0
 10
19.72074463300144
 20
14.69211338874817
 30
0.0
 10
19.72074463300144
 20
14.63547860665096
 30
0.0
 10
19.72074463300144
 20
14.5728409818105
 30
0.0
 10
19.72074463300144
 20
14.5083594689073
 30
0.0
 10
19.72074463300144
 20
14.44203406794407
 30
0.0
 10
19.72074463300144
 20
14.3738647789255
 30
0.0
 10
19.72074463300144
 20
14.30385160185523
 30
0.0
 10
19.72074463300144
 20
14.23199453673646
 30
0.0
 10
19.72074463300144
 20
14.15707912680299
 30
0.0
 10
19.72074463300144
 20
14.07904544371064
 30
0.0
 10
19.72074463300144
 20
13.99783355893154
 30
0.0
 10
19.72074463300144
 20
13.91459799657516
 30
0.0
 10
19.72074463300144
 20
13.82933875664383
 30
0.0
 10
19.72074463300144
 20
13.74205583913993
 30
0.0
 10
19.72074463300144
 20
13.65274924406556
 30
0.0
 10
19.72074463300144
 20
13.56141897142266
 30
0.0
 10
19.72074463300144
 20
13.46806502121292
 30
0.0
 10
19.72074463300144
 20
13.37268739343828
 30
0.0
 10
19.72074463300144
 20
13.27528608809901
 30
0.0
 10
19.72074463300144
 20
13.17586110520106
 30
0.0
 10
19.72074463300144
 20
13.0764015195746
 30
0.0
 10
19.72074463300144
 20
12.97698221964636
 30
0.0
 10
19.72074463300144
 20
12.87767809380667
 30
0.0
 10
19.72074463300144
 20
12.77657496062347
 30
0.0
 10
19.72074463300144
 20
12.67367281669333
 30
0.0
 10
19.72074463300144
 20
12.60447173815298
 30
0.0
 10
19.72074463300144
 20
12.56957135760838
 30
0.0
  0
SPLINE
  5
1450
330
2
100
AcDbEntity
  8
PART
  6
SLD-SOLID
100
AcDbSpline
210
0.0
220
0.0
230
1.0
 70
    24
 71
     3
 72
     9
 73
     5
 74
     0
 42
0.0000000001
 43
0.0000000001
 40
0.0
 40
0.0
 40
0.0
 40
0.0
 40
0.4999999996719483
 40
1.0
 40
1.0
 40
1.0
 40
1.0
 10
20.20074463300144
 20
17.21850836548259
 30
0.0
 10
20.20074463300144
 20
16.44366776649948
 30
0.0
 10
20.20074463300144
 20
14.89398656751651
 30
0.0
 10
20.20074463300144
 20
13.34437642791665
 30
0.0
 10
20.20074463300144
 20
12.56957135760838
 30
0.0
  0
LINE
  5
1451
330
2
100
AcDbEntity
  8
PART
  6
SLD-SOLID
100
AcDbLine
 10
20.20074463300144
 20
12.32999737259327
 30
0.0
 11
19.7083381632951
 21
12.32999737259327
 31
0.0
  0
LINE
  5
1452
330
2
100
AcDbEntity
  8
PART
  6
SLD-SOLID
100
AcDbLine
 10
19.7083381632951
 20
12.32999737259327
 30
0.0
 11
19.7083381632951
 21
12.33699737259327
 31
0.0
  0
LINE
  5
1453
330
2
100
AcDbEntity
  8
PART
  6
SLD-SOLID
100
AcDbLine
 10
19.7083381632951
 20
12.33699737259327
 30
0.0
 11
19.7183765038125
 21
12.35556472938245
 31
0.0
  0
ARC
  5
1454
330
2
100
AcDbEntity
  8
PART
  6
SLD-SOLID
100
AcDbCircle
 10
19.70106463300144
 20
12.3649242982305
 30
0.0
 40
0.0196799999999997
100
AcDbArc
 50
331.6023683484339
 51
0.0
  0
LINE
  5
1455
330
2
100
AcDbEntity
  8
PART
  6
SLD-SOLID
100
AcDbLine
 10
19.72074463300144
 20
12.56957135760855
 30
0.0
 11
19.72074463300144
 21
12.3649242982305
 31
0.0
  0
LINE
  5
1456
330
2
100
AcDbEntity
  8
PART
  6
SLD-SOLID
100
AcDbLine
 10
20.20074463300144
 20
12.56957135760855
 30
0.0
 11
20.20074463300144
 21
12.32999737259327
 31
0.0
  0
LINE
  5
1457
330
2
100
AcDbEntity
  8
PART
  6
SLD-SOLID
100
AcDbLine
 10
20.01074463300144
 20
17.21850836548264
 30
0.0
 11
20.01074463300144
 21
17.84350836548244
 31
0.0
  0
LINE
  5
1458
330
2
100
AcDbEntity
  8
PART
  6
SLD-SOLID
100
AcDbLine
 10
19.86074463300144
 20
17.84350836548244
 30
0.0
 11
19.86074463300144
 21
17.21850836548264
 31
0.0
  0
LINE
  5
1459
330
2
100
AcDbEntity
  8
PART
  6
SLD-SOLID
100
AcDbLine
 10
20.01074463300144
 20
17.84350836548244
 30
0.0
 11
20.01074463300144
 21
18.29350836548243
 31
0.0
  0
LINE
  5
145A
330
2
100
AcDbEntity
  8
PART
  6
SLD-SOLID
100
AcDbLine
 10
19.86074463300144
 20
18.29350836548243
 30
0.0
 11
19.86074463300144
 21
17.84350836548244
 31
0.0
  0
LINE
  5
15A0
330
2
100
AcDbEntity
  8
DIM
100
AcDbLine
 10
6.066287757568916
 20
12.26749737259324
 30
0.0
 11
6.066287757568916
 21
10.99141371117594
 31
0.0
  0
LINE
  5
15A1
330
2
100
AcDbEntity
  8
DIM
100
AcDbLine
 10
14.08242948789899
 20
12.70144083593847
 30
0.0
 11
14.08242948789899
 21
10.99141371117594
 31
0.0
  0
LINE
  5
15A2
330
2
100
AcDbEntity
  8
DIM
100
AcDbLine
 10
6.196287757568917
 20
11.10737575265954
 30
0.0
 11
8.528723268569025
 21
11.10737575265954
 31
0.0
  0
LINE
  5
15A3
330
2
100
AcDbEntity
  8
DIM
100
AcDbLine
 10
13.95242948789899
 20
11.10737575265954
 30
0.0
 11
9.31692170286845
 21
11.10737575265954
 31
0.0
  0
SOLID
  5
15A4
330
2
100
AcDbEntity
  8
DIM
100
AcDbTrace
 10
6.196287757568917
 20
11.1290424193262
 30
0.0
 11
6.196287757568917
 21
11.08570908599287
 31
0.0
 12
6.066287757568916
 22
11.10737575265954
 32
0.0
 13
6.066287757568916
 23
11.10737575265954
 33
0.0
  0
SOLID
  5
15A5
330
2
100
AcDbEntity
  8
DIM
100
AcDbTrace
 10
13.95242948789899
 20
11.1290424193262
 30
0.0
 11
13.95242948789899
 21
11.08570908599287
 31
0.0
 12
14.08242948789899
 22
11.10737575265954
 32
0.0
 13
14.08242948789899
 23
11.10737575265954
 33
0.0
  0
MTEXT
  5
15A6
330
2
100
AcDbEntity
  8
DIM
100
AcDbMText
 10
8.92741488399263
 20
11.28091795303325
 30
0.0
 40
0.156
 41
0.0
 71
     2
 72
     1
  1
{\fCentury Gothic|b0|i0|c0|p34;8.016}
  7
SLDTEXTSTYLE6
1001
ACAD
1000
MTEXTBEGIN
1070
    73
1070
     1
1070
    44
1040
1.0
1070
    74
1070
     0
1000
MTEXTEND
  0
LINE
  5
15A7
330
2
100
AcDbEntity
  8
DIM
100
AcDbLine
 10
6.066287757568916
 20
12.26749737259324
 30
0.0
 11
6.066287757568916
 21
10.2827522938531
 31
0.0
  0
LINE
  5
15A8
330
2
100
AcDbEntity
  8
DIM
100
AcDbLine
 10
15.98597279693914
 20
12.26749737259331
 30
0.0
 11
15.98597279693914
 21
10.2827522938531
 31
0.0
  0
LINE
  5
15A9
330
2
100
AcDbEntity
  8
DIM
100
AcDbLine
 10
6.196287757568917
 20
10.3987143353367
 30
0.0
 11
9.502960979882891
 21
10.3987143353367
 31
0.0
  0
LINE
  5
15AA
330
2
100
AcDbEntity
  8
DIM
100
AcDbLine
 10
15.85597279693914
 20
10.3987143353367
 30
0.0
 11
10.23611061668062
 21
10.3987143353367
 31
0.0
  0
SOLID
  5
15AB
330
2
100
AcDbEntity
  8
DIM
100
AcDbTrace
 10
6.196287757568917
 20
10.42038100200337
 30
0.0
 11
6.196287757568917
 21
10.37704766867004
 31
0.0
 12
6.066287757568916
 22
10.3987143353367
 32
0.0
 13
6.066287757568916
 23
10.3987143353367
 33
0.0
  0
SOLID
  5
15AC
330
2
100
AcDbEntity
  8
DIM
100
AcDbTrace
 10
15.85597279693914
 20
10.42038100200337
 30
0.0
 11
15.85597279693914
 21
10.37704766867004
 31
0.0
 12
15.98597279693914
 22
10.3987143353367
 32
0.0
 13
15.98597279693914
 23
10.3987143353367
 33
0.0
  0
MTEXT
  5
15AD
330
2
100
AcDbEntity
  8
DIM
100
AcDbMText
 10
9.863412638211192
 20
10.57225653571041
 30
0.0
 40
0.156
 41
0.0
 71
     2
 72
     1
  1
{\fCentury Gothic|b0|i0|c0|p34;9.920}
  7
SLDTEXTSTYLE6
1001
ACAD
1000
MTEXTBEGIN
1070
    73
1070
     1
1070
    44
1040
1.0
1070
    74
1070
     0
1000
MTEXTEND
  0
LINE
  5
15AE
330
2
100
AcDbEntity
  8
DIM
100
AcDbLine
 10
6.066287757568916
 20
12.26749737259324
 30
0.0
 11
6.066287757568916
 21
11.60344900981359
 31
0.0
  0
LINE
  5
15AF
330
2
100
AcDbEntity
  8
DIM
100
AcDbLine
 10
7.969831066609089
 20
12.70144083593843
 30
0.0
 11
7.969831066609089
 21
11.60344900981359
 31
0.0
  0
LINE
  5
15B0
330
2
100
AcDbEntity
  8
DIM
100
AcDbLine
 10
6.196287757568917
 20
11.71941105129719
 30
0.0
 11
6.666037838124356
 21
11.71941105129719
 31
0.0
  0
LINE
  5
15B1
330
2
100
AcDbEntity
  8
DIM
100
AcDbLine
 10
7.839831066609089
 20
11.71941105129719
 30
0.0
 11
7.390201864211181
 21
11.71941105129719
 31
0.0
  0
SOLID
  5
15B2
330
2
100
AcDbEntity
  8
DIM
100
AcDbTrace
 10
6.196287757568917
 20
11.74107771796385
 30
0.0
 11
6.196287757568917
 21
11.69774438463052
 31
0.0
 12
6.066287757568916
 22
11.71941105129719
 32
0.0
 13
6.066287757568916
 23
11.71941105129719
 33
0.0
  0
SOLID
  5
15B3
330
2
100
AcDbEntity
  8
DIM
100
AcDbTrace
 10
7.839831066609089
 20
11.74107771796385
 30
0.0
 11
7.839831066609089
 21
11.69774438463052
 31
0.0
 12
7.969831066609089
 22
11.71941105129719
 32
0.0
 13
7.969831066609089
 23
11.71941105129719
 33
0.0
  0
MTEXT
  5
15B4
330
2
100
AcDbEntity
  8
DIM
100
AcDbMText
 10
7.038835465954168
 20
11.8929532516709
 30
0.0
 40
0.156
 41
0.0
 71
     2
 72
     1
  1
{\fCentury Gothic|b0|i0|c0|p34;1.904}
  7
SLDTEXTSTYLE6
1001
ACAD
1000
MTEXTBEGIN
1070
    73
1070
     1
1070
    44
1040
1.0
1070
    74
1070
     0
1000
MTEXTEND
  0
LINE
  5
15B5
330
2
100
AcDbEntity
  8
DIM
100
AcDbLine
 10
6.003787757568918
 20
12.32999737259324
 30
0.0
 11
4.802249917696159
 21
12.32999737259324
 31
0.0
  0
LINE
  5
15B6
330
2
100
AcDbEntity
  8
DIM
100
AcDbLine
 10
7.671331066609462
 20
12.99994083593806
 30
0.0
 11
4.802249917696159
 21
12.99994083593806
 31
0.0
  0
LINE
  5
15B7
330
2
100
AcDbEntity
  8
DIM
100
AcDbLine
 10
4.919545859696499
 20
12.19999737259324
 30
0.0
 11
4.919545859696499
 21
12.08097404375866
 31
0.0
  0
LINE
  5
15B8
330
2
100
AcDbEntity
  8
DIM
100
AcDbLine
 10
4.919545859696499
 20
13.12994083593806
 30
0.0
 11
4.919545859696499
 21
13.25031434245979
 31
0.0
  0
SOLID
  5
15B9
330
2
100
AcDbEntity
  8
DIM
100
AcDbTrace
 10
4.897879193029832
 20
12.19999737259324
 30
0.0
 11
4.941212526363165
 21
12.19999737259324
 31
0.0
 12
4.919545859696499
 22
12.32999737259324
 32
0.0
 13
4.919545859696499
 23
12.32999737259324
 33
0.0
  0
SOLID
  5
15BA
330
2
100
AcDbEntity
  8
DIM
100
AcDbTrace
 10
4.897879193029832
 20
13.12994083593806
 30
0.0
 11
4.941212526363165
 21
13.12994083593806
 31
0.0
 12
4.919545859696499
 22
12.99994083593806
 32
0.0
 13
4.919545859696499
 23
12.99994083593806
 33
0.0
  0
MTEXT
  5
15BB
330
2
100
AcDbEntity
  8
DIM
100
AcDbMText
 10
4.919545859696497
 20
12.87172202381841
 30
0.0
 40
0.156
 41
0.0
 71
     2
 72
     1
  1
{\fCentury Gothic|b0|i0|c0|p34;.670}
  7
SLDTEXTSTYLE6
1001
ACAD
1000
MTEXTBEGIN
1070
    73
1070
     1
1070
    44
1040
1.0
1070
    74
1070
     0
1000
MTEXTEND
  0
LINE
  5
15BC
330
2
100
AcDbEntity
  8
DIM
100
AcDbLine
 10
8.003787757568924
 20
18.29350836548242
 30
0.0
 11
3.382618946443676
 21
18.29350836548242
 31
0.0
  0
LINE
  5
15BD
330
2
100
AcDbEntity
  8
DIM
100
AcDbLine
 10
6.003787757568918
 20
12.32999737259324
 30
0.0
 11
3.382618946443675
 21
12.32999737259324
 31
0.0
  0
LINE
  5
15BE
330
2
100
AcDbEntity
  8
DIM
100
AcDbLine
 10
3.499914888444016
 20
18.16350836548243
 30
0.0
 11
3.499914888444015
 21
16.02387383362204
 31
0.0
  0
LINE
  5
15BF
330
2
100
AcDbEntity
  8
DIM
100
AcDbLine
 10
3.499914888444014
 20
12.45999737259324
 30
0.0
 11
3.499914888444015
 21
15.41254451793374
 31
0.0
  0
SOLID
  5
15C0
330
2
100
AcDbEntity
  8
DIM
100
AcDbTrace
 10
3.478248221777349
 20
18.16350836548243
 30
0.0
 11
3.521581555110682
 21
18.16350836548243
 31
0.0
 12
3.499914888444016
 22
18.29350836548242
 32
0.0
 13
3.499914888444016
 23
18.29350836548242
 33
0.0
  0
SOLID
  5
15C1
330
2
100
AcDbEntity
  8
DIM
100
AcDbTrace
 10
3.478248221777348
 20
12.45999737259324
 30
0.0
 11
3.521581555110681
 21
12.45999737259324
 31
0.0
 12
3.499914888444014
 22
12.32999737259324
 32
0.0
 13
3.499914888444014
 23
12.32999737259324
 33
0.0
  0
MTEXT
  5
15C2
330
2
100
AcDbEntity
  8
DIM
100
AcDbMText
 10
3.499914888444012
 20
15.92755118396406
 30
0.0
 40
0.156
 41
0.0
 71
     2
 72
     1
  1
{\fCentury Gothic|b0|i0|c0|p34;5.964}
  7
SLDTEXTSTYLE6
1001
ACAD
1000
MTEXTBEGIN
1070
    73
1070
     1
1070
    44
1040
1.0
1070
    74
1070
     0
1000
MTEXTEND
  0
LINE
  5
15C3
330
2
100
AcDbEntity
  8
DIM
100
AcDbLine
 10
6.003787757568918
 20
12.32999737259324
 30
0.0
 11
4.272838625533077
 21
12.32999737259324
 31
0.0
  0
LINE
  5
15C4
330
2
100
AcDbEntity
  8
DIM
100
AcDbLine
 10
6.617960985915509
 20
17.21850836548256
 30
0.0
 11
4.272838625533078
 21
17.21850836548256
 31
0.0
  0
LINE
  5
15C5
330
2
100
AcDbEntity
  8
DIM
100
AcDbLine
 10
4.390134567533417
 20
12.45999737259324
 30
0.0
 11
4.390134567533418
 21
14.57773415650634
 31
0.0
  0
LINE
  5
15C6
330
2
100
AcDbEntity
  8
DIM
100
AcDbLine
 10
4.390134567533418
 20
17.08850836548256
 30
0.0
 11
4.390134567533418
 21
15.15721754812248
 31
0.0
  0
SOLID
  5
15C7
330
2
100
AcDbEntity
  8
DIM
100
AcDbTrace
 10
4.36846790086675
 20
12.45999737259324
 30
0.0
 11
4.411801234200083
 21
12.45999737259324
 31
0.0
 12
4.390134567533417
 22
12.32999737259324
 32
0.0
 13
4.390134567533417
 23
12.32999737259324
 33
0.0
  0
SOLID
  5
15C8
330
2
100
AcDbEntity
  8
DIM
100
AcDbTrace
 10
4.368467900866751
 20
17.08850836548256
 30
0.0
 11
4.411801234200084
 21
17.08850836548256
 31
0.0
 12
4.390134567533418
 22
17.21850836548256
 32
0.0
 13
4.390134567533418
 23
17.21850836548256
 33
0.0
  0
MTEXT
  5
15C9
330
2
100
AcDbEntity
  8
DIM
100
AcDbMText
 10
4.390134567533415
 20
15.09274082253666
 30
0.0
 40
0.156
 41
0.0
 71
     2
 72
     1
  1
{\fCentury Gothic|b0|i0|c0|p34;4.889}
  7
SLDTEXTSTYLE6
1001
ACAD
1000
MTEXTBEGIN
1070
    73
1070
     1
1070
    44
1040
1.0
1070
    74
1070
     0
1000
MTEXTEND
  0
LINE
  5
15CA
330
2
100
AcDbEntity
  8
DIM
100
AcDbLine
 10
6.066287757568915
 20
12.63207135760852
 30
0.0
 11
6.066287757568915
 21
19.63209104264783
 31
0.0
  0
LINE
  5
15CB
330
2
100
AcDbEntity
  8
DIM
100
AcDbLine
 10
8.066287757568924
 20
17.90600836548242
 30
0.0
 11
8.066287757568924
 21
19.63209104264783
 31
0.0
  0
LINE
  5
15CC
330
2
100
AcDbEntity
  8
DIM
100
AcDbLine
 10
6.196287757568915
 20
19.63209104264783
 30
0.0
 11
6.673073213542059
 21
19.63209104264783
 31
0.0
  0
LINE
  5
15CD
330
2
100
AcDbEntity
  8
DIM
100
AcDbLine
 10
7.936287757568924
 20
19.63209104264783
 30
0.0
 11
7.372530570023331
 21
19.63209104264783
 31
0.0
  0
SOLID
  5
15CE
330
2
100
AcDbEntity
  8
DIM
100
AcDbTrace
 10
6.196287757568915
 20
19.6537577093145
 30
0.0
 11
6.196287757568915
 21
19.61042437598116
 31
0.0
 12
6.066287757568915
 22
19.63209104264783
 32
0.0
 13
6.066287757568915
 23
19.63209104264783
 33
0.0
  0
SOLID
  5
15CF
330
2
100
AcDbEntity
  8
DIM
100
AcDbTrace
 10
7.936287757568924
 20
19.6537577093145
 30
0.0
 11
7.936287757568924
 21
19.61042437598116
 31
0.0
 12
8.066287757568924
 22
19.63209104264783
 32
0.0
 13
8.066287757568924
 23
19.63209104264783
 33
0.0
  0
MTEXT
  5
15D0
330
2
100
AcDbEntity
  8
DIM
100
AcDbMText
 10
7.038835465954168
 20
19.80309901679172
 30
0.0
 40
0.156
 41
0.0
 71
     2
 72
     1
  1
{\fCentury Gothic|b0|i0|c0|p34;2.000}
  7
SLDTEXTSTYLE6
1001
ACAD
1000
MTEXTBEGIN
1070
    73
1070
     1
1070
    44
1040
1.0
1070
    74
1070
     0
1000
MTEXTEND
  0
LINE
  5
15D1
330
2
100
AcDbEntity
  8
DIM
100
AcDbLine
 10
8.768699278783612
 20
18.75113133266329
 30
0.0
 11
8.58054596748102
 21
18.75113133266329
 31
0.0
  0
LINE
  5
15D2
330
2
100
AcDbEntity
  8
DIM
100
AcDbLine
 10
8.58054596748102
 20
18.75113133266329
 30
0.0
 11
8.34932157079017
 21
18.35063892964529
 31
0.0
  0
MTEXT
  5
15D3
330
2
100
AcDbEntity
  8
DIM
100
AcDbMText
 10
8.807699278783614
 20
18.85219727419966
 30
0.0
 40
0.156
 41
0.0
 71
     1
 72
     1
  1
{\fCentury Gothic|b0|i0|c0|p34;R.450 (R11.43)}
  7
SLDTEXTSTYLE6
1001
ACAD
1000
MTEXTBEGIN
1070
    73
1070
     1
1070
    44
1040
1.0
1070
    74
1070
     0
1000
MTEXTEND
  0
SOLID
  5
15D4
330
2
100
AcDbEntity
  8
DIM
100
AcDbTrace
 10
8.330557687041508
 20
18.36147226297863
 30
0.0
 11
8.368085454538833
 21
18.33980559631196
 31
0.0
 12
8.284321570790169
 22
18.23805562715332
 32
0.0
 13
8.284321570790169
 23
18.23805562715332
 33
0.0
  0
LINE
  5
15D5
330
2
100
AcDbEntity
  8
DIM
100
AcDbLine
 10
20.20074463300142
 20
17.28100836548262
 30
0.0
 11
20.20074463300142
 21
19.26076175793301
 31
0.0
  0
LINE
  5
15D6
330
2
100
AcDbEntity
  8
DIM
100
AcDbLine
 10
20.06074463300144
 20
17.90600836548242
 30
0.0
 11
20.06074463300144
 21
19.26076175793301
 31
0.0
  0
LINE
  5
15D7
330
2
100
AcDbEntity
  8
DIM
100
AcDbLine
 10
19.93074463300144
 20
19.21097855435603
 30
0.0
 11
19.80074463300144
 21
19.21097855435603
 31
0.0
  0
LINE
  5
15D8
330
2
100
AcDbEntity
  8
DIM
100
AcDbLine
 10
20.33074463300142
 20
19.21097855435603
 30
0.0
 11
20.62466951678614
 21
19.21097855435603
 31
0.0
  0
SOLID
  5
15D9
330
2
100
AcDbEntity
  8
DIM
100
AcDbTrace
 10
19.93074463300144
 20
19.2326452210227
 30
0.0
 11
19.93074463300144
 21
19.18931188768937
 31
0.0
 12
20.06074463300144
 22
19.21097855435603
 32
0.0
 13
20.06074463300144
 23
19.21097855435603
 33
0.0
  0
SOLID
  5
15DA
330
2
100
AcDbEntity
  8
DIM
100
AcDbTrace
 10
20.33074463300142
 20
19.2326452210227
 30
0.0
 11
20.33074463300142
 21
19.18931188768937
 31
0.0
 12
20.20074463300142
 22
19.21097855435603
 32
0.0
 13
20.20074463300142
 23
19.21097855435603
 33
0.0
  0
MTEXT
  5
15DB
330
2
100
AcDbEntity
  8
DIM
100
AcDbMText
 10
20.91788243326309
 20
19.3120444958924
 30
0.0
 40
0.156
 41
0.0
 71
     2
 72
     1
  1
{\fCentury Gothic|b0|i0|c0|p34;.140}
  7
SLDTEXTSTYLE6
1001
ACAD
1000
MTEXTBEGIN
1070
    73
1070
     1
1070
    44
1040
1.0
1070
    74
1070
     0
1000
MTEXTEND
  0
LINE
  5
15DC
330
2
100
AcDbEntity
  8
DIM
100
AcDbLine
 10
6.003787757568918
 20
8.105825549142387
 30
0.0
 11
4.963531852057116
 21
8.105825549142387
 31
0.0
  0
LINE
  5
15DD
330
2
100
AcDbEntity
  8
DIM
100
AcDbLine
 10
6.003787757568918
 20
7.613419079436045
 30
0.0
 11
4.963531852057116
 21
7.613419079436046
 31
0.0
  0
LINE
  5
15DE
330
2
100
AcDbEntity
  8
DIM
100
AcDbLine
 10
5.066018445518154
 20
8.235825549142388
 30
0.0
 11
5.066018445518154
 21
8.365825549142387
 31
0.0
  0
LINE
  5
15DF
330
2
100
AcDbEntity
  8
DIM
100
AcDbLine
 10
5.066018445518154
 20
7.483419079436046
 30
0.0
 11
5.066018445518154
 21
7.353419079436046
 31
0.0
  0
SOLID
  5
15E2
330
2
100
AcDbEntity
  8
DIM
100
AcDbTrace
 10
5.044351778851487
 20
8.235825549142388
 30
0.0
 11
5.087685112184821
 21
8.235825549142388
 31
0.0
 12
5.066018445518154
 22
8.105825549142387
 32
0.0
 13
5.066018445518154
 23
8.105825549142387
 33
0.0
  0
SOLID
  5
15E3
330
2
100
AcDbEntity
  8
DIM
100
AcDbTrace
 10
5.044351778851487
 20
7.483419079436046
 30
0.0
 11
5.087685112184821
 21
7.483419079436046
 31
0.0
 12
5.066018445518154
 22
7.613419079436046
 32
0.0
 13
5.066018445518154
 23
7.613419079436046
 33
0.0
  0
MTEXT
  5
15E4
330
2
100
AcDbEntity
  8
DIM
100
AcDbMText
 10
5.066018445518153
 20
8.051058231109639
 30
0.0
 40
0.156
 41
0.0
 71
     2
 72
     1
  1
{\fCentury Gothic|b0|i0|c0|p34;.492}
  7
SLDTEXTSTYLE6
1001
ACAD
1000
MTEXTBEGIN
1070
    73
1070
     1
1070
    44
1040
1.0
1070
    74
1070
     0
1000
MTEXTEND
  0
MTEXT
  5
15E5
330
2
100
AcDbEntity
  8
DIM
100
AcDbMText
 10
3.499914888444012
 20
15.70193525438117
 30
0.0
 40
0.156
 41
0.0
 71
     2
 72
     1
  1
{\fCentury Gothic|b0|i0|c0|p34;(151.47)}
  7
SLDTEXTSTYLE6
1001
ACAD
1000
MTEXTBEGIN
1070
    73
1070
     1
1070
    44
1040
1.0
1070
    74
1070
     0
1000
MTEXTEND
  0
MTEXT
  5
15E6
330
2
100
AcDbEntity
  8
DIM
100
AcDbMText
 10
4.390134567533415
 20
14.8798632215669
 30
0.0
 40
0.156
 41
0.0
 71
     2
 72
     1
  1
{\fCentury Gothic|b0|i0|c0|p34;(124.17)}
  7
SLDTEXTSTYLE6
1001
ACAD
1000
MTEXTBEGIN
1070
    73
1070
     1
1070
    44
1040
1.0
1070
    74
1070
     0
1000
MTEXTEND
  0
MTEXT
  5
15E7
330
2
100
AcDbEntity
  8
DIM
100
AcDbMText
 10
4.919545859696497
 20
12.65301430798468
 30
0.0
 40
0.156
 41
0.0
 71
     2
 72
     1
  1
{\fCentury Gothic|b0|i0|c0|p34;(17.02)}
  7
SLDTEXTSTYLE6
1001
ACAD
1000
MTEXTBEGIN
1070
    73
1070
     1
1070
    44
1040
1.0
1070
    74
1070
     0
1000
MTEXTEND
  0
MTEXT
  5
15E8
330
2
100
AcDbEntity
  8
DIM
100
AcDbMText
 10
7.038835465954168
 20
19.57614699928095
 30
0.0
 40
0.156
 41
0.0
 71
     2
 72
     1
  1
{\fCentury Gothic|b0|i0|c0|p34;(50.80)}
  7
SLDTEXTSTYLE6
1001
ACAD
1000
MTEXTBEGIN
1070
    73
1070
     1
1070
    44
1040
1.0
1070
    74
1070
     0
1000
MTEXTEND
  0
MTEXT
  5
15E9
330
2
100
AcDbEntity
  8
DIM
100
AcDbMText
 10
7.038835465954168
 20
11.66102916870372
 30
0.0
 40
0.156
 41
0.0
 71
     2
 72
     1
  1
{\fCentury Gothic|b0|i0|c0|p34;(48.35)}
  7
SLDTEXTSTYLE6
1001
ACAD
1000
MTEXTBEGIN
1070
    73
1070
     1
1070
    44
1040
1.0
1070
    74
1070
     0
1000
MTEXTEND
  0
MTEXT
  5
15EA
330
2
100
AcDbEntity
  8
DIM
100
AcDbMText
 10
8.92741488399263
 20
11.04899387006607
 30
0.0
 40
0.156
 41
0.0
 71
     2
 72
     1
  1
{\fCentury Gothic|b0|i0|c0|p34;(203.61)}
  7
SLDTEXTSTYLE6
1001
ACAD
1000
MTEXTBEGIN
1070
    73
1070
     1
1070
    44
1040
1.0
1070
    74
1070
     0
1000
MTEXTEND
  0
MTEXT
  5
15EB
330
2
100
AcDbEntity
  8
DIM
100
AcDbMText
 10
9.863412638211192
 20
10.34033245274323
 30
0.0
 40
0.156
 41
0.0
 71
     2
 72
     1
  1
{\fCentury Gothic|b0|i0|c0|p34;(251.96)}
  7
SLDTEXTSTYLE6
1001
ACAD
1000
MTEXTBEGIN
1070
    73
1070
     1
1070
    44
1040
1.0
1070
    74
1070
     0
1000
MTEXTEND
  0
MTEXT
  5
15EC
330
2
100
AcDbEntity
  8
DIM
100
AcDbMText
 10
5.066018445518153
 20
7.865361013097814
 30
0.0
 40
0.156
 41
0.0
 71
     2
 72
     1
  1
{\fCentury Gothic|b0|i0|c0|p34;(12.51)}
  7
SLDTEXTSTYLE6
1001
ACAD
1000
MTEXTBEGIN
1070
    73
1070
     1
1070
    44
1040
1.0
1070
    74
1070
     0
1000
MTEXTEND
  0
MTEXT
  5
15ED
330
2
100
AcDbEntity
  8
DIM
100
AcDbMText
 10
20.91788243326309
 20
19.06282783258888
 30
0.0
 40
0.156
 41
0.0
 71
     2
 72
     1
  1
{\fCentury Gothic|b0|i0|c0|p34;(3.56)}
  7
SLDTEXTSTYLE6
1001
ACAD
1000
MTEXTBEGIN
1070
    73
1070
     1
1070
    44
1040
1.0
1070
    74
1070
     0
1000
MTEXTEND
  0
LINE
  5
1C87
330
2
100
AcDbEntity
  8
DIM
100
AcDbLine
 10
6.317130184774308
 20
7.523182858963604
 30
0.0
 11
4.322501451895741
 21
7.523182858963604
 31
0.0
  0
LINE
  5
1C88
330
2
100
AcDbEntity
  8
DIM
100
AcDbLine
 10
6.003787757568913
 20
8.105450544949228
 30
0.0
 11
4.322501451895741
 21
8.105450544949228
 31
0.0
  0
MTEXT
  5
1C89
330
2
100
AcDbEntity
  8
DIM
100
AcDbMText
 10
4.385274886048515
 20
8.038298353033237
 30
0.0
 40
0.156
 41
0.0
 71
     2
 72
     1
  1
{\fCentury Gothic|b0|i0|c0|p34;.582}
  7
SLDTEXTSTYLE6
1001
ACAD
1000
MTEXTBEGIN
1070
    73
1070
     1
1070
    44
1040
1.0
1070
    74
1070
     0
1000
MTEXTEND
  0
MTEXT
  5
1C8A
330
2
100
AcDbEntity
  8
DIM
100
AcDbMText
 10
4.385274886048515
 20
7.828643514796137
 30
0.0
 40
0.156
 41
0.0
 71
     2
 72
     1
  1
{\fCentury Gothic|b0|i0|c0|p34;(14.79)}
  7
SLDTEXTSTYLE6
1001
ACAD
1000
MTEXTBEGIN
1070
    73
1070
     1
1070
    44
1040
1.0
1070
    74
1070
     0
1000
MTEXTEND
  0
LINE
  5
1C8B
330
2
100
AcDbEntity
  8
DIM
100
AcDbLine
 10
4.385274886048515
 20
7.393182858963605
 30
0.0
 11
4.385274886048515
 21
7.290492712825606
 31
0.0
  0
SOLID
  5
1C8C
330
2
100
AcDbEntity
  8
DIM
100
AcDbTrace
 10
4.36360821938185
 20
7.393182858963605
 30
0.0
 11
4.406941552715183
 21
7.393182858963605
 31
0.0
 12
4.385274886048515
 22
7.523182858963604
 32
0.0
 13
4.385274886048515
 23
7.523182858963604
 33
0.0
  0
SOLID
  5
1C8D
330
2
100
AcDbEntity
  8
DIM
100
AcDbTrace
 10
4.36360821938185
 20
8.235450544949227
 30
0.0
 11
4.406941552715183
 21
8.235450544949227
 31
0.0
 12
4.385274886048515
 22
8.105450544949228
 32
0.0
 13
4.385274886048515
 23
8.105450544949228
 33
0.0
  0
LINE
  5
1C8E
330
2
100
AcDbEntity
  8
DIM
100
AcDbLine
 10
4.385274886048515
 20
8.235450544949227
 30
0.0
 11
4.385274886048515
 21
8.341188262706914
 31
0.0
  0
LINE
  5
1C8F
330
2
100
AcDbEntity
  8
PART
  6
SLD-SOLID
100
AcDbLine
 10
6.415162312297946
 20
7.541152234105886
 30
0.0
 11
6.622929800306986
 21
7.541152234105886
 31
0.0
  0
LINE
  5
1C90
330
2
100
AcDbEntity
  8
PART
  6
SLD-SOLID
100
AcDbLine
 10
6.628336615537303
 20
7.602952414980308
 30
0.0
 11
6.354632604294968
 21
7.602952414980308
 31
0.0
  0
SPLINE
  5
1C91
330
2
100
AcDbEntity
  8
PART
  6
SLD-SOLID
100
AcDbSpline
210
0.0
220
0.0
230
1.0
 70
    24
 71
     3
 72
    30
 73
    26
 74
     0
 42
0.0000000001
 43
0.0000000001
 40
0.0
 40
0.0
 40
0.0
 40
0.0
 40
0.0451290920644273
 40
0.0897637352175286
 40
0.1343379227838606
 40
0.179287399242893
 40
0.224297746248588
 40
0.268890176718756
 40
0.3135029340628597
 40
0.35857366875172
 40
0.4035827112410195
 40
0.4481754679484748
 40
0.4927901012714161
 40
0.5378641356272903
 40
0.5828701682161678
 40
0.6274618379152692
 40
0.6720775077841347
 40
0.7171548407051575
 40
0.7621657977132245
 40
0.8067591253198933
 40
0.8513731369995733
 40
0.8964455427944612
 40
0.9414531713175614
 40
0.9860454518663972
 40
1.0
 40
1.0
 40
1.0
 40
1.0
 10
6.42654873362771
 20
7.523182858963604
 30
0.0
 10
6.429609789967946
 20
7.523182858963604
 30
0.0
 10
6.435698364726297
 20
7.523182858963604
 30
0.0
 10
6.44550990773556
 20
7.523182858963604
 30
0.0
 10
6.455713769567797
 20
7.523182858963604
 30
0.0
 10
6.466302591903469
 20
7.523182858963604
 30
0.0
 10
6.477125672765996
 20
7.523182858963604
 30
0.0
 10
6.488064072788523
 20
7.523182858963604
 30
0.0
 10
6.499040493522349
 20
7.523182858963604
 30
0.0
 10
6.509975133287868
 20
7.523182858963604
 30
0.0
 10
6.520735479875174
 20
7.523182858963604
 30
0.0
 10
6.531178367410648
 20
7.523182858963604
 30
0.0
 10
6.541237822327339
 20
7.523182858963604
 30
0.0
 10
6.550843535211894
 20
7.523182858963604
 30
0.0
 10
6.55989305814114
 20
7.523182858963604
 30
0.0
 10
6.568250491126685
 20
7.523182858963604
 30
0.0
 10
6.575861096838101
 20
7.523182858963604
 30
0.0
 10
6.582675586276419
 20
7.523182858963604
 30
0.0
 10
6.588636544588215
 20
7.523182858963604
 30
0.0
 10
6.593637837247504
 20
7.523182858963604
 30
0.0
 10
6.597636288412541
 20
7.523182858963604
 30
0.0
 10
6.600637878751511
 20
7.523182858963604
 30
0.0
 10
6.602539911827454
 20
7.523182858963604
 30
0.0
 10
6.603397784191031
 20
7.523182858963604
 30
0.0
 10
6.603256234663557
 20
7.523182858963604
 30
0.0
 10
6.603222496547612
 20
7.523182858963604
 30
0.0
  0
LINE
  5
1C92
330
2
100
AcDbEntity
  8
PART
  6
SLD-SOLID
100
AcDbLine
 10
6.360039419525287
 20
7.541152234105886
 30
0.0
 11
6.415162312297946
 21
7.541152234105886
 31
0.0
  0
SPLINE
  5
1C93
330
2
100
AcDbEntity
  8
PART
  6
SLD-SOLID
100
AcDbSpline
210
0.0
220
0.0
230
1.0
 70
    24
 71
     3
 72
    17
 73
    13
 74
     0
 42
0.0000000001
 43
0.0000000001
 40
0.0
 40
0.0
 40
0.0
 40
0.0
 40
0.0705957281509568
 40
0.1743816363051245
 40
0.2780038483969164
 40
0.3806729634529784
 40
0.4833981679299964
 40
0.5871870121481799
 40
0.6906086895380338
 40
0.7932149701513875
 40
0.8960119020521133
 40
0.9999999999999998
 40
0.9999999999999998
 40
0.9999999999999998
 40
0.9999999999999998
 10
6.379746723284657
 20
7.523182858963604
 30
0.0
 10
6.379751878463284
 20
7.523182858963604
 30
0.0
 10
6.379764612498449
 20
7.523182858963604
 30
0.0
 10
6.381036930547494
 20
7.523182858963604
 30
0.0
 10
6.383334679018032
 20
7.523182858963604
 30
0.0
 10
6.386714924555626
 20
7.523182858963604
 30
0.0
 10
6.391110919179345
 20
7.523182858963604
 30
0.0
 10
6.39649217990666
 20
7.523182858963604
 30
0.0
 10
6.402755922712975
 20
7.523182858963604
 30
0.0
 10
6.409873255284265
 20
7.523182858963604
 30
0.0
 10
6.417756980076484
 20
7.523182858963604
 30
0.0
 10
6.423606916438105
 20
7.523182858963604
 30
0.0
 10
6.42654873362771
 20
7.523182858963604
 30
0.0
  0
ARC
  5
1C94
330
2
100
AcDbEntity
  8
PART
  6
SLD-SOLID
100
AcDbCircle
 10
6.379649551377488
 20
7.542867898333682
 30
0.0
 40
0.0196850393701435
100
AcDbArc
 50
185.0000000013896
 51
270.0000000000008
  0
LINE
  5
1C95
330
2
100
AcDbEntity
  8
PART
  6
SLD-SOLID
100
AcDbLine
 10
6.354632604294947
 20
7.602952414980308
 30
0.0
 11
6.360039419525287
 21
7.541152234105886
 31
0.0
  0
ARC
  5
1C96
330
2
100
AcDbEntity
  8
PART
  6
SLD-SOLID
100
AcDbCircle
 10
6.342866525183646
 20
7.601923016443922
 30
0.0
 40
0.0118110236220471
100
AcDbArc
 50
4.999999999986921
 51
76.73852446376527
  0
LINE
  5
1C97
330
2
100
AcDbEntity
  8
PART
  6
SLD-SOLID
100
AcDbLine
 10
6.855319790659364
 20
7.541152234105886
 30
0.0
 11
7.063087278668406
 21
7.541152234105886
 31
0.0
  0
LINE
  5
1C98
330
2
100
AcDbEntity
  8
PART
  6
SLD-SOLID
100
AcDbLine
 10
7.068494093898723
 20
7.602952414980308
 30
0.0
 11
6.794790082656386
 21
7.602952414980308
 31
0.0
  0
LINE
  5
1C9A
330
2
100
AcDbEntity
  8
PART
  6
SLD-SOLID
100
AcDbLine
 10
6.800196897886706
 20
7.541152234105886
 30
0.0
 11
6.855319790659364
 21
7.541152234105886
 31
0.0
  0
ARC
  5
1C9C
330
2
100
AcDbEntity
  8
PART
  6
SLD-SOLID
100
AcDbCircle
 10
6.819807029738909
 20
7.542867898333682
 30
0.0
 40
0.0196850393701426
100
AcDbArc
 50
185.0000000013898
 51
270.0000000000008
  0
LINE
  5
1C9D
330
2
100
AcDbEntity
  8
PART
  6
SLD-SOLID
100
AcDbLine
 10
6.794790082656365
 20
7.602952414980308
 30
0.0
 11
6.800196897886706
 21
7.541152234105886
 31
0.0
  0
LWPOLYLINE
  5
1C9E
330
2
100
AcDbEntity
  8
PART
  6
SLD-SOLID
100
AcDbPolyline
 90
        3
 70
   128
 43
0.0
 10
6.629279885506718
 20
7.606652401316935
 10
6.629880000293136
 20
7.60492586308117
 10
6.630223155476068
 20
7.602952414980308
  0
ARC
  5
1C9F
330
2
100
AcDbEntity
  8
PART
  6
SLD-SOLID
100
AcDbCircle
 10
6.603319668454782
 20
7.542867898333682
 30
0.0
 40
0.0196850393701435
100
AcDbArc
 50
270.0000000000034
 51
354.9999999986119
  0
LINE
  5
1CA0
330
2
100
AcDbEntity
  8
PART
  6
SLD-SOLID
100
AcDbLine
 10
6.622929800306986
 20
7.541152234105886
 30
0.0
 11
6.628336615537325
 21
7.602952414980308
 31
0.0
  0
ARC
  5
1CA1
330
2
100
AcDbEntity
  8
PART
  6
SLD-SOLID
100
AcDbCircle
 10
6.640102694648623
 20
7.601923016443922
 30
0.0
 40
0.011811023622048
100
AcDbArc
 50
103.2614755362347
 51
175.0000000000135
  0
ARC
  5
1CA2
330
2
100
AcDbEntity
  8
PART
  6
SLD-SOLID
100
AcDbCircle
 10
7.043477146816203
 20
7.542867898333682
 30
0.0
 40
0.0196850393701426
100
AcDbArc
 50
270.0000000000008
 51
354.9999999986115
  0
LINE
  5
1CA3
330
2
100
AcDbEntity
  8
PART
  6
SLD-SOLID
100
AcDbLine
 10
7.063087278668406
 20
7.541152234105886
 30
0.0
 11
7.068494093898745
 21
7.602952414980308
 31
0.0
  0
ARC
  5
1CA4
330
2
100
AcDbEntity
  8
PART
  6
SLD-SOLID
100
AcDbCircle
 10
7.080260173010043
 20
7.601923016443922
 30
0.0
 40
0.0118110236220464
100
AcDbArc
 50
103.2614755362263
 51
175.0000000000126
  0
LINE
  5
1CA7
330
2
100
AcDbEntity
  8
PART
100
AcDbLine
 10
6.819807029738909
 20
7.523182858963539
 30
0.0
 11
7.043477146816203
 21
7.523182858963539
 31
0.0
  0
ARC
  5
1CA8
330
2
100
AcDbEntity
  8
PART
  6
SLD-SOLID
100
AcDbCircle
 10
6.783024003545068
 20
7.601923016443922
 30
0.0
 40
0.0118110236220464
100
AcDbArc
 50
4.99999999998733
 51
76.73852446377363
  0
ARC
  5
1CA9
330
2
100
AcDbEntity
  8
PART
  6
SLD-SOLID
100
AcDbCircle
 10
15.67261100313054
 20
7.542867898333682
 30
0.0
 40
0.0196850393701435
100
AcDbArc
 50
269.9999999999992
 51
354.9999999986103
  0
LINE
  5
1CAA
330
2
100
AcDbEntity
  8
PART
  6
SLD-SOLID
100
AcDbLine
 10
15.69222113498273
 20
7.541152234105886
 30
0.0
 11
15.63709824221008
 21
7.541152234105886
 31
0.0
  0
LINE
  5
1CAB
330
2
100
AcDbEntity
  8
PART
  6
SLD-SOLID
100
AcDbLine
 10
15.42392393897072
 20
7.602952414980308
 30
0.0
 11
15.69762795021306
 21
7.602952414980308
 31
0.0
  0
LINE
  5
1CAC
330
2
100
AcDbEntity
  8
PART
  6
SLD-SOLID
100
AcDbLine
 10
15.69762795021308
 20
7.602952414980308
 30
0.0
 11
15.69222113498273
 21
7.541152234105886
 31
0.0
  0
ARC
  5
1CAD
330
2
100
AcDbEntity
  8
PART
  6
SLD-SOLID
100
AcDbCircle
 10
15.70939402932438
 20
7.601923016443922
 30
0.0
 40
0.0118110236220471
100
AcDbArc
 50
103.2614755362347
 51
175.000000000013
  0
LINE
  5
1CAE
330
2
100
AcDbEntity
  8
PART
  6
SLD-SOLID
100
AcDbLine
 10
15.25747047185166
 20
7.602952414980308
 30
0.0
 11
15.25206365662132
 21
7.541152234105886
 31
0.0
  0
LINE
  5
1CAF
330
2
100
AcDbEntity
  8
PART
  6
SLD-SOLID
100
AcDbLine
 10
14.98917327583962
 20
7.541152234105886
 30
0.0
 11
14.98376646060928
 21
7.602952414980308
 31
0.0
  0
LINE
  5
1CB0
330
2
100
AcDbEntity
  8
PART
  6
SLD-SOLID
100
AcDbLine
 10
15.42933075420104
 20
7.541152234105886
 30
0.0
 11
15.4239239389707
 21
7.602952414980308
 31
0.0
  0
LINE
  5
1CB1
330
2
100
AcDbEntity
  8
PART
  6
SLD-SOLID
100
AcDbLine
 10
15.19694076384866
 20
7.541152234105886
 30
0.0
 11
14.98917327583962
 21
7.541152234105886
 31
0.0
  0
LINE
  5
1CB2
330
2
100
AcDbEntity
  8
PART
100
AcDbLine
 10
15.23245352476911
 20
7.523182858963539
 30
0.0
 11
15.00878340769182
 21
7.523182858963539
 31
0.0
  0
ARC
  5
1CB3
330
2
100
AcDbEntity
  8
PART
  6
SLD-SOLID
100
AcDbCircle
 10
15.44894088605324
 20
7.542867898333682
 30
0.0
 40
0.0196850393701435
100
AcDbArc
 50
185.000000001388
 51
269.9999999999965
  0
SPLINE
  5
1CB4
330
2
100
AcDbEntity
  8
PART
  6
SLD-SOLID
100
AcDbSpline
210
0.0
220
0.0
230
1.0
 70
    24
 71
     3
 72
    17
 73
    13
 74
     0
 42
0.0000000001
 43
0.0000000001
 40
0.0
 40
0.0
 40
0.0
 40
0.0
 40
0.0705957281509568
 40
0.1743816363051245
 40
0.2780038483969164
 40
0.3806729634529784
 40
0.4833981679299964
 40
0.5871870121481799
 40
0.6906086895380338
 40
0.7932149701513875
 40
0.8960119020521133
 40
0.9999999999999998
 40
0.9999999999999998
 40
0.9999999999999998
 40
0.9999999999999998
 10
15.67251383122337
 20
7.523182858963604
 30
0.0
 10
15.67250867604474
 20
7.523182858963604
 30
0.0
 10
15.67249594200957
 20
7.523182858963604
 30
0.0
 10
15.67122362396053
 20
7.523182858963604
 30
0.0
 10
15.66892587548999
 20
7.523182858963604
 30
0.0
 10
15.6655456299524
 20
7.523182858963604
 30
0.0
 10
15.66114963532868
 20
7.523182858963604
 30
0.0
 10
15.65576837460136
 20
7.523182858963604
 30
0.0
 10
15.64950463179505
 20
7.523182858963604
 30
0.0
 10
15.64238729922376
 20
7.523182858963604
 30
0.0
 10
15.63450357443154
 20
7.523182858963604
 30
0.0
 10
15.62865363806992
 20
7.523182858963604
 30
0.0
 10
15.62571182088031
 20
7.523182858963604
 30
0.0
  0
SPLINE
  5
1CB5
330
2
100
AcDbEntity
  8
PART
  6
SLD-SOLID
100
AcDbSpline
210
0.0
220
0.0
230
1.0
 70
    24
 71
     3
 72
    30
 73
    26
 74
     0
 42
0.0000000001
 43
0.0000000001
 40
0.0
 40
0.0
 40
0.0
 40
0.0
 40
0.0451290920644273
 40
0.0897637352175286
 40
0.1343379227838606
 40
0.179287399242893
 40
0.224297746248588
 40
0.268890176718756
 40
0.3135029340628597
 40
0.35857366875172
 40
0.4035827112410195
 40
0.4481754679484748
 40
0.4927901012714161
 40
0.5378641356272903
 40
0.5828701682161678
 40
0.6274618379152692
 40
0.6720775077841347
 40
0.7171548407051575
 40
0.7621657977132245
 40
0.8067591253198933
 40
0.8513731369995733
 40
0.8964455427944612
 40
0.9414531713175614
 40
0.9860454518663972
 40
1.0
 40
1.0
 40
1.0
 40
1.0
 10
15.62571182088031
 20
7.523182858963604
 30
0.0
 10
15.62265076454008
 20
7.523182858963604
 30
0.0
 10
15.61656218978173
 20
7.523182858963604
 30
0.0
 10
15.60675064677246
 20
7.523182858963604
 30
0.0
 10
15.59654678494023
 20
7.523182858963604
 30
0.0
 10
15.58595796260456
 20
7.523182858963604
 30
0.0
 10
15.57513488174203
 20
7.523182858963604
 30
0.0
 10
15.5641964817195
 20
7.523182858963604
 30
0.0
 10
15.55322006098568
 20
7.523182858963604
 30
0.0
 10
15.54228542122015
 20
7.523182858963604
 30
0.0
 10
15.53152507463285
 20
7.523182858963604
 30
0.0
 10
15.52108218709737
 20
7.523182858963604
 30
0.0
 10
15.51102273218068
 20
7.523182858963604
 30
0.0
 10
15.50141701929613
 20
7.523182858963604
 30
0.0
 10
15.49236749636688
 20
7.523182858963604
 30
0.0
 10
15.48401006338134
 20
7.523182858963604
 30
0.0
 10
15.47639945766992
 20
7.523182858963604
 30
0.0
 10
15.4695849682316
 20
7.523182858963604
 30
0.0
 10
15.46362400991981
 20
7.523182858963604
 30
0.0
 10
15.45862271726052
 20
7.523182858963604
 30
0.0
 10
15.45462426609548
 20
7.523182858963604
 30
0.0
 10
15.45162267575651
 20
7.523182858963604
 30
0.0
 10
15.44972064268057
 20
7.523182858963604
 30
0.0
 10
15.44886277031699
 20
7.523182858963604
 30
0.0
 10
15.44900431984447
 20
7.523182858963604
 30
0.0
 10
15.44903805796041
 20
7.523182858963604
 30
0.0
  0
LINE
  5
1CB6
330
2
100
AcDbEntity
  8
PART
  6
SLD-SOLID
100
AcDbLine
 10
15.63709824221008
 20
7.541152234105886
 30
0.0
 11
15.42933075420104
 21
7.541152234105886
 31
0.0
  0
LINE
  5
1CB7
330
2
100
AcDbEntity
  8
PART
  6
SLD-SOLID
100
AcDbLine
 10
15.25206365662132
 20
7.541152234105886
 30
0.0
 11
15.19694076384866
 21
7.541152234105886
 31
0.0
  0
ARC
  5
1CB8
330
2
100
AcDbEntity
  8
PART
  6
SLD-SOLID
100
AcDbCircle
 10
15.23245352476911
 20
7.542867898333682
 30
0.0
 40
0.0196850393701426
100
AcDbArc
 50
269.9999999999992
 51
354.9999999986101
  0
ARC
  5
1CB9
330
2
100
AcDbEntity
  8
PART
  6
SLD-SOLID
100
AcDbCircle
 10
15.00878340769182
 20
7.542867898333682
 30
0.0
 40
0.0196850393701426
100
AcDbArc
 50
185.0000000013884
 51
269.9999999999992
  0
LINE
  5
1CBA
330
2
100
AcDbEntity
  8
PART
  6
SLD-SOLID
100
AcDbLine
 10
14.9837664606093
 20
7.602952414980308
 30
0.0
 11
15.25747047185164
 21
7.602952414980308
 31
0.0
  0
ARC
  5
1CBB
330
2
100
AcDbEntity
  8
PART
  6
SLD-SOLID
100
AcDbCircle
 10
15.4121578598594
 20
7.601923016443922
 30
0.0
 40
0.011811023622048
100
AcDbArc
 50
4.999999999986515
 51
76.73852446376528
  0
LWPOLYLINE
  5
1CBC
330
2
100
AcDbEntity
  8
PART
  6
SLD-SOLID
100
AcDbPolyline
 90
        3
 70
   128
 43
0.0
 10
15.4229806690013
 20
7.606652401316935
 10
15.42238055421489
 20
7.60492586308117
 10
15.42203739903196
 20
7.602952414980308
  0
ARC
  5
1CBD
330
2
100
AcDbEntity
  8
PART
  6
SLD-SOLID
100
AcDbCircle
 10
15.26923655096295
 20
7.601923016443922
 30
0.0
 40
0.0118110236220464
100
AcDbArc
 50
103.2614755362263
 51
175.0000000000126
  0
ARC
  5
1CBE
330
2
100
AcDbEntity
  8
PART
  6
SLD-SOLID
100
AcDbCircle
 10
14.97200038149798
 20
7.601923016443922
 30
0.0
 40
0.0118110236220464
100
AcDbArc
 50
4.99999999998733
 51
76.73852446377363
  0
LINE
  5
1CCD
330
2
100
AcDbEntity
  8
PART
  6
SLD-SOLID
100
AcDbLine
 10
20.2730114783316
 20
12.97667159339319
 30
0.0
 11
20.21121129745718
 21
12.97126477816285
 31
0.0
  0
LINE
  5
1CCE
330
2
100
AcDbEntity
  8
PART
  6
SLD-SOLID
100
AcDbLine
 10
20.21121129745718
 20
13.24496878940523
 30
0.0
 11
20.2730114783316
 21
13.23956197417489
 31
0.0
  0
SPLINE
  5
1CCF
330
2
100
AcDbEntity
  8
PART
  6
SLD-SOLID
100
AcDbSpline
210
0.0
220
0.0
230
1.0
 70
    24
 71
     3
 72
    17
 73
    13
 74
     0
 42
0.0000000001
 43
0.0000000001
 40
0.0
 40
0.0
 40
0.0
 40
0.0
 40
0.0705957281509568
 40
0.1743816363051245
 40
0.2780038483969164
 40
0.3806729634529784
 40
0.4833981679299964
 40
0.5871870121481799
 40
0.6906086895380338
 40
0.7932149701513875
 40
0.8960119020521133
 40
0.9999999999999998
 40
0.9999999999999998
 40
0.9999999999999998
 40
0.9999999999999998
 10
20.29098085347388
 20
13.21985467041552
 30
0.0
 10
20.29098085347388
 20
13.21984951523689
 30
0.0
 10
20.29098085347388
 20
13.21983678120173
 30
0.0
 10
20.29098085347388
 20
13.21856446315268
 30
0.0
 10
20.29098085347388
 20
13.21626671468215
 30
0.0
 10
20.29098085347388
 20
13.21288646914455
 30
0.0
 10
20.29098085347388
 20
13.20849047452083
 30
0.0
 10
20.29098085347388
 20
13.20310921379352
 30
0.0
 10
20.29098085347388
 20
13.1968454709872
 30
0.0
 10
20.29098085347388
 20
13.18972813841591
 30
0.0
 10
20.29098085347388
 20
13.18184441362369
 30
0.0
 10
20.29098085347388
 20
13.17599447726207
 30
0.0
 10
20.29098085347388
 20
13.17305266007247
 30
0.0
  0
LINE
  5
1CD0
330
2
100
AcDbEntity
  8
PART
  6
SLD-SOLID
100
AcDbLine
 10
20.2730114783316
 20
13.23956197417489
 30
0.0
 11
20.2730114783316
 21
13.18443908140223
 31
0.0
  0
LINE
  5
1CD1
330
2
100
AcDbEntity
  8
PART
  6
SLD-SOLID
100
AcDbLine
 10
20.2730114783316
 20
13.18443908140223
 30
0.0
 11
20.2730114783316
 21
12.97667159339319
 31
0.0
  0
SPLINE
  5
1CD2
330
2
100
AcDbEntity
  8
PART
  6
SLD-SOLID
100
AcDbSpline
210
0.0
220
0.0
230
1.0
 70
    24
 71
     3
 72
    30
 73
    26
 74
     0
 42
0.0000000001
 43
0.0000000001
 40
0.0
 40
0.0
 40
0.0
 40
0.0
 40
0.0451290920644273
 40
0.0897637352175286
 40
0.1343379227838606
 40
0.179287399242893
 40
0.224297746248588
 40
0.268890176718756
 40
0.3135029340628597
 40
0.35857366875172
 40
0.4035827112410195
 40
0.4481754679484748
 40
0.4927901012714161
 40
0.5378641356272903
 40
0.5828701682161678
 40
0.6274618379152692
 40
0.6720775077841347
 40
0.7171548407051575
 40
0.7621657977132245
 40
0.8067591253198933
 40
0.8513731369995733
 40
0.8964455427944612
 40
0.9414531713175614
 40
0.9860454518663972
 40
1.0
 40
1.0
 40
1.0
 40
1.0
 10
20.29098085347388
 20
13.17305266007247
 30
0.0
 10
20.29098085347388
 20
13.16999160373223
 30
0.0
 10
20.29098085347388
 20
13.16390302897388
 30
0.0
 10
20.29098085347388
 20
13.15409148596462
 30
0.0
 10
20.29098085347388
 20
13.14388762413238
 30
0.0
 10
20.29098085347388
 20
13.13329880179671
 30
0.0
 10
20.29098085347388
 20
13.12247572093418
 30
0.0
 10
20.29098085347388
 20
13.11153732091166
 30
0.0
 10
20.29098085347388
 20
13.10056090017783
 30
0.0
 10
20.29098085347388
 20
13.08962626041231
 30
0.0
 10
20.29098085347388
 20
13.078865913825
 30
0.0
 10
20.29098085347388
 20
13.06842302628953
 30
0.0
 10
20.29098085347388
 20
13.05836357137284
 30
0.0
 10
20.29098085347388
 20
13.04875785848828
 30
0.0
 10
20.29098085347388
 20
13.03970833555904
 30
0.0
 10
20.29098085347388
 20
13.03135090257349
 30
0.0
 10
20.29098085347388
 20
13.02374029686208
 30
0.0
 10
20.29098085347388
 20
13.01692580742376
 30
0.0
 10
20.29098085347388
 20
13.01096484911196
 30
0.0
 10
20.29098085347388
 20
13.00596355645267
 30
0.0
 10
20.29098085347388
 20
13.00196510528764
 30
0.0
 10
20.29098085347388
 20
12.99896351494867
 30
0.0
 10
20.29098085347388
 20
12.99706148187272
 30
0.0
 10
20.29098085347388
 20
12.99620360950915
 30
0.0
 10
20.29098085347388
 20
12.99634515903662
 30
0.0
 10
20.29098085347388
 20
12.99637889715256
 30
0.0
  0
ARC
  5
1CD3
330
2
100
AcDbEntity
  8
PART
  6
SLD-SOLID
100
AcDbCircle
 10
20.27129581410381
 20
12.99628172524539
 30
0.0
 40
0.0196850393701435
100
AcDbArc
 50
275.000000001388
 51
359.9999999999965
  0
ARC
  5
1CD4
330
2
100
AcDbEntity
  8
PART
  6
SLD-SOLID
100
AcDbCircle
 10
20.27129581410381
 20
13.21995184232269
 30
0.0
 40
0.0196850393701435
100
AcDbArc
 50
359.9999999999992
 51
84.99999999861033
  0
LINE
  5
1CD5
330
2
100
AcDbEntity
  8
PART
  6
SLD-SOLID
100
AcDbLine
 10
20.21121129745718
 20
12.97126477816287
 30
0.0
 11
20.21121129745718
 21
13.24496878940521
 31
0.0
  0
LWPOLYLINE
  5
1CD6
330
2
100
AcDbEntity
  8
PART
  6
SLD-SOLID
100
AcDbPolyline
 90
        3
 70
   128
 43
0.0
 10
20.20751131112055
 20
12.97032150819346
 10
20.20923784935632
 20
12.96972139340704
 10
20.21121129745718
 20
12.96937823822411
  0
ARC
  5
1CD7
330
2
100
AcDbEntity
  8
PART
  6
SLD-SOLID
100
AcDbCircle
 10
20.21224069599357
 20
12.95949869905156
 30
0.0
 40
0.011811023622048
100
AcDbArc
 50
94.99999999998648
 51
166.7385244637652
  0
ARC
  5
1CD8
330
2
100
AcDbEntity
  8
PART
  6
SLD-SOLID
100
AcDbCircle
 10
20.21224069599357
 20
13.25673486851653
 30
0.0
 40
0.0118110236220471
100
AcDbArc
 50
193.2614755362346
 51
265.000000000013
  0
LINE
  5
1CDB
330
2
100
AcDbEntity
  8
PART
  6
SLD-SOLID
100
AcDbLine
 10
20.2730114783316
 20
17.08207687667789
 30
0.0
 11
20.2730114783316
 21
16.87430938866884
 31
0.0
  0
SPLINE
  5
1CDC
330
2
100
AcDbEntity
  8
PART
  6
SLD-SOLID
100
AcDbSpline
210
0.0
220
0.0
230
1.0
 70
    24
 71
     3
 72
    30
 73
    26
 74
     0
 42
0.0000000001
 43
0.0000000001
 40
0.0
 40
0.0
 40
0.0
 40
0.0
 40
0.0451290920644273
 40
0.0897637352175286
 40
0.1343379227838606
 40
0.179287399242893
 40
0.224297746248588
 40
0.268890176718756
 40
0.3135029340628597
 40
0.35857366875172
 40
0.4035827112410195
 40
0.4481754679484748
 40
0.4927901012714161
 40
0.5378641356272903
 40
0.5828701682161678
 40
0.6274618379152692
 40
0.6720775077841347
 40
0.7171548407051575
 40
0.7621657977132245
 40
0.8067591253198933
 40
0.8513731369995733
 40
0.8964455427944612
 40
0.9414531713175614
 40
0.9860454518663972
 40
1.0
 40
1.0
 40
1.0
 40
1.0
 10
20.29098085347388
 20
17.07069045534812
 30
0.0
 10
20.29098085347388
 20
17.06762939900789
 30
0.0
 10
20.29098085347388
 20
17.06154082424954
 30
0.0
 10
20.29098085347388
 20
17.05172928124027
 30
0.0
 10
20.29098085347388
 20
17.04152541940803
 30
0.0
 10
20.29098085347388
 20
17.03093659707237
 30
0.0
 10
20.29098085347388
 20
17.02011351620984
 30
0.0
 10
20.29098085347388
 20
17.00917511618731
 30
0.0
 10
20.29098085347388
 20
16.99819869545349
 30
0.0
 10
20.29098085347388
 20
16.98726405568796
 30
0.0
 10
20.29098085347388
 20
16.97650370910066
 30
0.0
 10
20.29098085347388
 20
16.96606082156518
 30
0.0
 10
20.29098085347388
 20
16.9560013666485
 30
0.0
 10
20.29098085347388
 20
16.94639565376394
 30
0.0
 10
20.29098085347388
 20
16.93734613083469
 30
0.0
 10
20.29098085347388
 20
16.92898869784914
 30
0.0
 10
20.29098085347388
 20
16.92137809213773
 30
0.0
 10
20.29098085347388
 20
16.91456360269941
 30
0.0
 10
20.29098085347388
 20
16.90860264438762
 30
0.0
 10
20.29098085347388
 20
16.90360135172833
 30
0.0
 10
20.29098085347388
 20
16.89960290056329
 30
0.0
 10
20.29098085347388
 20
16.89660131022432
 30
0.0
 10
20.29098085347388
 20
16.89469927714838
 30
0.0
 10
20.29098085347388
 20
16.8938414047848
 30
0.0
 10
20.29098085347388
 20
16.89398295431227
 30
0.0
 10
20.29098085347388
 20
16.89401669242822
 30
0.0
  0
LINE
  5
1CDD
330
2
100
AcDbEntity
  8
PART
  6
SLD-SOLID
100
AcDbLine
 10
20.21121129745718
 20
16.86890257343853
 30
0.0
 11
20.21121129745718
 21
17.14260658468087
 31
0.0
  0
LINE
  5
1CDE
330
2
100
AcDbEntity
  8
PART
  6
SLD-SOLID
100
AcDbLine
 10
20.2730114783316
 20
16.87430938866884
 30
0.0
 11
20.21121129745718
 21
16.86890257343851
 31
0.0
  0
LWPOLYLINE
  5
1CDF
330
2
100
AcDbEntity
  8
PART
  6
SLD-SOLID
100
AcDbPolyline
 90
        3
 70
   128
 43
0.0
 10
20.20751131112055
 20
16.86795930346912
 10
20.20923784935632
 20
16.8673591886827
 10
20.21121129745718
 20
16.86701603349976
  0
ARC
  5
1CE0
330
2
100
AcDbEntity
  8
PART
  6
SLD-SOLID
100
AcDbCircle
 10
20.21224069599357
 20
16.85713649432721
 30
0.0
 40
0.011811023622048
100
AcDbArc
 50
94.99999999998648
 51
166.7385244637652
  0
ARC
  5
1CE1
330
2
100
AcDbEntity
  8
PART
  6
SLD-SOLID
100
AcDbCircle
 10
20.27129581410381
 20
16.89391952052105
 30
0.0
 40
0.0196850393701435
100
AcDbArc
 50
275.000000001388
 51
359.9999999999965
  0
LINE
  5
1CE2
330
2
100
AcDbEntity
  8
PART
  6
SLD-SOLID
100
AcDbLine
 10
20.21121129745718
 20
17.14260658468089
 30
0.0
 11
20.2730114783316
 21
17.13719976945054
 31
0.0
  0
ARC
  5
1CE3
330
2
100
AcDbEntity
  8
PART
  6
SLD-SOLID
100
AcDbCircle
 10
20.21224069599357
 20
17.15437266379218
 30
0.0
 40
0.0118110236220471
100
AcDbArc
 50
193.2614755362346
 51
265.000000000013
  0
SPLINE
  5
1CE4
330
2
100
AcDbEntity
  8
PART
  6
SLD-SOLID
100
AcDbSpline
210
0.0
220
0.0
230
1.0
 70
    24
 71
     3
 72
    17
 73
    13
 74
     0
 42
0.0000000001
 43
0.0000000001
 40
0.0
 40
0.0
 40
0.0
 40
0.0
 40
0.0705957281509568
 40
0.1743816363051245
 40
0.2780038483969164
 40
0.3806729634529784
 40
0.4833981679299964
 40
0.5871870121481799
 40
0.6906086895380338
 40
0.7932149701513875
 40
0.8960119020521133
 40
0.9999999999999998
 40
0.9999999999999998
 40
0.9999999999999998
 40
0.9999999999999998
 10
20.29098085347388
 20
17.11749246569118
 30
0.0
 10
20.29098085347388
 20
17.11748731051255
 30
0.0
 10
20.29098085347388
 20
17.11747457647738
 30
0.0
 10
20.29098085347388
 20
17.11620225842834
 30
0.0
 10
20.29098085347388
 20
17.1139045099578
 30
0.0
 10
20.29098085347388
 20
17.11052426442021
 30
0.0
 10
20.29098085347388
 20
17.10612826979649
 30
0.0
 10
20.29098085347388
 20
17.10074700906917
 30
0.0
 10
20.29098085347388
 20
17.09448326626286
 30
0.0
 10
20.29098085347388
 20
17.08736593369157
 30
0.0
 10
20.29098085347388
 20
17.07948220889934
 30
0.0
 10
20.29098085347388
 20
17.07363227253773
 30
0.0
 10
20.29098085347388
 20
17.07069045534812
 30
0.0
  0
LINE
  5
1CE5
330
2
100
AcDbEntity
  8
PART
  6
SLD-SOLID
100
AcDbLine
 10
20.2730114783316
 20
17.13719976945054
 30
0.0
 11
20.2730114783316
 21
17.08207687667789
 31
0.0
  0
ARC
  5
1CE6
330
2
100
AcDbEntity
  8
PART
  6
SLD-SOLID
100
AcDbCircle
 10
20.27129581410381
 20
17.11758963759835
 30
0.0
 40
0.0196850393701435
100
AcDbArc
 50
359.9999999999992
 51
84.99999999861033
  0
LINE
  5
1CE7
330
2
100
AcDbEntity
  8
DIM
100
AcDbLine
 10
20.29098085347388
 20
17.17069045534812
 30
0.0
 11
20.29098085347388
 21
18.76540041008721
 31
0.0
  0
LINE
  5
1CE8
330
2
100
AcDbEntity
  8
DIM
100
AcDbLine
 10
20.06074463300144
 20
18.9170609705314
 30
0.0
 11
20.06074463300144
 21
18.87937581509525
 31
0.0
  0
LINE
  5
1CE9
330
2
100
AcDbEntity
  8
DIM
100
AcDbLine
 10
19.94074463300144
 20
18.6566330429507
 30
0.0
 11
19.82074463300144
 21
18.6566330429507
 31
0.0
  0
LINE
  5
1CEA
330
2
100
AcDbEntity
  8
DIM
100
AcDbLine
 10
20.41098085347389
 20
18.6566330429507
 30
0.0
 11
20.53098085347389
 21
18.6566330429507
 31
0.0
  0
SOLID
  5
1CEB
330
2
100
AcDbEntity
  8
DIM
100
AcDbTrace
 10
19.94074463300144
 20
18.67663304295071
 30
0.0
 11
19.94074463300144
 21
18.6366330429507
 31
0.0
 12
20.06074463300144
 22
18.6566330429507
 32
0.0
 13
20.06074463300144
 23
18.6566330429507
 33
0.0
  0
SOLID
  5
1CEC
330
2
100
AcDbEntity
  8
DIM
100
AcDbTrace
 10
20.41098085347389
 20
18.67663304295071
 30
0.0
 11
20.41098085347389
 21
18.6366330429507
 31
0.0
 12
20.29098085347388
 22
18.6566330429507
 32
0.0
 13
20.29098085347388
 23
18.6566330429507
 33
0.0
  0
MTEXT
  5
1CED
330
2
100
AcDbEntity
  8
DIM
100
AcDbMText
 10
20.86098085347388
 20
18.6566330429507
 30
0.0
 40
0.12
 41
0.0
 71
     5
 72
     1
  1
.230
  7
ROMANS
1001
ACAD
1000
MTEXTBEGIN
1070
    73
1070
     1
1070
    44
1040
1.0
1070
    74
1070
     0
1000
MTEXTEND
  0
MTEXT
  5
1CEE
330
2
100
AcDbEntity
  8
DIM
100
AcDbMText
 10
20.86098085347388
 20
18.46375157889179
 30
0.0
 40
0.12
 41
0.0
 71
     5
 72
     1
  1
(5.84)
  7
ROMANS
1001
ACAD
1000
MTEXTBEGIN
1070
    73
1070
     1
1070
    44
1040
1.0
1070
    74
1070
     0
1000
MTEXTEND
  0
ENDSEC
  0
SECTION
  2
OBJECTS
  0
DICTIONARY
  5
9
330
0
100
AcDbDictionary
  3
ACAD_GROUP
350
23
  3
ACAD_LAYOUT
350
D
  3
ACAD_MLINESTYLE
350
24
  3
ACAD_PLOTSETTINGS
350
25
  3
ACAD_PLOTSTYLENAME
350
8
  3
ACDBHEADERROUNDTRIPXREC
350
1CFC
  3
ACDBVARIABLEDICTIONARY
350
1FD
  0
DICTIONARY
  5
3
330
2
100
AcDbDictionary
280
     1
  3
ACAD_LAYOUTSELFREF
360
1D1C
  0
DICTIONARY
  5
F
330
E
100
AcDbDictionary
280
     1
  3
ACAD_LAYOUTSELFREF
360
1D1D
  0
DICTIONARY
  5
23
102
{ACAD_REACTORS
330
9
102
}
330
9
100
AcDbDictionary
  0
DICTIONARY
  5
D
102
{ACAD_REACTORS
330
9
102
}
330
9
100
AcDbDictionary
  0
DICTIONARY
  5
24
102
{ACAD_REACTORS
330
9
102
}
330
9
100
AcDbDictionary
  3
STANDARD
350
28
  0
DICTIONARY
  5
25
102
{ACAD_REACTORS
330
9
102
}
330
9
100
AcDbDictionary
  0
ACDBDICTIONARYWDFLT
  5
8
102
{ACAD_REACTORS
330
9
102
}
330
9
100
AcDbDictionary
281
     1
  3
Normal
350
7
100
AcDbDictionaryWithDefault
340
7
  0
DICTIONARY
  5
1CFC
102
{ACAD_REACTORS
330
9
102
}
330
9
100
AcDbDictionary
  3
CEPSNTYPE
350
1D06
  3
FINGERPRINTGUID
350
1D07
  3
HYPERLINKBASE
350
1CFF
  3
INSUNITS
350
1D05
  3
LAYOUTDICT
350
1D01
  3
LWETCUNION
350
1D04
  3
PLOTSETDICT
350
1D02
  3
PLOTSTYLNAMDICT
350
1D03
  3
PSVPSCALE
350
1D09
  3
PUCSBASE
350
1D0C
  3
PUCSORGBACK
350
1D12
  3
PUCSORGBOTTOM
350
1D0E
  3
PUCSORGFRONT
350
1D11
  3
PUCSORGLEFT
350
1D0F
  3
PUCSORGRIGHT
350
1D10
  3
PUCSORGTOP
350
1D0D
  3
PUCSORTHOREF
350
1D0A
  3
PUCSORTHOVIEW
350
1D0B
  3
STYLESHEET
350
1D00
  3
TSTACKALIGN
350
1CFD
  3
TSTACKSIZE
350
1CFE
  3
UCSBASE
350
1D15
  3
UCSORGBACK
350
1D1B
  3
UCSORGBOTTOM
350
1D17
  3
UCSORGFRONT
350
1D1A
  3
UCSORGLEFT
350
1D18
  3
UCSORGRIGHT
350
1D19
  3
UCSORGTOP
350
1D16
  3
UCSORTHOREF
350
1D13
  3
UCSORTHOVIEW
350
1D14
  3
VERSIONGUID
350
1D08
  0
DICTIONARY
  5
1FD
102
{ACAD_REACTORS
330
9
102
}
330
9
100
AcDbDictionary
  3
DIMASSOC
350
1FF
  3
HIDETEXT
350
1FE
  0
XRECORD
  5
1D1C
102
{ACAD_REACTORS
330
3
102
}
330
3
100
AcDbXrecord
340
2
  0
XRECORD
  5
1D1D
102
{ACAD_REACTORS
330
F
102
}
330
F
100
AcDbXrecord
340
E
  0
MLINESTYLE
  5
28
102
{ACAD_REACTORS
330
24
102
}
330
24
100
AcDbMlineStyle
  2
STANDARD
 70
     0
  3

 62
   256
 51
90.0
 52
90.0
 71
     2
 49
0.5
 62
   256
  6
BYLAYER
 49
-0.5
 62
   256
  6
BYLAYER
  0
ACDBPLACEHOLDER
  5
7
102
{ACAD_REACTORS
330
8
102
}
330
8
100
AcDbPlaceHolder
280
     0
  0
XRECORD
  5
1D06
102
{ACAD_REACTORS
330
1CFC
102
}
330
1CFC
100
AcDbXrecord
 90
        0
  0
XRECORD
  5
1D07
102
{ACAD_REACTORS
330
1CFC
102
}
330
1CFC
100
AcDbXrecord
  1
{8269B36E-5346-4F75-9EC1-11DA917C5436}
  0
XRECORD
  5
1CFF
102
{ACAD_REACTORS
330
1CFC
102
}
330
1CFC
100
AcDbXrecord
  1

  0
XRECORD
  5
1D05
102
{ACAD_REACTORS
330
1CFC
102
}
330
1CFC
100
AcDbXrecord
 90
        0
  0
XRECORD
  5
1D01
102
{ACAD_REACTORS
330
1CFC
102
}
330
1CFC
100
AcDbXrecord
340
D
  0
XRECORD
  5
1D04
102
{ACAD_REACTORS
330
1CFC
102
}
330
1CFC
100
AcDbXrecord
 90
    10781
  0
XRECORD
  5
1D02
102
{ACAD_REACTORS
330
1CFC
102
}
330
1CFC
100
AcDbXrecord
340
25
  0
XRECORD
  5
1D03
102
{ACAD_REACTORS
330
1CFC
102
}
330
1CFC
100
AcDbXrecord
340
8
  0
XRECORD
  5
1D09
102
{ACAD_REACTORS
330
1CFC
102
}
330
1CFC
100
AcDbXrecord
 40
0.0
  0
XRECORD
  5
1D0C
102
{ACAD_REACTORS
330
1CFC
102
}
330
1CFC
100
AcDbXrecord
340
0
  0
XRECORD
  5
1D12
102
{ACAD_REACTORS
330
1CFC
102
}
330
1CFC
100
AcDbXrecord
 10
0.0
 20
0.0
 30
0.0
  0
XRECORD
  5
1D0E
102
{ACAD_REACTORS
330
1CFC
102
}
330
1CFC
100
AcDbXrecord
 10
0.0
 20
0.0
 30
0.0
  0
XRECORD
  5
1D11
102
{ACAD_REACTORS
330
1CFC
102
}
330
1CFC
100
AcDbXrecord
 10
0.0
 20
0.0
 30
0.0
  0
XRECORD
  5
1D0F
102
{ACAD_REACTORS
330
1CFC
102
}
330
1CFC
100
AcDbXrecord
 10
0.0
 20
0.0
 30
0.0
  0
XRECORD
  5
1D10
102
{ACAD_REACTORS
330
1CFC
102
}
330
1CFC
100
AcDbXrecord
 10
0.0
 20
0.0
 30
0.0
  0
XRECORD
  5
1D0D
102
{ACAD_REACTORS
330
1CFC
102
}
330
1CFC
100
AcDbXrecord
 10
0.0
 20
0.0
 30
0.0
  0
XRECORD
  5
1D0A
102
{ACAD_REACTORS
330
1CFC
102
}
330
1CFC
100
AcDbXrecord
340
0
  0
XRECORD
  5
1D0B
102
{ACAD_REACTORS
330
1CFC
102
}
330
1CFC
100
AcDbXrecord
 70
     0
  0
XRECORD
  5
1D00
102
{ACAD_REACTORS
330
1CFC
102
}
330
1CFC
100
AcDbXrecord
  1
monochrome.ctb
  0
XRECORD
  5
1CFD
102
{ACAD_REACTORS
330
1CFC
102
}
330
1CFC
100
AcDbXrecord
 90
        1
  0
XRECORD
  5
1CFE
102
{ACAD_REACTORS
330
1CFC
102
}
330
1CFC
100
AcDbXrecord
 90
       70
  0
XRECORD
  5
1D15
102
{ACAD_REACTORS
330
1CFC
102
}
330
1CFC
100
AcDbXrecord
340
0
  0
XRECORD
  5
1D1B
102
{ACAD_REACTORS
330
1CFC
102
}
330
1CFC
100
AcDbXrecord
 10
0.0
 20
0.0
 30
0.0
  0
XRECORD
  5
1D17
102
{ACAD_REACTORS
330
1CFC
102
}
330
1CFC
100
AcDbXrecord
 10
0.0
 20
0.0
 30
0.0
  0
XRECORD
  5
1D1A
102
{ACAD_REACTORS
330
1CFC
102
}
330
1CFC
100
AcDbXrecord
 10
0.0
 20
0.0
 30
0.0
  0
XRECORD
  5
1D18
102
{ACAD_REACTORS
330
1CFC
102
}
330
1CFC
100
AcDbXrecord
 10
0.0
 20
0.0
 30
0.0
  0
XRECORD
  5
1D19
102
{ACAD_REACTORS
330
1CFC
102
}
330
1CFC
100
AcDbXrecord
 10
0.0
 20
0.0
 30
0.0
  0
XRECORD
  5
1D16
102
{ACAD_REACTORS
330
1CFC
102
}
330
1CFC
100
AcDbXrecord
 10
0.0
 20
0.0
 30
0.0
  0
XRECORD
  5
1D13
102
{ACAD_REACTORS
330
1CFC
102
}
330
1CFC
100
AcDbXrecord
340
0
  0
XRECORD
  5
1D14
102
{ACAD_REACTORS
330
1CFC
102
}
330
1CFC
100
AcDbXrecord
 70
     0
  0
XRECORD
  5
1D08
102
{ACAD_REACTORS
330
1CFC
102
}
330
1CFC
100
AcDbXrecord
  1
{E6F649FC-C916-4B9B-BF8C-BDF2E1D71F3F}
  0
DICTIONARYVAR
  5
1FF
102
{ACAD_REACTORS
330
1FD
102
}
330
1FD
100
DictionaryVariables
280
     0
  1
0
  0
DICTIONARYVAR
  5
1FE
102
{ACAD_REACTORS
330
1FD
102
}
330
1FD
100
DictionaryVariables
280
     0
  1
1
  0
ENDSEC
  0
EOF
