  0
SECTION
  2
HEADER
  9
$ACADVER
  1
AC1014
  9
$ACADMAINTVER
 70
     9
  9
$DWGCODEPAGE
  3
ANSI_1252
  9
$INSBASE
 10
0.0
 20
0.0
 30
0.0
  9
$EXTMIN
 10
0.0
 20
0.0
 30
0.0
  9
$EXTMAX
 10
17.00000000000068
 20
11.00000000000044
 30
0.0
  9
$LIMMIN
 10
0.0
 20
0.0
  9
$LIMMAX
 10
17.0
 20
11.0
  9
$ORTHOMODE
 70
     1
  9
$REGENMODE
 70
     1
  9
$FILLMODE
 70
     1
  9
$QTEXTMODE
 70
     0
  9
$MIRRTEXT
 70
     1
  9
$DRAGMODE
 70
     2
  9
$LTSCALE
 40
0.2
  9
$OSMODE
 70
    37
  9
$ATTMODE
 70
     1
  9
$TEXTSIZE
 40
0.12
  9
$TRACEWID
 40
0.05
  9
$TEXTSTYLE
  7
ROMANS
  9
$CLAYER
  8
0
  9
$CELTYPE
  6
BYLAYER
  9
$CECOLOR
 62
   256
  9
$CELTSCALE
 40
1.0
  9
$DELOBJ
 70
     1
  9
$DISPSILH
 70
     0
  9
$DIMSCALE
 40
1.0
  9
$DIMASZ
 40
0.12
  9
$DIMEXO
 40
0.1
  9
$DIMDLI
 40
0.38
  9
$DIMRND
 40
0.0
  9
$DIMDLE
 40
0.0
  9
$DIMEXE
 40
0.1
  9
$DIMTP
 40
0.0
  9
$DIMTM
 40
0.0
  9
$DIMTXT
 40
0.12
  9
$DIMCEN
 40
0.09
  9
$DIMTSZ
 40
0.0
  9
$DIMTOL
 70
     0
  9
$DIMLIM
 70
     0
  9
$DIMTIH
 70
     1
  9
$DIMTOH
 70
     1
  9
$DIMSE1
 70
     0
  9
$DIMSE2
 70
     0
  9
$DIMTAD
 70
     0
  9
$DIMZIN
 70
     0
  9
$DIMBLK
  1

  9
$DIMASO
 70
     0
  9
$DIMSHO
 70
     0
  9
$DIMPOST
  1

  9
$DIMAPOST
  1

  9
$DIMALT
 70
     0
  9
$DIMALTD
 70
     2
  9
$DIMALTF
 40
25.4
  9
$DIMLFAC
 40
1.0
  9
$DIMTOFL
 70
     0
  9
$DIMTVP
 40
0.0
  9
$DIMTIX
 70
     0
  9
$DIMSOXD
 70
     0
  9
$DIMSAH
 70
     0
  9
$DIMBLK1
  1

  9
$DIMBLK2
  1

  9
$DIMSTYLE
  2
STANDARD
  9
$DIMCLRD
 70
     0
  9
$DIMCLRE
 70
     0
  9
$DIMCLRT
 70
     0
  9
$DIMTFAC
 40
1.0
  9
$DIMGAP
 40
0.09
  9
$DIMJUST
 70
     0
  9
$DIMSD1
 70
     0
  9
$DIMSD2
 70
     0
  9
$DIMTOLJ
 70
     1
  9
$DIMTZIN
 70
     0
  9
$DIMALTZ
 70
     0
  9
$DIMALTTZ
 70
     0
  9
$DIMFIT
 70
     5
  9
$DIMUPT
 70
     0
  9
$DIMUNIT
 70
     2
  9
$DIMDEC
 70
     3
  9
$DIMTDEC
 70
     3
  9
$DIMALTU
 70
     2
  9
$DIMALTTD
 70
     2
  9
$DIMTXSTY
  7
ROMANS
  9
$DIMAUNIT
 70
     0
  9
$LUNITS
 70
     2
  9
$LUPREC
 70
     3
  9
$SKETCHINC
 40
0.1
  9
$FILLETRAD
 40
0.0
  9
$AUNITS
 70
     0
  9
$AUPREC
 70
     1
  9
$MENU
  1
ACAD
  9
$ELEVATION
 40
0.0
  9
$PELEVATION
 40
0.0
  9
$THICKNESS
 40
0.0
  9
$LIMCHECK
 70
     0
  9
$BLIPMODE
 70
     0
  9
$CHAMFERA
 40
0.0
  9
$CHAMFERB
 40
0.0
  9
$CHAMFERC
 40
0.0
  9
$CHAMFERD
 40
0.0
  9
$SKPOLY
 70
     0
  9
$TDCREATE
 40
2449344.617430555
  9
$TDUPDATE
 40
2452152.593169791
  9
$TDINDWG
 40
0.0330329861
  9
$TDUSRTIMER
 40
0.0330329861
  9
$USRTIMER
 70
     1
  9
$ANGBASE
 50
0.0
  9
$ANGDIR
 70
     0
  9
$PDMODE
 70
     2
  9
$PDSIZE
 40
0.062
  9
$PLINEWID
 40
0.0
  9
$COORDS
 70
     0
  9
$SPLFRAME
 70
     0
  9
$SPLINETYPE
 70
     6
  9
$SPLINESEGS
 70
     8
  9
$ATTDIA
 70
     0
  9
$ATTREQ
 70
     1
  9
$HANDLING
 70
 10241
  9
$HANDSEED
  5
46BE
  9
$SURFTAB1
 70
     6
  9
$SURFTAB2
 70
     6
  9
$SURFTYPE
 70
     6
  9
$SURFU
 70
     6
  9
$SURFV
 70
     6
  9
$UCSNAME
  2

  9
$UCSORG
 10
0.0
 20
0.0
 30
0.0
  9
$UCSXDIR
 10
1.0
 20
0.0
 30
0.0
  9
$UCSYDIR
 10
0.0
 20
1.0
 30
0.0
  9
$PUCSNAME
  2

  9
$PUCSORG
 10
0.0
 20
0.0
 30
0.0
  9
$PUCSXDIR
 10
1.0
 20
0.0
 30
0.0
  9
$PUCSYDIR
 10
0.0
 20
1.0
 30
0.0
  9
$USERI1
 70
     0
  9
$USERI2
 70
     0
  9
$USERI3
 70
     0
  9
$USERI4
 70
     0
  9
$USERI5
 70
     0
  9
$USERR1
 40
0.0
  9
$USERR2
 40
0.0
  9
$USERR3
 40
0.0
  9
$USERR4
 40
0.0
  9
$USERR5
 40
0.0
  9
$WORLDVIEW
 70
     1
  9
$SHADEDGE
 70
     3
  9
$SHADEDIF
 70
    70
  9
$TILEMODE
 70
     1
  9
$MAXACTVP
 70
    16
  9
$PINSBASE
 10
0.0
 20
0.0
 30
0.0
  9
$PLIMCHECK
 70
     0
  9
$PEXTMIN
 10
1.000000000000000E+20
 20
1.000000000000000E+20
 30
1.000000000000000E+20
  9
$PEXTMAX
 10
-1.000000000000000E+20
 20
-1.000000000000000E+20
 30
-1.000000000000000E+20
  9
$PLIMMIN
 10
0.0
 20
0.0
  9
$PLIMMAX
 10
12.0
 20
9.0
  9
$UNITMODE
 70
     0
  9
$VISRETAIN
 70
     0
  9
$PLINEGEN
 70
     0
  9
$PSLTSCALE
 70
     0
  9
$TREEDEPTH
 70
  3020
  9
$PICKSTYLE
 70
     1
  9
$CMLSTYLE
  2
STANDARD
  9
$CMLJUST
 70
     0
  9
$CMLSCALE
 40
1.0
  9
$PROXYGRAPHICS
 70
     1
  9
$MEASUREMENT
 70
     0
  0
ENDSEC
  0
SECTION
  2
CLASSES
  0
CLASS
  1
DICTIONARYVAR
  2
AcDbDictionaryVar
  3
AutoCAD 2000
 90
        0
280
     0
281
     0
  0
CLASS
  1
LWPOLYLINE
  2
AcDbPolyline
  3
AutoCAD 2000
 90
        0
280
     0
281
     1
  0
CLASS
  1
HATCH
  2
AcDbHatch
  3
AutoCAD 2000
 90
        0
280
     0
281
     1
  0
CLASS
  1
ACDBDICTIONARYWDFLT
  2
AcDbDictionaryWithDefault
  3
AutoCAD 2000
 90
        0
280
     0
281
     0
  0
CLASS
  1
ACDBPLACEHOLDER
  2
AcDbPlaceHolder
  3
AutoCAD 2000
 90
        0
280
     0
281
     0
  0
CLASS
  1
LAYOUT
  2
AcDbLayout
  3
AutoCAD 2000
 90
        0
280
     0
281
     0
  0
CLASS
  1
LONG_TRANSACTION
  2
AcDbLongTransaction
  3
AutoCAD 2000
 90
        0
280
     0
281
     0
  0
CLASS
  1
LWPOLYLINE
  2
AcDbPolyline
  3
AutoCAD 2000
 90
        0
280
     0
281
     1
  0
CLASS
  1
HATCH
  2
AcDbHatch
  3
AutoCAD 2000
 90
        0
280
     0
281
     1
  0
CLASS
  1
XRECORD
  2
AcDbXrecord
  3
AutoCAD 2000
 90
        0
280
     0
281
     0
  0
ENDSEC
  0
SECTION
  2
TABLES
  0
TABLE
  2
VPORT
  5
1959
330
0
100
AcDbSymbolTable
 70
     2
  0
VPORT
  5
4698
330
1959
100
AcDbSymbolTableRecord
100
AcDbViewportTableRecord
  2
*ACTIVE
 70
     0
 10
0.0
 20
0.0
 11
1.0
 21
1.0
 12
10.81538150381052
 22
5.500000294550919
 13
0.0
 23
0.0
 14
0.05
 24
0.05
 15
0.2
 25
0.2
 16
0.0
 26
0.0
 36
1.0
 17
0.0
 27
0.0
 37
0.0
 40
11.14030696313637
 41
2.204705882352941
 42
50.0
 43
0.0
 44
0.0
 50
0.0
 51
0.0
 71
     0
 72
  5000
 73
     1
 74
     0
 75
     0
 76
     0
 77
     0
 78
     0
  0
ENDTAB
  0
TABLE
  2
LTYPE
  5
1956
330
0
100
AcDbSymbolTable
 70
     2
  0
LTYPE
  5
1962
330
1956
100
AcDbSymbolTableRecord
100
AcDbLinetypeTableRecord
  2
BYBLOCK
 70
     0
  3

 72
    65
 73
     0
 40
0.0
  0
LTYPE
  5
1963
330
1956
100
AcDbSymbolTableRecord
100
AcDbLinetypeTableRecord
  2
BYLAYER
 70
     0
  3

 72
    65
 73
     0
 40
0.0
  0
LTYPE
  5
1964
330
1956
100
AcDbSymbolTableRecord
100
AcDbLinetypeTableRecord
  2
CONTINUOUS
 70
     0
  3
Solid line
 72
    65
 73
     0
 40
0.0
  0
LTYPE
  5
1982
330
1956
100
AcDbSymbolTableRecord
100
AcDbLinetypeTableRecord
  2
CENTER
 70
     0
  3
____ _ ____ _ ____ _ ____ _ ____ _ ____ _ ____
 72
    65
 73
     4
 40
2.0
 49
1.25
 74
     0
 49
-0.25
 74
     0
 49
0.25
 74
     0
 49
-0.25
 74
     0
  0
ENDTAB
  0
TABLE
  2
LAYER
  5
1953
330
0
100
AcDbSymbolTable
 70
     9
  0
LAYER
  5
195F
330
1953
100
AcDbSymbolTableRecord
100
AcDbLayerTableRecord
  2
0
 70
     0
 62
     7
  6
CONTINUOUS
  0
LAYER
  5
1986
330
1953
100
AcDbSymbolTableRecord
100
AcDbLayerTableRecord
  2
BORDER
 70
     0
 62
     7
  6
CONTINUOUS
  0
LAYER
  5
1987
330
1953
100
AcDbSymbolTableRecord
100
AcDbLayerTableRecord
  2
TXT
 70
     0
 62
     7
  6
CONTINUOUS
  0
LAYER
  5
1988
330
1953
100
AcDbSymbolTableRecord
100
AcDbLayerTableRecord
  2
TB-TXT
 70
     0
 62
     7
  6
CONTINUOUS
  0
LAYER
  5
1989
330
1953
100
AcDbSymbolTableRecord
100
AcDbLayerTableRecord
  2
PART
 70
     0
 62
     7
  6
CONTINUOUS
  0
LAYER
  5
198A
330
1953
100
AcDbSymbolTableRecord
100
AcDbLayerTableRecord
  2
DIM
 70
     0
 62
     7
  6
CONTINUOUS
  0
LAYER
  5
199E
330
1953
100
AcDbSymbolTableRecord
100
AcDbLayerTableRecord
  2
SILK
 70
     0
 62
     7
  6
CONTINUOUS
  0
LAYER
  5
43FC
330
1953
100
AcDbSymbolTableRecord
100
AcDbLayerTableRecord
  2
NEWLOGO
 70
     0
 62
     7
  6
CONTINUOUS
  0
LAYER
  5
4676
330
1953
100
AcDbSymbolTableRecord
100
AcDbLayerTableRecord
  2
DEFAULT_1
 70
     0
 62
     7
  6
CENTER
  0
ENDTAB
  0
TABLE
  2
STYLE
  5
1954
330
0
100
AcDbSymbolTable
 70
     5
  0
STYLE
  5
1960
330
1954
100
AcDbSymbolTableRecord
100
AcDbTextStyleTableRecord
  2
STANDARD
 70
     0
 40
0.0
 41
1.0
 50
0.0
 71
     0
 42
0.2
  3
txt
  4

  0
STYLE
  5
1980
330
1954
100
AcDbSymbolTableRecord
100
AcDbTextStyleTableRecord
  2
ROMANS
 70
     0
 40
0.12
 41
1.0
 50
0.0
 71
     0
 42
0.12
  3
ROMANS
  4

  0
STYLE
  5
1981
330
1954
100
AcDbSymbolTableRecord
100
AcDbTextStyleTableRecord
  2
ROMANT
 70
     0
 40
0.187
 41
1.0
 50
0.0
 71
     0
 42
0.187
  3
ROMANT
  4

  0
STYLE
  5
19A1
330
1954
100
AcDbSymbolTableRecord
100
AcDbTextStyleTableRecord
  2
ARIAL
 70
     0
 40
0.0
 41
1.0
 50
0.0
 71
     0
 42
0.12
  3
ARIAL.TTF
  4

1001
ACAD
1000
Arial
1071
       34
  0
STYLE
  5
19A2
330
1954
100
AcDbSymbolTableRecord
100
AcDbTextStyleTableRecord
  2
BOLD
 70
     0
 40
0.0
 41
1.0
 50
0.0
 71
     0
 42
0.12
  3
ARIALBD.TTF
  4

1001
ACAD
1000
Arial
1071
 33554466
  0
ENDTAB
  0
TABLE
  2
VIEW
  5
1957
330
0
100
AcDbSymbolTable
 70
     0
  0
ENDTAB
  0
TABLE
  2
UCS
  5
1958
330
0
100
AcDbSymbolTable
 70
     0
  0
ENDTAB
  0
TABLE
  2
APPID
  5
195A
330
0
100
AcDbSymbolTable
 70
     1
  0
APPID
  5
1961
330
195A
100
AcDbSymbolTableRecord
100
AcDbRegAppTableRecord
  2
ACAD
 70
     0
  0
ENDTAB
  0
TABLE
  2
DIMSTYLE
  5
195B
330
0
100
AcDbSymbolTable
 70
     1
  0
DIMSTYLE
105
1985
330
195B
100
AcDbSymbolTableRecord
100
AcDbDimStyleTableRecord
  2
STANDARD
 70
     0
  3

  4

  5

  6

  7

 40
1.0
 41
0.18
 42
0.0625
 43
0.38
 44
0.18
 45
0.0
 46
0.0
 47
0.0
 48
0.0
140
0.18
141
0.09
142
0.0
143
25.4
144
1.0
145
0.0
146
1.0
147
0.09
 71
     0
 72
     0
 73
     1
 74
     1
 75
     0
 76
     0
 77
     0
 78
     0
170
     0
171
     2
172
     0
173
     0
174
     0
175
     0
176
     0
177
     0
178
     0
270
     2
271
     3
272
     3
273
     2
274
     2
340
1980
275
     0
280
     0
281
     0
282
     0
283
     1
284
     0
285
     0
286
     0
287
     5
288
     0
  0
ENDTAB
  0
TABLE
  2
BLOCK_RECORD
  5
1952
330
0
100
AcDbSymbolTable
 70
     5
  0
BLOCK_RECORD
  5
1968
102
{ACAD_XDICTIONARY
360
46BC
102
}
330
1952
100
AcDbSymbolTableRecord
100
AcDbBlockTableRecord
  2
*MODEL_SPACE
  0
BLOCK_RECORD
  5
1965
102
{ACAD_XDICTIONARY
360
46BA
102
}
330
1952
100
AcDbSymbolTableRecord
100
AcDbBlockTableRecord
  2
*PAPER_SPACE
  0
BLOCK_RECORD
  5
196D
330
1952
100
AcDbSymbolTableRecord
100
AcDbBlockTableRecord
  2
TB-TXT-B
  0
BLOCK_RECORD
  5
196F
330
1952
100
AcDbSymbolTableRecord
100
AcDbBlockTableRecord
  2
REV-TXT1
  0
BLOCK_RECORD
  5
197F
330
1952
100
AcDbSymbolTableRecord
100
AcDbBlockTableRecord
  2
SIGNOFF
  0
ENDTAB
  0
ENDSEC
  0
SECTION
  2
BLOCKS
  0
BLOCK
  5
1990
330
1968
100
AcDbEntity
  8
0
100
AcDbBlockBegin
  2
*MODEL_SPACE
 70
     0
 10
0.0
 20
0.0
 30
0.0
  3
*MODEL_SPACE
  1

  0
ENDBLK
  5
1991
330
1968
100
AcDbEntity
  8
0
100
AcDbBlockEnd
  0
BLOCK
  5
198E
330
1965
100
AcDbEntity
 67
     1
  8
0
100
AcDbBlockBegin
  2
*PAPER_SPACE
 70
     0
 10
0.0
 20
0.0
 30
0.0
  3
*PAPER_SPACE
  1

  0
ENDBLK
  5
198F
330
1965
100
AcDbEntity
 67
     1
  8
0
100
AcDbBlockEnd
  0
BLOCK
  5
42
330
196D
100
AcDbEntity
  8
0
100
AcDbBlockBegin
  2
TB-TXT-B
 70
     2
 10
0.0
 20
0.0
 30
0.0
  3
TB-TXT-B
  1

  0
ATTDEF
  5
43
330
196D
100
AcDbEntity
  8
TB-TXT
100
AcDbText
 10
-4.627314107136998
 20
1.609509020876261
 30
0.0
 40
0.12
  1

  7
ROMANS
100
AcDbAttributeDefinition
  3
DRAWN BY
  2
DRAWN
 70
     0
  0
ATTDEF
  5
45
330
196D
100
AcDbEntity
  8
TB-TXT
100
AcDbText
 10
-4.056336832093668
 20
1.611156216884233
 30
0.0
 40
0.12
  1

 41
1.344330150280895
  7
ROMANS
 72
     5
 11
-3.533968545127377
 21
1.611156216884233
 31
0.0
100
AcDbAttributeDefinition
  3
DATE
  2
DATE
 70
     0
  0
ATTDEF
  5
46
330
196D
100
AcDbEntity
  8
TB-TXT
100
AcDbText
 10
-3.289904548388346
 20
1.087347886349108
 30
0.0
 40
0.12
  1

  7
ROMANS
100
AcDbAttributeDefinition
  3
TITLE (LINE 1)
  2
LINE1
 70
     0
  0
ATTDEF
  5
47
330
196D
100
AcDbEntity
  8
TB-TXT
100
AcDbText
 10
-3.289904548388346
 20
0.8930621720633947
 30
0.0
 40
0.12
  1

  7
ROMANS
100
AcDbAttributeDefinition
  3
TITLE (LINE 2)
  2
LINE2
 70
     0
  0
ATTDEF
  5
48
330
196D
100
AcDbEntity
  8
TB-TXT
100
AcDbText
 10
-3.289904548388346
 20
0.6987764577776799
 30
0.0
 40
0.12
  1

  7
ROMANS
100
AcDbAttributeDefinition
  3
TITLE (LINE 3)
  2
LINE3
 70
     0
  0
ATTDEF
  5
49
330
196D
100
AcDbEntity
  8
TB-TXT
100
AcDbText
 10
-2.978650769387687
 20
0.0671844920783911
 30
0.0
 40
0.12
  1
FULL
  7
ROMANS
100
AcDbAttributeDefinition
  3
SCALE
  2
SCALE
 70
     0
  0
ATTDEF
  5
4A
330
196D
100
AcDbEntity
  8
TB-TXT
100
AcDbText
 10
-0.8749448011142266
 20
0.0671844920783911
 30
0.0
 40
0.12
  1
1 OF 1
  7
ROMANS
100
AcDbAttributeDefinition
  3
SHEET N0.
  2
SHT#
 70
     0
  0
ATTDEF
  5
4B
330
196D
100
AcDbEntity
  8
TB-TXT
100
AcDbText
 10
-2.345171371310282
 20
0.0671844920783911
 30
0.0
 40
0.12
  1

  7
ROMANS
100
AcDbAttributeDefinition
  3
FILE NO.
  2
FILE#
 70
     0
  0
ATTDEF
  5
4C
330
196D
100
AcDbEntity
  8
TB-TXT
100
AcDbText
 10
-2.345171371310282
 20
0.374661080233182
 30
0.0
 40
0.12
  1

  7
ROMANS
100
AcDbAttributeDefinition
  3
DWG NO.
  2
DWG#
 70
     0
  0
ATTDEF
  5
4D
330
196D
100
AcDbEntity
  8
TB-TXT
100
AcDbText
 10
-0.1871836679235308
 20
0.3938783669928561
 30
0.0
 40
0.12
  1

  7
ROMANS
 72
     4
 11
-0.1871836679235308
 21
0.3938783669928561
 31
0.0
100
AcDbAttributeDefinition
  3
REV
  2
REV
 70
     0
  0
ENDBLK
  5
4E
330
196D
100
AcDbEntity
  8
0
100
AcDbBlockEnd
  0
BLOCK
  5
FB
330
196F
100
AcDbEntity
  8
0
100
AcDbBlockBegin
  2
REV-TXT1
 70
     2
 10
0.0
 20
0.0
 30
0.0
  3
REV-TXT1
  1

  0
LINE
  5
FC
330
196F
100
AcDbEntity
  8
BORDER
100
AcDbLine
 10
-5.097668647199277
 20
-0.25
 30
0.0
 11
0.0
 21
-0.25
 31
0.0
  0
LWPOLYLINE
  5
FD
330
196F
100
AcDbEntity
  8
BORDER
100
AcDbPolyline
 90
        2
 70
     0
 43
0.02
 10
-1.019568647199278
 20
0.0
 10
-1.019568647199278
 20
-0.25
  0
LWPOLYLINE
  5
101
330
196F
100
AcDbEntity
  8
BORDER
100
AcDbPolyline
 90
        2
 70
     0
 43
0.02
 10
-1.894568647199278
 20
0.0
 10
-1.894568647199278
 20
-0.25
  0
LWPOLYLINE
  5
105
330
196F
100
AcDbEntity
  8
BORDER
100
AcDbPolyline
 90
        2
 70
     0
 43
0.02
 10
-4.660168647199277
 20
0.0
 10
-4.660168647199277
 20
-0.25
  0
LWPOLYLINE
  5
109
330
196F
100
AcDbEntity
  8
BORDER
100
AcDbPolyline
 90
        2
 70
     0
 43
0.02
 10
-5.097668647199277
 20
0.0
 10
-5.097668647199277
 20
-0.25
  0
ATTDEF
  5
10D
330
196F
100
AcDbEntity
  8
TB-TXT
100
AcDbText
 10
-4.884286151023005
 20
-0.125
 30
0.0
 40
0.1
  1

  7
ROMANS
 72
     4
 11
-4.884286151023005
 21
-0.125
 31
0.0
100
AcDbAttributeDefinition
  3
REV
  2
REV
 70
     0
  0
ATTDEF
  5
10E
330
196F
100
AcDbEntity
  8
TB-TXT
100
AcDbText
 10
-4.570563763832424
 20
-0.175
 30
0.0
 40
0.1
  1

  7
ROMANS
 11
-4.570563763832424
 21
-0.125
 31
0.0
100
AcDbAttributeDefinition
  3
DESC
  2
DESC
 70
     0
 74
     2
  0
ATTDEF
  5
10F
330
196F
100
AcDbEntity
  8
TB-TXT
100
AcDbText
 10
-1.457068647199278
 20
-0.125
 30
0.0
 40
0.1
  1

  7
ROMANS
 72
     4
 11
-1.457068647199278
 21
-0.125
 31
0.0
100
AcDbAttributeDefinition
  3
DATE
  2
DATE
 70
     0
  0
ATTDEF
  5
110
330
196F
100
AcDbEntity
  8
TB-TXT
100
AcDbText
 10
-0.5097843235996394
 20
-0.125
 30
0.0
 40
0.1
  1

  7
ROMANS
 72
     4
 11
-0.5097843235996394
 21
-0.125
 31
0.0
100
AcDbAttributeDefinition
  3
APPR
  2
APPR
 70
     0
  0
ENDBLK
  5
111
330
196F
100
AcDbEntity
  8
0
100
AcDbBlockEnd
  0
BLOCK
  5
C2B
330
197F
100
AcDbEntity
  8
0
100
AcDbBlockBegin
  2
SIGNOFF
 70
     2
 10
0.0
 20
0.0
 30
0.0
  3
SIGNOFF
  1

  0
ATTDEF
  5
C2C
330
197F
100
AcDbEntity
  8
TXT
100
AcDbText
 10
0.8364254779937638
 20
-0.4559833527551634
 30
0.0
 40
0.12
  1
MC
  7
ROMANS
100
AcDbAttributeDefinition
  3
CHECKED
  2
CHK
 70
     0
  0
ATTDEF
  5
C2D
330
197F
100
AcDbEntity
  8
TXT
100
AcDbText
 10
0.8364254779937638
 20
-0.7166563492564551
 30
0.0
 40
0.12
  1

  7
ROMANS
100
AcDbAttributeDefinition
  3
APPD ENG
  2
ENG
 70
     0
  0
ATTDEF
  5
C2E
330
197F
100
AcDbEntity
  8
TXT
100
AcDbText
 10
0.8364254779937638
 20
-1.238002342259037
 30
0.0
 40
0.12
  1
HB
  7
ROMANS
100
AcDbAttributeDefinition
  3
APPD MFG
  2
MFG
 70
     0
  0
ATTDEF
  5
C2F
330
197F
100
AcDbEntity
  8
TXT
100
AcDbText
 10
1.432363188466148
 20
-0.4559833527551634
 30
0.0
 40
0.12
  1

 41
0.6739375218856888
  7
ROMANS
 72
     5
 11
1.956108919760168
 21
-0.4559833527551634
 31
0.0
100
AcDbAttributeDefinition
  3
CHK DATE
  2
CHKDATE
 70
     0
  0
ATTDEF
  5
C30
330
197F
100
AcDbEntity
  8
TXT
100
AcDbText
 10
1.432363188466148
 20
-0.7166563492564551
 30
0.0
 40
0.12
  1

 41
0.683996290869057
  7
ROMANS
 72
     5
 11
1.956108919760168
 21
-0.7166563492564551
 31
0.0
100
AcDbAttributeDefinition
  3
ENG DATE
  2
ENGDATE
 70
     0
  0
ATTDEF
  5
C31
330
197F
100
AcDbEntity
  8
TXT
100
AcDbText
 10
1.432363188466151
 20
-0.9773293457577462
 30
0.0
 40
0.12
  1

 41
0.7970043737082926
  7
ROMANS
 72
     5
 11
1.956108919760172
 21
-0.9773293457577462
 31
0.0
100
AcDbAttributeDefinition
  3
QC DATE
  2
QCDATE
 70
     0
  0
ATTDEF
  5
C32
330
197F
100
AcDbEntity
  8
TXT
100
AcDbText
 10
1.432363188466151
 20
-1.238002342259037
 30
0.0
 40
0.12
  1

 41
0.6789296516774344
  7
ROMANS
 72
     5
 11
1.956108919760172
 21
-1.238002342259037
 31
0.0
100
AcDbAttributeDefinition
  3
MFG DATE
  2
MFGDATE
 70
     0
  0
ATTDEF
  5
C33
330
197F
100
AcDbEntity
  8
TXT
100
AcDbText
 10
0.8364254779937638
 20
-0.9773293457577462
 30
0.0
 40
0.12
  1

  7
ROMANS
100
AcDbAttributeDefinition
  3
QC
  2
QC
 70
     0
  0
ENDBLK
  5
C34
330
197F
100
AcDbEntity
  8
0
100
AcDbBlockEnd
  0
ENDSEC
  0
SECTION
  2
ENTITIES
  0
TEXT
  5
C35
330
1968
100
AcDbEntity
  8
TB-TXT
 62
     7
100
AcDbText
 10
8.745927877841801
 20
2.030598865450674
 30
0.0
 40
0.1
  1
NOTICE: This drawing is the property
 41
0.75
  7
ROMANS
100
AcDbText
  0
TEXT
  5
C37
330
1968
100
AcDbEntity
  8
TB-TXT
 62
     7
100
AcDbText
 10
8.745927877841801
 20
1.702971904582081
 30
0.0
 40
0.1
  1
contained herein that is not generally
 41
0.75
  7
ROMANS
100
AcDbText
  0
TEXT
  5
C38
330
1968
100
AcDbEntity
  8
TB-TXT
 62
     7
100
AcDbText
 10
8.745927877841801
 20
1.539158424147785
 30
0.0
 40
0.1
  1
known shall be confidential except to
 41
0.75
  7
ROMANS
100
AcDbText
  0
TEXT
  5
C39
330
1968
100
AcDbEntity
  8
TB-TXT
 62
     7
100
AcDbText
 10
8.745927877841801
 20
1.375344943713489
 30
0.0
 40
0.1
  1
the extent the information has been
 41
0.75
  7
ROMANS
100
AcDbText
  0
TEXT
  5
C3A
330
1968
100
AcDbEntity
  8
TB-TXT
 62
     7
100
AcDbText
 10
8.745927877841801
 20
1.211531463279193
 30
0.0
 40
0.1
  1
previously established. This drawing
 41
0.75
  7
ROMANS
100
AcDbText
  0
TEXT
  5
C3B
330
1968
100
AcDbEntity
  8
TB-TXT
 62
     7
100
AcDbText
 10
8.745927877841801
 20
1.047717982844897
 30
0.0
 40
0.1
  1
may not be reproduced, copied or
 41
0.75
  7
ROMANS
100
AcDbText
  0
TEXT
  5
C3C
330
1968
100
AcDbEntity
  8
TB-TXT
 62
     7
100
AcDbText
 10
8.745927877841801
 20
0.8839045024106017
 30
0.0
 40
0.1
  1
used as the basis for manufacture
 41
0.75
  7
ROMANS
100
AcDbText
  0
TEXT
  5
C3D
330
1968
100
AcDbEntity
  8
TB-TXT
 62
     7
100
AcDbText
 10
8.745927877841801
 20
0.7200910219763054
 30
0.0
 40
0.1
  1
or sale without written permission.
 41
0.75
  7
ROMANS
100
AcDbText
  0
TEXT
  5
C3E
330
1968
100
AcDbEntity
  8
TB-TXT
 62
     7
100
AcDbText
 10
11.17081378089557
 20
0.8125
 30
0.0
 40
0.075
  1
THIRD ANGLE
  7
ROMANS
100
AcDbText
  0
TEXT
  5
C3F
330
1968
100
AcDbEntity
  8
TB-TXT
 62
     7
100
AcDbText
 10
11.17081378089557
 20
0.6410714285714285
 30
0.0
 40
0.075
  1
PROJECTION
  7
ROMANS
100
AcDbText
  0
LWPOLYLINE
  5
C40
330
1968
100
AcDbEntity
  8
BORDER
 62
     7
100
AcDbPolyline
 90
        2
 70
     0
 43
0.015
 10
11.03011378089557
 20
0.5
 10
11.03011378089557
 20
2.303364982506457
  0
LWPOLYLINE
  5
C44
330
1968
100
AcDbEntity
  8
BORDER
 62
     7
100
AcDbPolyline
 90
        2
 70
     0
 43
0.015
 10
11.03011378089557
 20
1.0
 10
13.03011378089557
 20
1.0
  0
LWPOLYLINE
  5
C48
330
1968
100
AcDbEntity
  8
BORDER
 62
     7
100
AcDbPolyline
 90
        2
 70
     0
 43
0.015
 10
11.03011378089557
 20
1.260672996501291
 10
13.03011378089557
 20
1.260672996501291
  0
LWPOLYLINE
  5
C4C
330
1968
100
AcDbEntity
  8
BORDER
 62
     7
100
AcDbPolyline
 90
        2
 70
     0
 43
0.015
 10
11.03011378089557
 20
1.521345993002582
 10
13.03011378089557
 20
1.521345993002582
  0
LWPOLYLINE
  5
C50
330
1968
100
AcDbEntity
  8
BORDER
 62
     7
100
AcDbPolyline
 90
        2
 70
     0
 43
0.015
 10
11.03011378089557
 20
1.782018989503874
 10
13.03011378089557
 20
1.782018989503874
  0
LWPOLYLINE
  5
C54
330
1968
100
AcDbEntity
  8
BORDER
 62
     7
100
AcDbPolyline
 90
        2
 70
     0
 43
0.015
 10
11.79581378089557
 20
1.0
 10
11.79581378089557
 20
2.303364982506457
  0
LWPOLYLINE
  5
C58
330
1968
100
AcDbEntity
  8
BORDER
 62
     7
100
AcDbPolyline
 90
        2
 70
     0
 43
0.015
 10
11.03011378089557
 20
2.042691986005165
 10
13.03011378089557
 20
2.042691986005165
  0
LWPOLYLINE
  5
C5C
330
1968
100
AcDbEntity
  8
BORDER
 62
     7
100
AcDbPolyline
 90
        2
 70
     0
 43
0.015
 10
12.42081378089557
 20
1.0
 10
12.42081378089557
 20
2.303364982506457
  0
LWPOLYLINE
  5
C60
330
1968
100
AcDbEntity
  8
BORDER
 62
     7
100
AcDbPolyline
 90
        2
 70
     0
 43
0.015
 10
13.03011378089557
 20
0.5
 10
13.03011378089557
 20
2.303364982506457
  0
LINE
  5
C64
330
1968
100
AcDbEntity
  8
TB-TXT
 62
     7
100
AcDbLine
 10
12.22137686457987
 20
0.7116602948421074
 30
0.0
 11
12.22137686457987
 21
0.5864161328105358
 31
0.0
  0
LINE
  5
C65
330
1968
100
AcDbEntity
  8
TB-TXT
 62
     7
100
AcDbLine
 10
12.20188221718708
 20
0.756154942234347
 30
0.0
 11
12.24087151197266
 21
0.756154942234347
 31
0.0
  0
LINE
  5
C66
330
1968
100
AcDbEntity
  8
TB-TXT
 62
     7
100
AcDbLine
 10
12.22137686457987
 20
0.7756495896265699
 30
0.0
 11
12.22137686457987
 21
0.7366602948428534
 31
0.0
  0
LINE
  5
C67
330
1968
100
AcDbEntity
  8
TB-TXT
 62
     7
100
AcDbLine
 10
12.26587151197268
 20
0.756154942234347
 30
0.0
 11
12.3803835061128
 21
0.756154942234347
 31
0.0
  0
LINE
  5
C68
330
1968
100
AcDbEntity
  8
TB-TXT
 62
     7
100
AcDbLine
 10
12.0539780858601
 20
0.756154942234347
 30
0.0
 11
12.17688221718707
 21
0.756154942234347
 31
0.0
  0
LINE
  5
C69
330
1968
100
AcDbEntity
  8
TB-TXT
 62
     7
100
AcDbLine
 10
12.22137686457987
 20
0.9298068862971383
 30
0.0
 11
12.22137686457987
 21
0.8006495896269061
 31
0.0
  0
LINE
  5
C6A
330
1968
100
AcDbEntity
  8
TB-TXT
  6
CENTER
 62
     7
100
AcDbLine
 10
12.4018398050558
 20
0.756154942234347
 30
0.0
 11
12.89268118890189
 21
0.756154942234347
 31
0.0
  0
LINE
  5
C6B
330
1968
100
AcDbEntity
  8
TB-TXT
 62
     7
100
AcDbLine
 10
12.55901849764276
 20
0.6961549422343474
 30
0.0
 11
12.82901849764277
 21
0.6282542406693175
 31
0.0
  0
LINE
  5
C6C
330
1968
100
AcDbEntity
  8
TB-TXT
 62
     7
100
AcDbLine
 10
12.55901849764276
 20
0.8161549422343469
 30
0.0
 11
12.82901849764277
 21
0.8874049422343471
 31
0.0
  0
LINE
  5
C6D
330
1968
100
AcDbEntity
  8
TB-TXT
 62
     7
100
AcDbLine
 10
12.82901849764277
 20
0.8874049422343475
 30
0.0
 11
12.82901849764277
 21
0.6282542406693175
 31
0.0
  0
LINE
  5
C6E
330
1968
100
AcDbEntity
  8
TB-TXT
 62
     7
100
AcDbLine
 10
12.55901849764276
 20
0.8161549422343474
 30
0.0
 11
12.55901849764277
 21
0.6961549422343465
 31
0.0
  0
CIRCLE
  5
C6F
330
1968
100
AcDbEntity
  8
TB-TXT
 62
     7
100
AcDbCircle
 10
12.22137686457987
 20
0.7561549422343471
 30
0.0
 40
0.06
  0
CIRCLE
  5
C70
330
1968
100
AcDbEntity
  8
TB-TXT
 62
     7
100
AcDbCircle
 10
12.22137686457987
 20
0.7561549422343471
 30
0.0
 40
0.13125
  0
LWPOLYLINE
  5
C71
330
1968
100
AcDbEntity
  8
BORDER
 62
     7
100
AcDbPolyline
 90
        2
 70
     0
 43
0.015
 10
13.03011378089557
 20
0.75
 10
13.03011378089557
 20
1.125
  0
LWPOLYLINE
  5
C75
330
1968
100
AcDbEntity
  8
BORDER
 62
     7
100
AcDbPolyline
 90
        2
 70
     0
 43
0.015
 10
16.12500000000068
 20
0.75
 10
16.12500000000068
 20
1.125
  0
LWPOLYLINE
  5
C79
330
1968
100
AcDbEntity
  8
BORDER
 62
     7
100
AcDbPolyline
 90
        2
 70
     0
 43
0.015
 10
15.11748430343415
 20
0.5
 10
15.11748430343415
 20
0.75
  0
TEXT
  5
C7D
330
1968
100
AcDbEntity
  8
TB-TXT
 62
     7
100
AcDbText
 10
13.11892857142925
 20
0.7911614038582096
 30
0.0
 40
0.171
  1
B
  7
ROMANS
 72
     1
 11
13.20850000000068
 21
0.7911614038582096
 31
0.0
100
AcDbText
  0
TEXT
  5
C7E
330
1968
100
AcDbEntity
  8
TB-TXT
 62
     7
100
AcDbText
 10
13.07545496638569
 20
1.0
 30
0.0
 40
0.075
  1
SIZE
  7
ROMANS
 72
     1
 11
13.19688353781427
 21
1.0
 31
0.0
100
AcDbText
  0
TEXT
  5
C7F
330
1968
100
AcDbEntity
  8
TB-TXT
 62
     7
100
AcDbText
 10
13.08626047088299
 20
0.5937367855002432
 30
0.0
 40
0.075
  1
SCALE
  7
ROMANS
100
AcDbText
  0
TEXT
  5
C80
330
1968
100
AcDbEntity
  8
TB-TXT
 62
     7
100
AcDbText
 10
15.16434820941646
 20
0.59375
 30
0.0
 40
0.075
  1
SHEET
  7
ROMANS
100
AcDbText
  0
TEXT
  5
C81
330
1968
100
AcDbEntity
  8
TB-TXT
 62
     7
100
AcDbText
 10
13.42690000000068
 20
1.0
 30
0.0
 40
0.075
  1
DWG. NO.
  7
ROMANS
100
AcDbText
  0
TEXT
  5
C82
330
1968
100
AcDbEntity
  8
TB-TXT
 62
     7
100
AcDbText
 10
16.20315000000068
 20
1.0
 30
0.0
 40
0.075
  1
REV.
  7
ROMANS
100
AcDbText
  0
TEXT
  5
C86
330
1968
100
AcDbEntity
  8
TB-TXT
 62
     7
100
AcDbText
 10
11.10831378089557
 20
2.105191986005165
 30
0.0
 40
0.075
  1
DRAWN
  7
ROMANS
100
AcDbText
  0
TEXT
  5
C87
330
1968
100
AcDbEntity
  8
TB-TXT
 62
     7
100
AcDbText
 10
11.10831378089557
 20
1.837897972386661
 30
0.0
 40
0.075
  1
CHECKED
  7
ROMANS
100
AcDbText
  0
TEXT
  5
C88
330
1968
100
AcDbEntity
  8
TB-TXT
 62
     7
100
AcDbText
 10
11.10831378089557
 20
1.573481306719814
 30
0.0
 40
0.075
  1
APPD ENG
  7
ROMANS
100
AcDbText
  0
TEXT
  5
C89
330
1968
100
AcDbEntity
  8
TB-TXT
 62
     7
100
AcDbText
 10
11.10831378089557
 20
1.32073598003986
 30
0.0
 40
0.075
  1
APPD QC
  7
ROMANS
100
AcDbText
  0
TEXT
  5
C8A
330
1968
100
AcDbEntity
  8
TB-TXT
 62
     7
100
AcDbText
 10
11.10831378089557
 20
1.058107477312074
 30
0.0
 40
0.075
  1
APPD MFG
  7
ROMANS
100
AcDbText
  0
LWPOLYLINE
  5
C8B
330
1968
100
AcDbEntity
  8
BORDER
 62
     7
100
AcDbPolyline
 90
        2
 70
     0
 43
0.015
 10
13.03011378089557
 20
1.125
 10
16.50000000000068
 20
1.125
  0
LWPOLYLINE
  5
C8F
330
1968
100
AcDbEntity
  8
BORDER
 62
     7
100
AcDbPolyline
 90
        2
 70
     0
 43
0.015
 10
13.03011378089557
 20
0.75
 10
16.50000000000068
 20
0.75
  0
LWPOLYLINE
  5
C93
330
1968
100
AcDbEntity
  8
BORDER
 62
     7
100
AcDbPolyline
 90
        2
 70
     0
 43
0.015
 10
13.03011378089557
 20
1.782018989503874
 10
16.50000000000068
 20
1.782018989503874
  0
LWPOLYLINE
  5
C97
330
1968
100
AcDbEntity
  8
BORDER
 62
     7
100
AcDbPolyline
 90
        2
 70
     0
 43
0.015
 10
13.38000000000068
 20
0.75
 10
13.38000000000068
 20
1.125
  0
LWPOLYLINE
  5
C9B
330
1968
100
AcDbEntity
  8
BORDER
 62
     7
100
AcDbPolyline
 90
        3
 70
     0
 43
0.015
 10
8.653408121735949
 20
0.5
 10
8.653408121735951
 20
2.303364982506457
 10
16.50000000000068
 20
2.303364982506457
  0
LWPOLYLINE
  5
CA0
330
1968
100
AcDbEntity
  8
BORDER
 62
     7
100
AcDbPolyline
 90
        4
 70
     1
 43
0.02
 10
16.50000000000068
 20
0.5
 10
16.50000000000068
 20
10.50000000000044
 10
0.5
 20
10.50000000000044
 10
0.5
 20
0.5
  0
LWPOLYLINE
  5
CA6
330
1968
100
AcDbEntity
  8
BORDER
100
AcDbPolyline
 90
        3
 70
     0
 43
0.0
 10
0.0
 20
10.50000000000044
 10
0.0
 20
11.00000000000044
 10
0.5
 20
11.00000000000044
  0
LWPOLYLINE
  5
CAB
330
1968
100
AcDbEntity
  8
BORDER
100
AcDbPolyline
 90
        3
 70
     0
 43
0.0
 10
0.5
 20
0.0
 10
0.0
 20
0.0
 10
0.0000000000000009
 20
0.5
  0
LWPOLYLINE
  5
CB0
330
1968
100
AcDbEntity
  8
BORDER
 62
     7
100
AcDbPolyline
 90
        3
 70
     0
 43
0.0
 10
17.00000000000068
 20
0.5
 10
17.00000000000068
 20
0.0
 10
16.50000000000068
 20
0.0
  0
LWPOLYLINE
  5
CB5
330
1968
100
AcDbEntity
  8
BORDER
 62
     7
100
AcDbPolyline
 90
        3
 70
     0
 43
0.0
 10
16.50000000000068
 20
11.00000000000044
 10
17.00000000000068
 20
11.00000000000044
 10
17.00000000000068
 20
10.50000000000044
  0
LWPOLYLINE
  5
CBA
330
1968
100
AcDbEntity
  8
BORDER
 62
     7
100
AcDbPolyline
 90
        2
 70
     0
 43
0.015
 10
14.09136563352307
 20
0.5
 10
14.09136563352308
 20
0.75
  0
INSERT
  5
D1A
330
1968
100
AcDbEntity
  8
TB-TXT
 62
     7
100
AcDbBlockReference
 66
     1
  2
TB-TXT-B
 10
16.50000000000068
 20
0.5
 30
0.0
  0
ATTRIB
  5
D1B
330
D1A
100
AcDbEntity
  8
TB-TXT
100
AcDbText
 10
11.87268589286368
 20
2.109509020876261
 30
0.0
 40
0.12
  1
RBF
  7
ROMANS
100
AcDbAttribute
  2
DRAWN
 70
     0
  0
ATTRIB
  5
D1C
330
D1A
100
AcDbEntity
  8
TB-TXT
100
AcDbText
 10
12.44366316790701
 20
2.111156216884233
 30
0.0
 40
0.12
  1
6/17/00
 41
0.6483294341780206
  7
ROMANS
 72
     5
 11
12.9660314548733
 21
2.111156216884233
 31
0.0
100
AcDbAttribute
  2
DATE
 70
     0
  0
ATTRIB
  5
D1D
330
D1A
100
AcDbEntity
  8
TB-TXT
100
AcDbText
 10
13.21009545161233
 20
1.587347886349108
 30
0.0
 40
0.12
  1
PICTORIAL
  7
ROMANS
100
AcDbAttribute
  2
LINE1
 70
     0
  0
ATTRIB
  5
D1E
330
D1A
100
AcDbEntity
  8
TB-TXT
100
AcDbText
 10
13.21009545161233
 20
1.393062172063394
 30
0.0
 40
0.12
  1
PC1
  7
ROMANS
100
AcDbAttribute
  2
LINE2
 70
     0
  0
ATTRIB
  5
D1F
330
D1A
100
AcDbEntity
  8
TB-TXT
100
AcDbText
 10
13.21009545161233
 20
1.198776457777679
 30
0.0
 40
0.12
  1
POWER CONTROL
  7
ROMANS
100
AcDbAttribute
  2
LINE3
 70
     0
  0
ATTRIB
  5
D20
330
D1A
100
AcDbEntity
  8
TB-TXT
100
AcDbText
 10
13.52134923061299
 20
0.5671844920783911
 30
0.0
 40
0.12
  1
FULL
  7
ROMANS
100
AcDbAttribute
  2
SCALE
 70
     0
  0
ATTRIB
  5
D21
330
D1A
100
AcDbEntity
  8
TB-TXT
100
AcDbText
 10
15.62505519888645
 20
0.5671844920783911
 30
0.0
 40
0.12
  1
1 OF 1
  7
ROMANS
100
AcDbAttribute
  2
SHT#
 70
     0
  0
ATTRIB
  5
D22
330
D1A
100
AcDbEntity
  8
TB-TXT
100
AcDbText
 10
14.1548286286904
 20
0.5671844920783911
 30
0.0
 40
0.12
  1
95567001
  7
ROMANS
100
AcDbAttribute
  2
FILE#
 70
     0
  0
ATTRIB
  5
D23
330
D1A
100
AcDbEntity
  8
TB-TXT
100
AcDbText
 10
14.1548286286904
 20
0.8746610802331819
 30
0.0
 40
0.12
  1
95-5670-01
  7
ROMANS
100
AcDbAttribute
  2
DWG#
 70
     0
  0
ATTRIB
  5
D24
330
D1A
100
AcDbEntity
  8
TB-TXT
100
AcDbText
 10
16.24995918922
 20
0.833878366992856
 30
0.0
 40
0.12
  1
B
  7
ROMANS
 72
     4
 11
16.31281633207715
 21
0.8938783669928561
 31
0.0
100
AcDbAttribute
  2
REV
 70
     0
  0
SEQEND
  5
D25
330
D1A
100
AcDbEntity
  8
TB-TXT
  0
LWPOLYLINE
  5
D26
330
1968
100
AcDbEntity
  8
BORDER
 62
     7
100
AcDbPolyline
 90
        2
 70
     0
 43
0.02
 10
11.4023313528014
 20
10.50000000000044
 10
11.4023313528014
 20
9.515700000000439
  0
LWPOLYLINE
  5
D2A
330
1968
100
AcDbEntity
  8
BORDER
 62
     7
100
AcDbPolyline
 90
        2
 70
     0
 43
0.015
 10
11.4023313528014
 20
10.21940000000044
 10
16.50000000000068
 20
10.21940000000044
  0
LWPOLYLINE
  5
D2E
330
1968
100
AcDbEntity
  8
BORDER
 62
     7
100
AcDbPolyline
 90
        2
 70
     0
 43
0.015
 10
11.4023313528014
 20
9.953200000000439
 10
16.50000000000068
 20
9.953200000000439
  0
LWPOLYLINE
  5
D32
330
1968
100
AcDbEntity
  8
BORDER
 62
     7
100
AcDbPolyline
 90
        2
 70
     0
 43
0.015
 10
11.8398313528014
 20
9.515700000000439
 10
11.8398313528014
 20
10.21940000000044
  0
LWPOLYLINE
  5
D36
330
1968
100
AcDbEntity
  8
BORDER
 62
     7
100
AcDbPolyline
 90
        2
 70
     0
 43
0.015
 10
14.6054313528014
 20
9.515700000000439
 10
14.6054313528014
 20
10.21940000000044
  0
LWPOLYLINE
  5
D3A
330
1968
100
AcDbEntity
  8
BORDER
 62
     7
100
AcDbPolyline
 90
        2
 70
     0
 43
0.015
 10
15.4804313528014
 20
9.515700000000439
 10
15.4804313528014
 20
10.21940000000044
  0
TEXT
  5
D3E
330
1968
100
AcDbEntity
  8
TXT
 62
     7
100
AcDbText
 10
15.68090278137283
 20
10.05286776446872
 30
0.0
 40
0.075
  1
APPROVED
  7
ROMANS
 72
     1
 11
15.9648313528014
 21
10.05286776446872
 31
0.0
100
AcDbText
  0
TEXT
  5
D3F
330
1968
100
AcDbEntity
  8
TXT
 62
     7
100
AcDbText
 10
14.89161706708711
 20
10.05286776446872
 30
0.0
 40
0.075
  1
DATE
  7
ROMANS
 72
     1
 11
15.0273313528014
 21
10.05286776446872
 31
0.0
100
AcDbText
  0
TEXT
  5
D40
330
1968
100
AcDbEntity
  8
TXT
 62
     7
100
AcDbText
 10
12.79697420994426
 20
10.05286776446872
 30
0.0
 40
0.075
  1
DESCRIPTION
  7
ROMANS
 72
     1
 11
13.1523313528014
 21
10.05286776446872
 31
0.0
100
AcDbText
  0
TEXT
  5
D41
330
1968
100
AcDbEntity
  8
TXT
 62
     7
100
AcDbText
 10
11.51478927346829
 20
10.05286776446872
 30
0.0
 40
0.075
  1
REV
  7
ROMANS
 72
     1
 11
11.62371784489687
 21
10.05286776446872
 31
0.0
100
AcDbText
  0
TEXT
  5
D42
330
1968
100
AcDbEntity
  8
TXT
 62
     7
100
AcDbText
 10
13.43380800755747
 20
10.31525701929148
 30
0.0
 40
0.1
  1
REVISIONS
  7
ROMANS
 72
     1
 11
13.8123794361289
 21
10.31525701929148
 31
0.0
100
AcDbText
  0
LWPOLYLINE
  5
F2B
330
1968
100
AcDbEntity
  8
PART
100
AcDbPolyline
 90
       10
 70
     0
 43
0.0
 10
1.372707194902973
 20
8.464160022139143
 10
1.369067028710153
 20
8.464160022139143
 42
0.388878731852992
 10
1.354124108238776
 20
8.450467358280359
 10
1.33563711180656
 20
8.239160022139142
 10
1.583137111806562
 20
8.239160022139142
 10
1.673137111806555
 20
8.239160022139142
 10
6.885637111806554
 20
8.239160022139138
 10
6.867150115374338
 20
8.450467358280359
 42
0.3888787318529918
 10
6.852207194902961
 20
8.464160022139143
 10
6.848567028710158
 20
8.464160022139143
  0
LWPOLYLINE
  5
F37
330
1968
100
AcDbEntity
  8
PART
100
AcDbPolyline
 90
       10
 70
     1
 43
0.0
 10
1.372707194902973
 20
3.014160022139145
 10
1.369067028710153
 20
3.014160022139145
 42
-0.388878731852992
 10
1.354124108238776
 20
3.027852685997935
 10
1.33563711180656
 20
3.239160022139146
 10
1.583137111806562
 20
3.239160022139146
 10
1.673137111806555
 20
3.239160022139146
 10
6.885637111806554
 20
3.239160022139146
 10
6.867150115374338
 20
3.027852685997928
 42
-0.3888787318529917
 10
6.852207194902961
 20
3.014160022139145
 10
6.848567028710158
 20
3.014160022139145
  0
LINE
  5
F43
330
1968
100
AcDbEntity
  8
PART
100
AcDbLine
 10
6.848137111806552
 20
3.239160022139153
 30
0.0
 11
6.848137111806556
 21
8.239160022139142
 31
0.0
  0
LINE
  5
F44
330
1968
100
AcDbEntity
  8
PART
100
AcDbLine
 10
1.373137111806554
 20
3.239160022139153
 30
0.0
 11
1.373137111806554
 21
8.239160022139142
 31
0.0
  0
LINE
  5
F45
330
1968
100
AcDbEntity
  8
PART
100
AcDbLine
 10
1.369067028710153
 20
8.464160022139143
 30
0.0
 11
6.852207194902961
 21
8.464160022139143
 31
0.0
  0
TEXT
  5
F46
330
1968
100
AcDbEntity
  8
TXT
100
AcDbText
 10
3.384899016568468
 20
2.616692691821222
 30
0.0
 40
0.187
  1
TOP VIEW
  7
ROMANT
 72
     4
 11
4.110637111806562
 21
2.710192691821222
 31
0.0
100
AcDbText
  0
TEXT
  5
F47
330
1968
100
AcDbEntity
  8
DIM
 62
     7
100
AcDbText
 10
7.490234738099911
 20
5.572156773914473
 30
0.0
 40
0.12
  1
[138.4 MM]
  7
ROMANS
 72
     4
 11
8.021663309528483
 21
5.623585345343045
 31
0.0
100
AcDbText
  0
LINE
  5
F48
330
1968
100
AcDbEntity
  8
DIM
100
AcDbLine
 10
8.015956174083203
 20
3.134160022139145
 30
0.0
 11
8.015956174083203
 21
5.485421283012545
 31
0.0
  0
LINE
  5
F49
330
1968
100
AcDbEntity
  8
DIM
100
AcDbLine
 10
6.968567028710157
 20
3.014160022139144
 30
0.0
 11
8.115956174083203
 21
3.014160022139144
 31
0.0
  0
SOLID
  5
F4A
330
1968
100
AcDbEntity
  8
DIM
100
AcDbTrace
 10
7.995956174083204
 20
3.134160022139145
 30
0.0
 11
8.035956174083203
 21
3.134160022139145
 31
0.0
 12
8.015956174083203
 22
3.014160022139144
 32
0.0
 13
8.015956174083203
 23
3.014160022139144
 33
0.0
  0
LINE
  5
F4B
330
1968
100
AcDbEntity
  8
DIM
100
AcDbLine
 10
8.015956174083203
 20
8.344160022139146
 30
0.0
 11
8.015956174083203
 21
5.944938446946967
 31
0.0
  0
TEXT
  5
F4C
330
1968
100
AcDbEntity
  8
DIM
 62
     7
100
AcDbText
 10
7.821663309528482
 20
5.757871059628757
 30
0.0
 40
0.12
  1
5.45
  7
ROMANS
 72
     4
 11
8.021663309528483
 21
5.817871059628757
 31
0.0
100
AcDbText
  0
LINE
  5
F4D
330
1968
100
AcDbEntity
  8
DIM
100
AcDbLine
 10
6.97220719490296
 20
8.464160022139143
 30
0.0
 11
8.115956174083203
 21
8.464160022139143
 31
0.0
  0
SOLID
  5
F4E
330
1968
100
AcDbEntity
  8
DIM
100
AcDbTrace
 10
7.995956174083204
 20
8.344160022139146
 30
0.0
 11
8.035956174083203
 21
8.344160022139146
 31
0.0
 12
8.015956174083203
 22
8.464160022139143
 32
0.0
 13
8.015956174083203
 23
8.464160022139143
 33
0.0
  0
LINE
  5
F57
330
1968
100
AcDbEntity
  8
DIM
100
AcDbLine
 10
1.45563711180656
 20
9.33331708589657
 30
0.0
 11
3.189208540377985
 21
9.33331708589657
 31
0.0
  0
LINE
  5
F58
330
1968
100
AcDbEntity
  8
DIM
100
AcDbLine
 10
1.33563711180656
 20
8.55172299329028
 30
0.0
 11
1.33563711180656
 21
9.433317085896572
 31
0.0
  0
SOLID
  5
F59
330
1968
100
AcDbEntity
  8
DIM
100
AcDbTrace
 10
1.45563711180656
 20
9.353317085896573
 30
0.0
 11
1.45563711180656
 21
9.313317085896574
 31
0.0
 12
1.33563711180656
 22
9.33331708589657
 32
0.0
 13
1.33563711180656
 23
9.33331708589657
 33
0.0
  0
LINE
  5
F5A
330
1968
100
AcDbEntity
  8
DIM
100
AcDbLine
 10
6.885637111806554
 20
8.509712959115692
 30
0.0
 11
6.885637111806554
 21
9.433317085896572
 31
0.0
  0
LINE
  5
F5B
330
1968
100
AcDbEntity
  8
DIM
100
AcDbLine
 10
6.765637111806554
 20
9.33331708589657
 30
0.0
 11
5.032065683235129
 21
9.33331708589657
 31
0.0
  0
TEXT
  5
F5C
330
1968
100
AcDbEntity
  8
DIM
100
AcDbText
 10
3.264922826092271
 20
9.27331708589657
 30
0.0
 40
0.12
  1
5.550 [141.0 MM]
  7
ROMANS
 72
     1
 11
4.110637111806557
 21
9.33331708589657
 31
0.0
100
AcDbText
 73
     2
  0
SOLID
  5
F5D
330
1968
100
AcDbEntity
  8
DIM
100
AcDbTrace
 10
6.765637111806554
 20
9.353317085896573
 30
0.0
 11
6.765637111806554
 21
9.313317085896574
 31
0.0
 12
6.885637111806554
 22
9.33331708589657
 32
0.0
 13
6.885637111806554
 23
9.33331708589657
 33
0.0
  0
INSERT
  5
F5E
330
1968
100
AcDbEntity
  8
DIM
 62
     7
100
AcDbBlockReference
 66
     1
  2
REV-TXT1
 10
16.50000000000068
 20
9.953200000000439
 30
0.0
  0
ATTRIB
  5
F5F
330
F5E
100
AcDbEntity
  8
TB-TXT
100
AcDbText
 10
11.57285670612053
 20
9.778200000000438
 30
0.0
 40
0.1
  1
A
  7
ROMANS
 72
     4
 11
11.61571384897767
 21
9.828200000000439
 31
0.0
100
AcDbAttribute
  2
REV
 70
     0
  0
ATTRIB
  5
F60
330
F5E
100
AcDbEntity
  8
TB-TXT
100
AcDbText
 10
11.92943623616825
 20
9.778200000000438
 30
0.0
 40
0.1
  1
RELEASED TO PRODUCTION
  7
ROMANS
 11
11.92943623616825
 21
9.828200000000439
 31
0.0
100
AcDbAttribute
  2
DESC
 70
     0
 74
     2
  0
ATTRIB
  5
F61
330
F5E
100
AcDbEntity
  8
TB-TXT
100
AcDbText
 10
14.70007420994426
 20
9.785342857143296
 30
0.0
 40
0.1
  1
7/17/00
  7
ROMANS
 72
     4
 11
15.0429313528014
 21
9.828200000000439
 31
0.0
100
AcDbAttribute
  2
DATE
 70
     0
  0
ATTRIB
  5
F62
330
F5E
100
AcDbEntity
  8
TB-TXT
100
AcDbText
 10
15.99021567640104
 20
9.828200000000439
 30
0.0
 40
0.1
  1

  7
ROMANS
 72
     4
 11
15.99021567640104
 21
9.828200000000439
 31
0.0
100
AcDbAttribute
  2
APPR
 70
     0
  0
SEQEND
  5
F63
330
F5E
100
AcDbEntity
  8
DIM
  0
TEXT
  5
1BC5
330
1968
100
AcDbEntity
  8
DIM
100
AcDbText
 10
25.4986674897972
 20
-2.910008022261978
 30
0.0
 40
0.156
  1

 41
0.85
100
AcDbText
  0
TEXT
  5
1BC6
330
1968
100
AcDbEntity
  8
DIM
100
AcDbText
 10
31.2174174897972
 20
-2.910008022261978
 30
0.0
 40
0.156
  1

 41
0.85
100
AcDbText
  0
TEXT
  5
2966
330
1968
100
AcDbEntity
  8
DIM
100
AcDbText
 10
23.74652797835077
 20
0.9848759607251214
 30
0.0
 40
0.156
  1

 41
0.85
100
AcDbText
  0
TEXT
  5
2967
330
1968
100
AcDbEntity
  8
DIM
100
AcDbText
 10
29.46527797835077
 20
0.9848759607251214
 30
0.0
 40
0.156
  1

 41
0.85
100
AcDbText
  0
TEXT
  5
2BC8
330
1968
100
AcDbEntity
  8
DIM
100
AcDbText
 10
24.58757130149608
 20
9.048168829042808
 30
0.0
 40
0.156
  1

 41
0.85
100
AcDbText
  0
TEXT
  5
2BC9
330
1968
100
AcDbEntity
  8
DIM
100
AcDbText
 10
30.30632130149608
 20
9.048168829042808
 30
0.0
 40
0.156
  1

 41
0.85
100
AcDbText
  0
HATCH
  5
456E
330
1968
100
AcDbEntity
  8
NEWLOGO
 62
     7
100
AcDbHatch
 10
0.0
 20
0.0
 30
0.0
210
0.0
220
0.0
230
1.0
  2
SOLID
 70
     1
 71
     0
 91
        1
 92
        1
 93
        1
 72
     4
 94
        3
 73
     0
 74
     0
 95
       35
 96
       31
 40
0.0
 40
0.0
 40
0.0
 40
0.0
 40
1.0
 40
1.0
 40
1.0
 40
2.0
 40
2.0
 40
2.0
 40
3.0
 40
3.0
 40
3.0
 40
4.0
 40
4.0
 40
4.0
 40
5.0
 40
5.0
 40
5.0
 40
6.0
 40
6.0
 40
6.0
 40
7.0
 40
7.0
 40
7.0
 40
8.0
 40
8.0
 40
8.0
 40
9.0
 40
9.0
 40
9.0
 40
10.0
 40
10.0
 40
10.0
 40
10.0
 10
14.24232787394606
 20
2.046348347597598
 10
14.26857951320272
 20
2.016547857371198
 10
14.34947162789005
 20
1.924713452193859
 10
14.34947162789005
 20
1.924713452193859
 10
14.34947162789005
 20
1.924713452193859
 10
14.22893293311918
 20
1.924713452193859
 10
14.22893293311918
 20
1.924713452193859
 10
14.22893293311918
 20
1.924713452193859
 10
14.16827321212709
 20
1.995238978881821
 10
14.16526260355442
 20
1.99871685283216
 10
14.16185373503961
 20
1.995830454043442
 10
14.07822900510559
 20
1.924713452193859
 10
14.07822900510559
 20
1.924713452193859
 10
14.07822900510559
 20
1.924713452193859
 10
13.87869485933233
 20
1.924713452193859
 10
13.87869485933233
 20
1.924713452193859
 10
13.87869485933233
 20
1.924713452193859
 10
13.89075109471006
 20
1.997220420673256
 10
13.89729280999761
 20
2.036571263175981
 10
13.92728257227572
 20
2.038605937731963
 10
13.95842176795126
 20
2.040364590545854
 10
13.99077940245974
 20
2.041790045685363
 10
13.99077940245974
 20
2.041790045685363
 10
13.97357536159202
 20
1.938283863985345
 10
13.97357536159202
 20
1.938283863985345
 10
14.00464358024817
 20
1.964429037712921
 10
14.07236748625391
 20
2.021401896864244
 10
14.10082729944731
 20
2.045356640909946
 10
14.14590164993065
 20
2.046279342162075
 10
14.19302644764098
 20
2.046644085178408
 10
14.24232787394606
 20
2.046348347597598
 97
        0
 75
     0
 76
     1
 98
        1
 10
13.82664603090151
 20
2.051712534417545
  0
HATCH
  5
456F
330
1968
100
AcDbEntity
  8
NEWLOGO
 62
     7
100
AcDbHatch
 10
0.0
 20
0.0
 30
0.0
210
0.0
220
0.0
230
1.0
  2
SOLID
 70
     1
 71
     0
 91
        1
 92
        1
 93
        1
 72
     4
 94
        3
 73
     0
 74
     0
 95
       44
 96
       40
 40
0.0
 40
0.0
 40
0.0
 40
0.0
 40
1.0
 40
1.0
 40
1.0
 40
2.0
 40
2.0
 40
2.0
 40
3.0
 40
3.0
 40
3.0
 40
4.0
 40
4.0
 40
4.0
 40
5.0
 40
5.0
 40
5.0
 40
6.0
 40
6.0
 40
6.0
 40
7.0
 40
7.0
 40
7.0
 40
8.0
 40
8.0
 40
8.0
 40
9.0
 40
9.0
 40
9.0
 40
10.0
 40
10.0
 40
10.0
 40
11.0
 40
11.0
 40
11.0
 40
12.0
 40
12.0
 40
12.0
 40
13.0
 40
13.0
 40
13.0
 40
13.0
 10
13.65358138440278
 20
2.042616139327762
 10
13.65358138440278
 20
2.042616139327762
 10
13.67621812463
 20
2.178711616641227
 10
13.67621812463
 20
2.178711616641227
 10
13.67621812463
 20
2.178711616641227
 10
13.75346970969754
 20
2.178711616641227
 10
13.75346970969754
 20
2.178711616641227
 10
13.75346970969754
 20
2.178711616641227
 10
13.82746423820842
 20
2.097797814531306
 10
13.83038711129877
 20
2.094584132819828
 10
13.83368754270063
 20
2.097223097832597
 10
13.93530297546732
 20
2.178711616641227
 10
13.93530297546732
 20
2.178711616641227
 10
13.93530297546732
 20
2.178711616641227
 10
14.12772167504626
 20
2.178511500878213
 10
14.12772167504626
 20
2.178511500878213
 10
14.12772167504626
 20
2.178511500878213
 10
14.18020720930475
 20
2.116481529095018
 10
14.18321584629353
 20
2.112931692333348
 10
14.18662471480835
 20
2.115877238638225
 10
14.25927166574266
 20
2.178511500878213
 10
14.25927166574266
 20
2.178511500878213
 10
14.25927166574266
 20
2.178511500878213
 10
14.37954813985854
 20
2.178511500878213
 10
14.37954813985854
 20
2.178511500878213
 10
14.37954813985854
 20
2.178511500878213
 10
14.31464359878986
 20
2.123496424511857
 10
14.27157040593666
 20
2.086972833281684
 10
14.20722185151991
 20
2.087259698735072
 10
14.14647538083743
 20
2.086368542824894
 10
14.08912003441492
 20
2.084445262757684
 10
14.06373983522971
 20
2.113618789312766
 10
14.02612792970216
 20
2.156848723083799
 10
14.01248851247515
 20
2.172509999571619
 10
14.01248851247515
 20
2.172509999571619
 10
13.99718113529237
 20
2.080345354095707
 10
13.99718113529237
 20
2.080345354095707
 10
13.86305625605904
 20
2.072829676375362
 10
13.74952457036953
 20
2.059443607675915
 10
13.65358138440278
 20
2.042616139327762
 97
        0
 75
     0
 76
     1
 98
        1
 10
13.82664603090151
 20
2.051712534417545
  0
HATCH
  5
4570
330
1968
100
AcDbEntity
  8
NEWLOGO
 62
     7
100
AcDbHatch
 10
0.0
 20
0.0
 30
0.0
210
0.0
220
0.0
230
1.0
  2
SOLID
 70
     1
 71
     0
 91
        2
 92
       16
 93
        1
 72
     4
 94
        3
 73
     0
 74
     0
 95
       17
 96
       13
 40
0.0
 40
0.0
 40
0.0
 40
0.0
 40
1.0
 40
1.0
 40
1.0
 40
2.0
 40
2.0
 40
2.0
 40
3.0
 40
3.0
 40
3.0
 40
4.0
 40
4.0
 40
4.0
 40
4.0
 10
13.59798271921029
 20
2.03210956887348
 10
13.59798271921029
 20
2.03210956887348
 10
13.5411064676687
 20
2.178511500878213
 10
13.5411064676687
 20
2.178511500878213
 10
13.5411064676687
 20
2.178511500878213
 10
13.44360868781883
 20
2.178511500878213
 10
13.44360868781883
 20
2.178511500878213
 10
13.44360868781883
 20
2.178511500878213
 10
13.27374392194448
 20
1.924835690393928
 10
13.27374392194448
 20
1.924835690393928
 10
13.34191044852951
 20
1.96107340196265
 10
13.44485275724211
 20
2.000962486862452
 10
13.59798271921029
 20
2.03210956887348
 97
        0
 92
        1
 93
        1
 72
     4
 94
        3
 73
     0
 74
     0
 95
       14
 96
       10
 40
0.0
 40
0.0
 40
0.0
 40
0.0
 40
1.0
 40
1.0
 40
1.0
 40
2.0
 40
2.0
 40
2.0
 40
3.0
 40
3.0
 40
3.0
 40
3.0
 10
13.48032746585234
 20
2.092565230934822
 10
13.48324639577494
 20
2.084302322926959
 10
13.49963321512768
 20
2.037771957754076
 10
13.50245159427282
 20
2.029804787327027
 10
13.49556682339153
 20
2.029804787327027
 10
13.44947612142212
 20
2.029804787327027
 10
13.44032501487989
 20
2.029804787327027
 10
13.44130390627237
 20
2.031352480666603
 10
13.47550004274157
 20
2.084998292033803
 10
13.48032746585234
 20
2.092565230934822
 97
        0
 75
     0
 76
     1
 98
        1
 10
13.82664603090151
 20
2.051712534417545
  0
HATCH
  5
4571
330
1968
100
AcDbEntity
  8
NEWLOGO
 62
     7
100
AcDbHatch
 10
0.0
 20
0.0
 30
0.0
210
0.0
220
0.0
230
1.0
  2
SOLID
 70
     1
 71
     0
 91
        1
 92
        1
 93
        1
 72
     4
 94
        3
 73
     0
 74
     0
 95
       26
 96
       22
 40
0.0
 40
0.0
 40
0.0
 40
0.0
 40
1.0
 40
1.0
 40
1.0
 40
2.0
 40
2.0
 40
2.0
 40
3.0
 40
3.0
 40
3.0
 40
4.0
 40
4.0
 40
4.0
 40
5.0
 40
5.0
 40
5.0
 40
6.0
 40
6.0
 40
6.0
 40
7.0
 40
7.0
 40
7.0
 40
7.0
 10
13.74287146059321
 20
2.022638079952036
 10
13.73615526013299
 20
1.982208781071285
 10
13.72660096468892
 20
1.924713452193859
 10
13.72660096468892
 20
1.924713452193859
 10
13.72660096468892
 20
1.924713452193859
 10
13.539683969905
 20
1.924713452193859
 10
13.539683969905
 20
1.924713452193859
 10
13.539683969905
 20
1.924713452193859
 10
13.52236952034044
 20
1.97365013548261
 10
13.51782107634757
 20
1.986522606583382
 10
13.54608570273762
 20
1.992610857580348
 10
13.5764244353611
 20
1.998430973170711
 10
13.60895064029064
 20
2.003884374160866
 10
13.60895064029064
 20
2.003884374160866
 10
13.6356971470992
 20
1.935038636931912
 10
13.6356971470992
 20
1.935038636931912
 10
13.6356971470992
 20
1.935038636931912
 10
13.6481792445933
 20
2.010130351867596
 10
13.6481792445933
 20
2.010130351867596
 10
13.67801325174553
 20
2.014635421015286
 10
13.70953986365193
 20
2.018819121991827
 10
13.74287146059321
 20
2.022638079952036
 97
        0
 75
     0
 76
     1
 98
        1
 10
13.82664603090151
 20
2.051712534417545
  0
TEXT
  5
4572
330
1968
100
AcDbEntity
  8
TB-TXT
  6
BYBLOCK
 62
     7
100
AcDbText
 10
14.9153852405884
 20
2.120751468697989
 30
0.0
 40
0.074997
  1
AMX CORPORATION
 41
1.129465146757669
  7
ROMANS
 72
     5
 11
16.09724256440439
 21
2.120751468697989
 31
0.0
100
AcDbText
  0
TEXT
  5
4573
330
1968
100
AcDbEntity
  8
TB-TXT
  6
BYBLOCK
 62
     7
100
AcDbText
 10
14.9153852405884
 20
1.86361875441799
 30
0.0
 40
0.074997
  1
Richardson, TX U.S.A. 75082
 41
0.738461709401708
  7
ROMANS
 72
     5
 11
16.14962186914839
 21
1.86361875441799
 31
0.0
100
AcDbText
  0
TEXT
  5
4574
330
1968
100
AcDbEntity
  8
TB-TXT
  6
BYBLOCK
 62
     7
100
AcDbText
 10
14.9153852405884
 20
1.99218461157799
 30
0.0
 40
0.074997
  1
3000 Research Drive
 41
0.9958581065088671
  7
ROMANS
 72
     5
 11
16.11748015486838
 21
1.99218461157799
 31
0.0
100
AcDbText
  0
TEXT
  5
4575
330
1968
100
AcDbEntity
  8
NEWLOGO
 62
     7
100
AcDbText
 10
14.40198398026977
 20
1.919946928411969
 30
0.0
 40
0.044483287849256
  1
M
 41
1.050000000000107
  7
ROMANS
 72
     5
 11
14.44646726811902
 21
1.919946928411969
 31
0.0
100
AcDbText
  0
TEXT
  5
4576
330
1968
100
AcDbEntity
  8
NEWLOGO
 62
     7
100
AcDbText
 10
14.35940279780894
 20
1.919946928411969
 30
0.0
 40
0.044483287849256
  1
T
 41
1.400000000000142
  7
ROMANS
 72
     5
 11
14.4038860856582
 21
1.919946928411969
 31
0.0
100
AcDbText
  0
TEXT
  5
4577
330
1968
100
AcDbEntity
  8
TB-TXT
 62
     7
100
AcDbText
 10
8.745927877841801
 20
1.866785385016378
 30
0.0
 40
0.1
  1
of AMX CORPORATION. All information
 41
0.75
  7
ROMANS
100
AcDbText
  0
LWPOLYLINE
  5
4578
330
1968
100
AcDbEntity
  8
PART
 62
     7
100
AcDbPolyline
 90
        7
 70
     0
 43
0.0
 10
9.926597884819724
 20
6.64400542997231
 10
9.926597884819724
 20
7.780005429972316
 42
-0.4142135623730905
 10
10.03859788481972
 20
7.892005429972311
 10
15.22359788481971
 20
7.892005429972311
 42
-0.4142135623730905
 10
15.33559788481971
 20
7.780005429972316
 10
15.33559788481972
 20
6.64400542997231
 42
-0.238580592500704
 10
15.28994235063654
 20
6.553770116178434
  0
LWPOLYLINE
  5
4579
330
1968
100
AcDbEntity
  8
PART
 62
     7
100
AcDbPolyline
 90
        3
 70
     0
 43
0.0
 10
14.83758007441618
 20
6.532005429972315
 10
10.03859788481972
 20
6.532005429972311
 42
-0.4142135623730905
 10
9.926597884819724
 20
6.64400542997231
  0
LWPOLYLINE
  5
457A
330
1968
100
AcDbEntity
  8
PART
 62
     7
100
AcDbPolyline
 90
        7
 70
     0
 43
0.0
 10
9.856097884819721
 20
6.64400542997231
 10
9.856097884819721
 20
7.780005429972316
 42
-0.4142135623730951
 10
10.04309788481972
 20
7.967005429972314
 10
15.21909788481971
 20
7.967005429972314
 42
-0.4142135623730946
 10
15.40609788481972
 20
7.780005429972316
 10
15.40609788481972
 20
6.64400542997231
 42
-0.2047813123741025
 10
15.34831081652041
 20
6.508827701476405
  0
LWPOLYLINE
  5
457B
330
1968
100
AcDbEntity
  8
PART
 62
     7
100
AcDbPolyline
 90
        3
 70
     0
 43
0.0
 10
14.90553009873427
 20
6.457005429972316
 10
10.04309788481972
 20
6.457005429972308
 42
-0.4142135623730951
 10
9.856097884819721
 20
6.64400542997231
  0
LWPOLYLINE
  5
457C
330
1968
100
AcDbEntity
  8
PART
 62
     7
100
AcDbPolyline
 90
        8
 70
     1
 43
0.0
 10
9.926597884819724
 20
3.788705753379353
 10
9.926597884819724
 20
4.92470575337936
 42
-0.4142135623730905
 10
10.03859788481972
 20
5.036705753379354
 10
15.22359788481971
 20
5.036705753379354
 42
-0.4142135623730905
 10
15.33559788481971
 20
4.92470575337936
 10
15.33559788481972
 20
3.788705753379353
 42
-0.4142135623730951
 10
15.22359788481971
 20
3.676705753379359
 10
10.03859788481972
 20
3.676705753379355
 42
-0.4142135623730905
  0
LWPOLYLINE
  5
457D
330
1968
100
AcDbEntity
  8
PART
 62
     7
100
AcDbPolyline
 90
        8
 70
     1
 43
0.0
 10
9.856097884819721
 20
3.788705753379353
 10
9.856097884819721
 20
4.92470575337936
 42
-0.4142135623730951
 10
10.04309788481972
 20
5.111705753379357
 10
15.21909788481971
 20
5.111705753379357
 42
-0.4142135623730946
 10
15.40609788481972
 20
4.92470575337936
 10
15.40609788481972
 20
3.788705753379353
 42
-0.4142135623730959
 10
15.21909788481972
 20
3.601705753379356
 10
10.04309788481972
 20
3.601705753379352
 42
-0.4142135623730951
  0
LINE
  5
457E
330
1968
100
AcDbEntity
  8
PART
 62
     7
100
AcDbLine
 10
15.22859788481972
 20
5.034705753379352
 30
0.0
 11
10.03359788481972
 21
5.034705753379352
 31
0.0
  0
LINE
  5
457F
330
1968
100
AcDbEntity
  8
PART
 62
     7
100
AcDbLine
 10
10.03359788481972
 20
3.688705753379355
 30
0.0
 11
15.22859788481972
 21
3.688705753379355
 31
0.0
  0
LWPOLYLINE
  5
4580
330
1968
100
AcDbEntity
  8
SILK
 62
     7
100
AcDbPolyline
 90
        3
 70
     0
 43
0.007
 10
11.36763091190267
 20
6.649189091853653
 10
11.53435594933584
 20
6.649189091853653
 10
11.53435594933584
 20
6.726949885358866
  0
TEXT
  5
4581
330
1968
100
AcDbEntity
  8
SILK
 62
     7
100
AcDbText
 10
11.40951261878971
 20
7.420431309333121
 30
0.0
 40
0.062
  1
4
  7
ARIAL
 72
     1
 11
11.43359788481972
 21
7.420431309333121
 31
0.0
100
AcDbText
  0
TEXT
  5
4582
330
1968
100
AcDbEntity
  8
SILK
 62
     7
100
AcDbText
 10
10.63785163652503
 20
7.740884548990059
 30
0.0
 40
0.062
  1
CLASS 2 CIRCUIT ONLY
  7
ARIAL
 72
     1
 11
11.13359788481971
 21
7.740884548990059
 31
0.0
100
AcDbText
  0
LINE
  5
4583
330
1968
100
AcDbEntity
  8
PART
 62
     7
100
AcDbLine
 10
15.22859788481972
 20
7.890005429972308
 30
0.0
 11
10.03359788481972
 21
7.890005429972308
 31
0.0
  0
LINE
  5
4584
330
1968
100
AcDbEntity
  8
PART
 62
     7
100
AcDbLine
 10
10.03359788481972
 20
6.544005429972312
 30
0.0
 11
14.82762469582986
 21
6.544005429972315
 31
0.0
  0
LINE
  5
4585
330
1968
100
AcDbEntity
  8
PART
 62
     7
100
AcDbLine
 10
11.55859788481971
 20
6.774005429972309
 30
0.0
 11
10.72359788481971
 21
6.774005429972309
 31
0.0
  0
LINE
  5
4586
330
1968
100
AcDbEntity
  8
PART
 62
     7
100
AcDbLine
 10
11.38609788481971
 20
6.863005429972307
 30
0.0
 11
11.49609788481971
 21
6.863005429972307
 31
0.0
  0
LINE
  5
4587
330
1968
100
AcDbEntity
  8
PART
 62
     7
100
AcDbLine
 10
11.38609788481971
 20
7.113005429972307
 30
0.0
 11
11.49609788481971
 21
7.113005429972307
 31
0.0
  0
LINE
  5
4588
330
1968
100
AcDbEntity
  8
PART
 62
     7
100
AcDbLine
 10
11.38609788481971
 20
6.898005429972307
 30
0.0
 11
11.49609788481971
 21
6.898005429972307
 31
0.0
  0
LINE
  5
4589
330
1968
100
AcDbEntity
  8
PART
 62
     7
100
AcDbLine
 10
11.38609788481971
 20
7.023005429972307
 30
0.0
 11
11.49609788481971
 21
7.023005429972307
 31
0.0
  0
LINE
  5
458A
330
1968
100
AcDbEntity
  8
PART
 62
     7
100
AcDbLine
 10
10.74309788481971
 20
7.363005429972307
 30
0.0
 11
11.53909788481971
 21
7.363005429972307
 31
0.0
  0
LINE
  5
458B
330
1968
100
AcDbEntity
  8
PART
 62
     7
100
AcDbLine
 10
10.74309788481971
 20
6.773005429972311
 30
0.0
 11
11.53909788481971
 21
6.773005429972307
 31
0.0
  0
TEXT
  5
458C
330
1968
100
AcDbEntity
  8
DIM
 62
     7
100
AcDbText
 10
9.000950724182784
 20
7.278554174893304
 30
0.0
 40
0.12
  1
1.51
  7
ROMANS
 72
     1
 11
9.192379295611356
 21
7.338554174893303
 31
0.0
100
AcDbText
 73
     2
  0
LINE
  5
458D
330
1968
100
AcDbEntity
  8
PART
 62
     7
100
AcDbLine
 10
9.933597884819718
 20
7.790005429972307
 30
0.0
 11
9.933597884819718
 21
6.64400542997231
 31
0.0
  0
LINE
  5
458E
330
1968
100
AcDbEntity
  8
PART
 62
     7
100
AcDbLine
 10
10.74309788481971
 20
7.363005429972307
 30
0.0
 11
10.74309788481971
 21
6.773005429972307
 31
0.0
  0
LINE
  5
458F
330
1968
100
AcDbEntity
  8
PART
 62
     7
100
AcDbLine
 10
9.933597884819718
 20
4.934705753379351
 30
0.0
 11
9.933597884819718
 21
3.788705753379353
 31
0.0
  0
ARC
  5
4590
330
1968
100
AcDbEntity
  8
PART
 62
     7
100
AcDbCircle
 10
10.03359788481972
 20
3.788705753379353
 30
0.0
 40
0.1
100
AcDbArc
 50
180.0
 51
270.0
  0
TEXT
  5
4591
330
1968
100
AcDbEntity
  8
DIM
 62
     7
100
AcDbText
 10
8.683406579991803
 20
7.059500958566687
 30
0.0
 40
0.12
  1
[38.4 MM]
  7
ROMANS
100
AcDbText
  0
LWPOLYLINE
  5
4592
330
1968
100
AcDbEntity
  8
PART
 62
     7
100
AcDbPolyline
 90
       16
 70
     1
 43
0.0
 10
9.979619379363153
 20
4.04106292650928
 10
10.01395505794964
 20
4.04106292650928
 42
-0.4142135623730951
 10
10.02895505794964
 20
4.026062926509279
 10
10.02895505794964
 20
3.991727247922788
 10
10.07824071168979
 20
3.991727247922788
 10
10.07824071168979
 20
4.026062926509279
 42
-0.4142135623730951
 10
10.09324071168979
 20
4.04106292650928
 10
10.12757639027628
 20
4.041062926509276
 10
10.12757639027628
 20
4.090348580249436
 10
10.09324071168979
 20
4.090348580249436
 42
-0.4142135623730951
 10
10.07824071168979
 20
4.105348580249437
 10
10.07824071168979
 20
4.139684258835924
 10
10.02895505794964
 20
4.139684258835924
 10
10.02895505794964
 20
4.105348580249437
 42
-0.4142135623731054
 10
10.01395505794964
 20
4.090348580249436
 10
9.979619379363153
 20
4.090348580249436
  0
CIRCLE
  5
4593
330
1968
100
AcDbEntity
  8
PART
 62
     7
100
AcDbCircle
 10
10.05359788481972
 20
4.065705753379354
 30
0.0
 40
0.1080000000000023
  0
TEXT
  5
4594
330
1968
100
AcDbEntity
  8
SILK
 62
     7
100
AcDbText
 10
10.05124254440022
 20
4.781801284555999
 30
0.0
 40
0.141
  1
PC1
 41
1.7
  7
BOLD
100
AcDbText
  0
TEXT
  5
4595
330
1968
100
AcDbEntity
  8
SILK
 62
     7
100
AcDbText
 10
10.05359788481972
 20
4.614180419899497
 30
0.0
 40
0.08897
  1
Power Control
 41
1.5
  7
ARIAL
100
AcDbText
  0
ARC
  5
4596
330
1968
100
AcDbEntity
  8
PART
 62
     7
100
AcDbCircle
 10
10.03359788481972
 20
4.934705753379351
 30
0.0
 40
0.1
100
AcDbArc
 50
90.0
 51
180.0
  0
LWPOLYLINE
  5
4597
330
1968
100
AcDbEntity
  8
PART
 62
     7
100
AcDbPolyline
 90
       16
 70
     1
 43
0.0
 10
9.979619379363153
 20
6.896362603102236
 10
10.01395505794964
 20
6.896362603102236
 42
-0.4142135623730951
 10
10.02895505794964
 20
6.881362603102235
 10
10.02895505794964
 20
6.847026924515745
 10
10.07824071168979
 20
6.847026924515745
 10
10.07824071168979
 20
6.881362603102235
 42
-0.4142135623730951
 10
10.09324071168979
 20
6.896362603102236
 10
10.12757639027628
 20
6.896362603102232
 10
10.12757639027628
 20
6.945648256842392
 10
10.09324071168979
 20
6.945648256842392
 42
-0.4142135623730951
 10
10.07824071168979
 20
6.960648256842393
 10
10.07824071168979
 20
6.99498393542888
 10
10.02895505794964
 20
6.99498393542888
 10
10.02895505794964
 20
6.960648256842393
 42
-0.4142135623731054
 10
10.01395505794964
 20
6.945648256842392
 10
9.979619379363153
 20
6.945648256842392
  0
CIRCLE
  5
4598
330
1968
100
AcDbEntity
  8
PART
 62
     7
100
AcDbCircle
 10
10.05359788481972
 20
6.921005429972311
 30
0.0
 40
0.1080000000000023
  0
LINE
  5
4599
330
1968
100
AcDbEntity
  8
DIM
 62
     7
100
AcDbLine
 10
9.875679057560077
 20
6.457005429972308
 30
0.0
 11
9.092379295611358
 21
6.457005429972308
 31
0.0
  0
LINE
  5
459A
330
1968
100
AcDbEntity
  8
DIM
 62
     7
100
AcDbLine
 10
9.192379295611356
 20
6.577005429972306
 30
0.0
 11
9.192379295611356
 21
6.967701254259246
 31
0.0
  0
SOLID
  5
459B
330
1968
100
AcDbEntity
  8
DIM
 62
     7
100
AcDbTrace
 10
9.172379295611357
 20
6.577005429972306
 30
0.0
 11
9.212379295611356
 21
6.577005429972306
 31
0.0
 12
9.192379295611356
 22
6.457005429972308
 32
0.0
 13
9.192379295611356
 23
6.457005429972308
 33
0.0
  0
ARC
  5
459C
330
1968
100
AcDbEntity
  8
PART
 62
     7
100
AcDbCircle
 10
10.03359788481972
 20
6.64400542997231
 30
0.0
 40
0.1
100
AcDbArc
 50
180.0
 51
270.0
  0
LWPOLYLINE
  5
459D
330
1968
100
AcDbEntity
  8
SILK
 62
     7
100
AcDbPolyline
 90
        3
 70
     0
 43
0.007
 10
10.74783982030357
 20
6.726949885358866
 10
10.74783982030357
 20
6.649189091853653
 10
10.89362974931573
 20
6.649189091853653
  0
LINE
  5
459E
330
1968
100
AcDbEntity
  8
PART
 62
     7
100
AcDbLine
 10
10.72359788481971
 20
7.194005429972307
 30
0.0
 11
10.72359788481971
 21
6.774005429972309
 31
0.0
  0
LINE
  5
459F
330
1968
100
AcDbEntity
  8
PART
 62
     7
100
AcDbLine
 10
10.74309788481971
 20
7.194005429972303
 30
0.0
 11
10.72359788481971
 21
7.194005429972303
 31
0.0
  0
LINE
  5
45A0
330
1968
100
AcDbEntity
  8
PART
 62
     7
100
AcDbLine
 10
11.38609788481971
 20
6.863005429972307
 30
0.0
 11
11.38609788481971
 21
7.113005429972307
 31
0.0
  0
LINE
  5
45A1
330
1968
100
AcDbEntity
  8
PART
 62
     7
100
AcDbLine
 10
11.18609788481971
 20
6.863005429972307
 30
0.0
 11
11.18609788481971
 21
7.113005429972307
 31
0.0
  0
LINE
  5
45A2
330
1968
100
AcDbEntity
  8
PART
 62
     7
100
AcDbLine
 10
11.29609788481971
 20
6.863005429972307
 30
0.0
 11
11.29609788481971
 21
7.113005429972307
 31
0.0
  0
LINE
  5
45A3
330
1968
100
AcDbEntity
  8
PART
 62
     7
100
AcDbLine
 10
10.98609788481971
 20
6.863005429972307
 30
0.0
 11
10.98609788481971
 21
7.113005429972307
 31
0.0
  0
LINE
  5
45A4
330
1968
100
AcDbEntity
  8
PART
 62
     7
100
AcDbLine
 10
11.09609788481971
 20
6.863005429972307
 30
0.0
 11
11.09609788481971
 21
7.113005429972307
 31
0.0
  0
LINE
  5
45A5
330
1968
100
AcDbEntity
  8
PART
 62
     7
100
AcDbLine
 10
10.78609788481971
 20
6.863005429972307
 30
0.0
 11
10.78609788481971
 21
7.113005429972307
 31
0.0
  0
LINE
  5
45A6
330
1968
100
AcDbEntity
  8
PART
 62
     7
100
AcDbLine
 10
10.89609788481971
 20
6.863005429972307
 30
0.0
 11
10.89609788481971
 21
7.113005429972307
 31
0.0
  0
TEXT
  5
45A7
330
1968
100
AcDbEntity
  8
SILK
 62
     7
100
AcDbText
 10
10.93002482490922
 20
6.617414977435861
 30
0.0
 40
0.062
  1
CONTROL
  7
ARIAL
 72
     4
 11
11.14175947702382
 21
6.648436123411304
 31
0.0
100
AcDbText
  0
LINE
  5
45A8
330
1968
100
AcDbEntity
  8
PART
 62
     7
100
AcDbLine
 10
10.78609788481971
 20
6.863005429972307
 30
0.0
 11
10.89609788481971
 21
6.863005429972307
 31
0.0
  0
LINE
  5
45A9
330
1968
100
AcDbEntity
  8
PART
 62
     7
100
AcDbLine
 10
10.98609788481971
 20
6.863005429972307
 30
0.0
 11
11.09609788481971
 21
6.863005429972307
 31
0.0
  0
LINE
  5
45AA
330
1968
100
AcDbEntity
  8
PART
 62
     7
100
AcDbLine
 10
11.18609788481971
 20
6.863005429972307
 30
0.0
 11
11.29609788481971
 21
6.863005429972307
 31
0.0
  0
LINE
  5
45AB
330
1968
100
AcDbEntity
  8
PART
 62
     7
100
AcDbLine
 10
10.78609788481971
 20
6.898005429972307
 30
0.0
 11
10.89609788481971
 21
6.898005429972307
 31
0.0
  0
LINE
  5
45AC
330
1968
100
AcDbEntity
  8
PART
 62
     7
100
AcDbLine
 10
10.78609788481971
 20
7.023005429972307
 30
0.0
 11
10.89609788481971
 21
7.023005429972307
 31
0.0
  0
LINE
  5
45AD
330
1968
100
AcDbEntity
  8
PART
 62
     7
100
AcDbLine
 10
10.98609788481971
 20
6.898005429972307
 30
0.0
 11
11.09609788481971
 21
6.898005429972307
 31
0.0
  0
LINE
  5
45AE
330
1968
100
AcDbEntity
  8
PART
 62
     7
100
AcDbLine
 10
10.98609788481971
 20
7.023005429972307
 30
0.0
 11
11.09609788481971
 21
7.023005429972307
 31
0.0
  0
LINE
  5
45AF
330
1968
100
AcDbEntity
  8
PART
 62
     7
100
AcDbLine
 10
10.78609788481971
 20
7.113005429972307
 30
0.0
 11
10.89609788481971
 21
7.113005429972307
 31
0.0
  0
LINE
  5
45B0
330
1968
100
AcDbEntity
  8
PART
 62
     7
100
AcDbLine
 10
10.98609788481971
 20
7.113005429972307
 30
0.0
 11
11.09609788481971
 21
7.113005429972307
 31
0.0
  0
LINE
  5
45B1
330
1968
100
AcDbEntity
  8
PART
 62
     7
100
AcDbLine
 10
11.18609788481971
 20
6.898005429972307
 30
0.0
 11
11.29609788481971
 21
6.898005429972307
 31
0.0
  0
LINE
  5
45B2
330
1968
100
AcDbEntity
  8
PART
 62
     7
100
AcDbLine
 10
11.18609788481971
 20
7.023005429972307
 30
0.0
 11
11.29609788481971
 21
7.023005429972307
 31
0.0
  0
LINE
  5
45B3
330
1968
100
AcDbEntity
  8
PART
 62
     7
100
AcDbLine
 10
11.18609788481971
 20
7.113005429972307
 30
0.0
 11
11.29609788481971
 21
7.113005429972307
 31
0.0
  0
LINE
  5
45B4
330
1968
100
AcDbEntity
  8
DIM
 62
     7
100
AcDbLine
 10
9.923097884819721
 20
7.967005429972314
 30
0.0
 11
9.092379295611358
 21
7.967005429972314
 31
0.0
  0
LINE
  5
45B5
330
1968
100
AcDbEntity
  8
DIM
 62
     7
100
AcDbLine
 10
9.192379295611356
 20
7.847005429972313
 30
0.0
 11
9.192379295611356
 21
7.488554174893302
 31
0.0
  0
SOLID
  5
45B6
330
1968
100
AcDbEntity
  8
DIM
 62
     7
100
AcDbTrace
 10
9.172379295611357
 20
7.847005429972313
 30
0.0
 11
9.212379295611356
 21
7.847005429972313
 31
0.0
 12
9.192379295611356
 22
7.967005429972314
 32
0.0
 13
9.192379295611356
 23
7.967005429972314
 33
0.0
  0
ARC
  5
45B7
330
1968
100
AcDbEntity
  8
PART
 62
     7
100
AcDbCircle
 10
10.03359788481972
 20
7.790005429972307
 30
0.0
 40
0.1
100
AcDbArc
 50
90.0
 51
180.0
  0
TEXT
  5
45B8
330
1968
100
AcDbEntity
  8
SILK
 62
     7
100
AcDbText
 10
10.81021043597933
 20
7.420431309333121
 30
0.0
 40
0.062
  1
1
  7
ARIAL
 72
     1
 11
10.83359788481972
 21
7.420431309333121
 31
0.0
100
AcDbText
  0
TEXT
  5
45B9
330
1968
100
AcDbEntity
  8
SILK
 62
     7
100
AcDbText
 10
11.0095126187897
 20
7.420431309333121
 30
0.0
 40
0.062
  1
2
  7
ARIAL
 72
     1
 11
11.03359788481971
 21
7.420431309333121
 31
0.0
100
AcDbText
  0
TEXT
  5
45BA
330
1968
100
AcDbEntity
  8
SILK
 62
     7
100
AcDbText
 10
11.2095126187897
 20
7.420431309333121
 30
0.0
 40
0.062
  1
3
  7
ARIAL
 72
     1
 11
11.23359788481971
 21
7.420431309333121
 31
0.0
100
AcDbText
  0
LINE
  5
45BB
330
1968
100
AcDbEntity
  8
PART
 62
     7
100
AcDbLine
 10
15.32859788481972
 20
6.64400542997231
 30
0.0
 11
15.32859788481972
 21
7.790005429972307
 31
0.0
  0
LINE
  5
45BC
330
1968
100
AcDbEntity
  8
PART
 62
     7
100
AcDbLine
 10
11.53909788481971
 20
7.363005429972304
 30
0.0
 11
11.53909788481971
 21
6.773005429972307
 31
0.0
  0
LWPOLYLINE
  5
45BD
330
1968
100
AcDbEntity
  8
PART
 62
     7
100
AcDbPolyline
 90
        4
 70
     1
 43
0.0
 10
12.53209788481972
 20
7.536505429972308
 10
12.44009788481971
 20
7.536505429972308
 10
12.44009788481971
 20
7.184505429972308
 10
12.53209788481972
 20
7.184505429972308
  0
LWPOLYLINE
  5
45BE
330
1968
100
AcDbEntity
  8
PART
 62
     7
100
AcDbPolyline
 90
        4
 70
     1
 43
0.0
 10
13.03209788481971
 20
7.21850542997231
 10
13.03209788481971
 20
7.502505429972309
 10
12.94009788481972
 20
7.502505429972309
 10
12.94009788481972
 20
7.21850542997231
  0
LWPOLYLINE
  5
45BF
330
1968
100
AcDbEntity
  8
PART
 62
     7
100
AcDbPolyline
 90
        5
 70
     0
 43
0.0
 10
12.83172868529747
 20
7.16050542997231
 10
13.16109788481971
 20
7.16050542997231
 10
13.16109788481971
 20
7.560505429972309
 10
12.81109788481971
 20
7.560505429972309
 10
12.81109788481971
 20
7.203805108944223
  0
LWPOLYLINE
  5
45C0
330
1968
100
AcDbEntity
  8
PART
 62
     7
100
AcDbPolyline
 90
        5
 70
     0
 43
0.0
 10
12.66109788481971
 20
7.203805108944216
 10
12.66109788481972
 20
7.560505429972309
 10
12.31109788481971
 20
7.560505429972309
 10
12.31109788481971
 20
7.16050542997231
 10
12.64046708434196
 20
7.16050542997231
  0
LWPOLYLINE
  5
45C1
330
1968
100
AcDbEntity
  8
PART
 62
     7
100
AcDbPolyline
 90
        8
 70
     1
 43
0.0
 10
13.17409788481971
 20
6.61050542997231
 42
0.4142135623730951
 10
13.26709788481972
 20
6.70350542997231
 10
13.26709788481972
 20
7.579505429972311
 42
0.4142135623730951
 10
13.17409788481971
 20
7.672505429972311
 10
12.29809788481971
 20
7.672505429972311
 42
0.4142135623730951
 10
12.20509788481972
 20
7.579505429972311
 10
12.20509788481972
 20
6.70350542997231
 42
0.4142135623730951
 10
12.29809788481971
 20
6.61050542997231
  0
ARC
  5
45C2
330
1968
100
AcDbEntity
  8
PART
 62
     7
100
AcDbCircle
 10
14.78359788481972
 20
7.141505429972308
 30
0.0
 40
0.275
100
AcDbArc
 50
312.417151628478
 51
237.3806978891782
  0
LINE
  5
45C3
330
1968
100
AcDbEntity
  8
PART
 62
     7
100
AcDbLine
 10
15.32859788481972
 20
3.788705753379353
 30
0.0
 11
15.32859788481972
 21
4.934705753379351
 31
0.0
  0
TEXT
  5
45C4
330
1968
100
AcDbEntity
  8
SILK
 62
     7
100
AcDbText
 10
11.81218503710073
 20
3.861205753379355
 30
0.0
 40
0.062
  1
AC1
  7
ARIAL
 72
     1
 11
11.89636716534084
 21
3.861205753379355
 31
0.0
100
AcDbText
  0
TEXT
  5
45C5
330
1968
100
AcDbEntity
  8
TXT
 62
     7
100
AcDbText
 10
11.70945502767686
 20
3.204238423061431
 30
0.0
 40
0.187
  1
FRONT VIEW
  7
ROMANT
 72
     4
 11
12.63109788481972
 21
3.297738423061431
 31
0.0
100
AcDbText
  0
ARC
  5
45C6
330
1968
100
AcDbEntity
  8
PART
 62
     7
100
AcDbCircle
 10
15.22859788481972
 20
3.788705753379353
 30
0.0
 40
0.1
100
AcDbArc
 50
270.0
 51
0.0
  0
CIRCLE
  5
45C7
330
1968
100
AcDbEntity
  8
PART
 62
     7
100
AcDbCircle
 10
11.88859788481972
 20
4.228705753379351
 30
0.0
 40
0.0875
  0
LINE
  5
45C8
330
1968
100
AcDbEntity
  8
PART
 62
     7
100
AcDbLine
 10
12.00670788481972
 20
4.386185753379354
 30
0.0
 11
12.00670788481972
 21
4.071225753379351
 31
0.0
  0
LINE
  5
45C9
330
1968
100
AcDbEntity
  8
PART
 62
     7
100
AcDbLine
 10
11.77048788481972
 20
4.386185753379354
 30
0.0
 11
11.77048788481972
 21
4.071225753379348
 31
0.0
  0
LWPOLYLINE
  5
45CA
330
1968
100
AcDbEntity
  8
PART
 62
     7
100
AcDbPolyline
 90
        4
 70
     1
 43
0.0
 10
11.74359788481972
 20
4.048705753379351
 10
11.74359788481972
 20
4.408705753379351
 10
12.03359788481972
 20
4.408705753379351
 10
12.03359788481972
 20
4.048705753379351
  0
LINE
  5
45CB
330
1968
100
AcDbEntity
  8
PART
 62
     7
100
AcDbLine
 10
11.77048788481972
 20
4.071225753379348
 30
0.0
 11
12.00670788481972
 21
4.071225753379351
 31
0.0
  0
CIRCLE
  5
45CC
330
1968
100
AcDbEntity
  8
PART
 62
     7
100
AcDbCircle
 10
11.88859788481972
 20
4.228705753379351
 30
0.0
 40
0.059
  0
LINE
  5
45CD
330
1968
100
AcDbEntity
  8
PART
 62
     7
100
AcDbLine
 10
11.77048788481972
 20
4.386185753379354
 30
0.0
 11
12.00670788481972
 21
4.386185753379354
 31
0.0
  0
TEXT
  5
45CE
330
1968
100
AcDbEntity
  8
TXT
 62
     7
100
AcDbText
 10
11.81185978958162
 20
6.059538099654388
 30
0.0
 40
0.187
  1
REAR VIEW
  7
ROMANT
 72
     4
 11
12.63109788481972
 21
6.153038099654388
 31
0.0
100
AcDbText
  0
CIRCLE
  5
45CF
330
1968
100
AcDbEntity
  8
PART
 62
     7
100
AcDbCircle
 10
12.73609788481972
 20
7.141505429972308
 30
0.0
 40
0.0677946442394304
  0
LWPOLYLINE
  5
45D0
330
1968
100
AcDbEntity
  8
PART
 62
     7
100
AcDbPolyline
 90
        4
 70
     1
 43
0.0
 10
12.62809788481971
 20
6.78550542997231
 10
12.62809788481971
 20
6.89250542997231
 42
-0.9999999999999959
 10
12.84409788481972
 20
6.89250542997231
 10
12.84409788481972
 20
6.78550542997231
  0
CIRCLE
  5
45D1
330
1968
100
AcDbEntity
  8
PART
 62
     7
100
AcDbCircle
 10
12.73609788481972
 20
7.141505429972308
 30
0.0
 40
0.0975
  0
LINE
  5
45D2
330
1968
100
AcDbEntity
  8
PART
 62
     7
100
AcDbLine
 10
11.55859788481971
 20
7.194005429972307
 30
0.0
 11
11.55859788481971
 21
6.774005429972309
 31
0.0
  0
LINE
  5
45D3
330
1968
100
AcDbEntity
  8
PART
 62
     7
100
AcDbLine
 10
11.49609788481971
 20
6.863005429972307
 30
0.0
 11
11.49609788481971
 21
7.113005429972307
 31
0.0
  0
LINE
  5
45D4
330
1968
100
AcDbEntity
  8
PART
 62
     7
100
AcDbLine
 10
11.55859788481971
 20
7.194005429972307
 30
0.0
 11
11.53909788481971
 21
7.194005429972307
 31
0.0
  0
LINE
  5
45D5
330
1968
100
AcDbEntity
  8
PART
 62
     7
100
AcDbLine
 10
12.31109788481971
 20
7.16050542997231
 30
0.0
 11
12.44009788481972
 21
7.184505429972308
 31
0.0
  0
LINE
  5
45D6
330
1968
100
AcDbEntity
  8
PART
 62
     7
100
AcDbLine
 10
12.53209788481972
 20
7.184505429972308
 30
0.0
 11
12.64127436319948
 21
7.164193527017935
 31
0.0
  0
LINE
  5
45D7
330
1968
100
AcDbEntity
  8
PART
 62
     7
100
AcDbLine
 10
13.16109788481971
 20
7.16050542997231
 30
0.0
 11
13.03209788481971
 21
7.21850542997231
 31
0.0
  0
LINE
  5
45D8
330
1968
100
AcDbEntity
  8
PART
 62
     7
100
AcDbLine
 10
12.94009788481972
 20
7.21850542997231
 30
0.0
 11
12.8296816782823
 21
7.168860934009753
 31
0.0
  0
HATCH
  5
45D9
330
1968
100
AcDbEntity
  8
SILK
 62
     7
100
AcDbHatch
 10
0.0
 20
0.0
 30
0.0
210
0.0
220
0.0
230
1.0
  2
SOLID
 70
     1
 71
     0
 91
        1
 92
        1
 93
        1
 72
     4
 94
        3
 73
     0
 74
     0
 95
       35
 96
       31
 40
0.0
 40
0.0
 40
0.0
 40
0.0
 40
1.0
 40
1.0
 40
1.0
 40
2.0
 40
2.0
 40
2.0
 40
3.0
 40
3.0
 40
3.0
 40
4.0
 40
4.0
 40
4.0
 40
5.0
 40
5.0
 40
5.0
 40
6.0
 40
6.0
 40
6.0
 40
7.0
 40
7.0
 40
7.0
 40
8.0
 40
8.0
 40
8.0
 40
9.0
 40
9.0
 40
9.0
 40
10.0
 40
10.0
 40
10.0
 40
10.0
 10
15.06086095389479
 20
4.761440675608753
 10
15.08048197148269
 20
4.739167173480243
 10
15.14094240938084
 20
4.670528241581878
 10
15.14094240938084
 20
4.670528241581878
 10
15.14094240938084
 20
4.670528241581878
 10
15.05084929835651
 20
4.670528241581878
 10
15.05084929835651
 20
4.670528241581878
 10
15.05084929835651
 20
4.670528241581878
 10
15.00551096954487
 20
4.723240477416405
 10
15.00326077849292
 20
4.725839912266202
 10
15.00071291973141
 20
4.723682558173173
 10
14.938210068737
 20
4.670528241581878
 10
14.938210068737
 20
4.670528241581878
 10
14.938210068737
 20
4.670528241581878
 10
14.78907412544121
 20
4.670528241581878
 10
14.78907412544121
 20
4.670528241581878
 10
14.78907412544121
 20
4.670528241581878
 10
14.79808520486668
 20
4.72472144795158
 10
14.80297461803653
 20
4.754133080699372
 10
14.82538958600721
 20
4.755653838502656
 10
14.84866366424854
 20
4.75696829195278
 10
14.8728484288488
 20
4.758033706576592
 10
14.8728484288488
 20
4.758033706576592
 10
14.85998977323694
 20
4.680671047744667
 10
14.85998977323694
 20
4.680671047744667
 10
14.88321080178745
 20
4.700212490796346
 10
14.93382904843742
 20
4.742795182890789
 10
14.95510050085059
 20
4.760699453539904
 10
14.98879000172137
 20
4.761389099520464
 10
15.02401204921562
 20
4.761661715987138
 10
15.06086095389479
 20
4.761440675608753
 97
        0
 75
     0
 76
     1
 98
        1
 10
14.75017175564686
 20
4.765449979672009
  0
HATCH
  5
45DA
330
1968
100
AcDbEntity
  8
SILK
 62
     7
100
AcDbHatch
 10
0.0
 20
0.0
 30
0.0
210
0.0
220
0.0
230
1.0
  2
SOLID
 70
     1
 71
     0
 91
        1
 92
        1
 93
        1
 72
     4
 94
        3
 73
     0
 74
     0
 95
       26
 96
       22
 40
0.0
 40
0.0
 40
0.0
 40
0.0
 40
1.0
 40
1.0
 40
1.0
 40
2.0
 40
2.0
 40
2.0
 40
3.0
 40
3.0
 40
3.0
 40
4.0
 40
4.0
 40
4.0
 40
5.0
 40
5.0
 40
5.0
 40
6.0
 40
6.0
 40
6.0
 40
7.0
 40
7.0
 40
7.0
 40
7.0
 10
14.68755691086073
 20
4.743719131672435
 10
14.68253708386763
 20
4.713501438344799
 10
14.6753960060433
 20
4.670528241581878
 10
14.6753960060433
 20
4.670528241581878
 10
14.6753960060433
 20
4.670528241581878
 10
14.53569038209065
 20
4.670528241581878
 10
14.53569038209065
 20
4.670528241581878
 10
14.53569038209065
 20
4.670528241581878
 10
14.52274920473752
 20
4.707104529794364
 10
14.51934960371797
 20
4.716725680664165
 10
14.5404751694814
 20
4.721276165253833
 10
14.56315096509857
 20
4.725626239900432
 10
14.58746172271452
 20
4.729702224477836
 10
14.58746172271452
 20
4.729702224477836
 10
14.60745261453558
 20
4.678245497992531
 10
14.60745261453558
 20
4.678245497992531
 10
14.60745261453558
 20
4.678245497992531
 10
14.61678199210592
 20
4.734370597269307
 10
14.61678199210592
 20
4.734370597269307
 10
14.6390805454773
 20
4.737737779033359
 10
14.66264418661432
 20
4.740864763586234
 10
14.68755691086073
 20
4.743719131672435
 97
        0
 75
     0
 76
     1
 98
        1
 10
14.75017175564686
 20
4.765449979672009
  0
HATCH
  5
45DB
330
1968
100
AcDbEntity
  8
SILK
 62
     7
100
AcDbHatch
 10
0.0
 20
0.0
 30
0.0
210
0.0
220
0.0
230
1.0
  2
SOLID
 70
     1
 71
     0
 91
        2
 92
       16
 93
        1
 72
     4
 94
        3
 73
     0
 74
     0
 95
       17
 96
       13
 40
0.0
 40
0.0
 40
0.0
 40
0.0
 40
1.0
 40
1.0
 40
1.0
 40
2.0
 40
2.0
 40
2.0
 40
3.0
 40
3.0
 40
3.0
 40
4.0
 40
4.0
 40
4.0
 40
4.0
 10
14.57926407188151
 20
4.750798318190817
 10
14.57926407188151
 20
4.750798318190817
 10
14.53675358631068
 20
4.860222147106101
 10
14.53675358631068
 20
4.860222147106101
 10
14.53675358631068
 20
4.860222147106101
 10
14.46388173116626
 20
4.860222147106101
 10
14.46388173116626
 20
4.860222147106101
 10
14.46388173116626
 20
4.860222147106101
 10
14.33692129543123
 20
4.670619604938277
 10
14.33692129543123
 20
4.670619604938277
 10
14.38787036584751
 20
4.697704419302947
 10
14.46481157435799
 20
4.727518345539401
 10
14.57926407188151
 20
4.750798318190817
 97
        0
 92
        1
 93
        1
 72
     4
 94
        3
 73
     0
 74
     0
 95
       14
 96
       10
 40
0.0
 40
0.0
 40
0.0
 40
0.0
 40
1.0
 40
1.0
 40
1.0
 40
2.0
 40
2.0
 40
2.0
 40
3.0
 40
3.0
 40
3.0
 40
3.0
 10
14.49132610454643
 20
4.795984129141364
 10
14.49350777308108
 20
4.789808260969312
 10
14.50575562044734
 20
4.755030504635612
 10
14.50786213525334
 20
4.749075676841943
 10
14.50271631524456
 20
4.749075676841943
 10
14.4682671722734
 20
4.749075676841943
 10
14.46142744616493
 20
4.749075676841943
 10
14.46215908981738
 20
4.750232454822153
 10
14.48771798876993
 20
4.790328442659776
 10
14.49132610454643
 20
4.795984129141364
 97
        0
 75
     0
 76
     1
 98
        1
 10
14.75017175564686
 20
4.765449979672009
  0
TEXT
  5
45DC
330
1968
100
AcDbEntity
  8
SILK
 62
     7
100
AcDbText
 10
14.6769027925736
 20
3.969412822674195
 30
0.0
 40
0.06
  1
ON
  7
ARIAL
 72
     4
 11
14.74156854973595
 21
3.999433286521398
 31
0.0
100
AcDbText
  0
TEXT
  5
45DD
330
1968
100
AcDbEntity
  8
SILK
 62
     7
100
AcDbText
 10
14.42547275975972
 20
4.284901710909114
 30
0.0
 40
0.062
  1
3
  7
ARIAL
 72
     1
 11
14.44955802578973
 21
4.284901710909114
 31
0.0
100
AcDbText
  0
TEXT
  5
45DE
330
1968
100
AcDbEntity
  8
SILK
 62
     7
100
AcDbText
 10
14.58298020449266
 20
4.284901710909114
 30
0.0
 40
0.062
  1
4
  7
ARIAL
 72
     1
 11
14.60706547052267
 21
4.284901710909114
 31
0.0
100
AcDbText
  0
TEXT
  5
45DF
330
1968
100
AcDbEntity
  8
SILK
 62
     7
100
AcDbText
 10
14.1247289392548
 20
4.284901710909114
 30
0.0
 40
0.062
  1
1
  7
ARIAL
 72
     1
 11
14.14811638809518
 21
4.284901710909114
 31
0.0
100
AcDbText
  0
TEXT
  5
45E0
330
1968
100
AcDbEntity
  8
SILK
 62
     7
100
AcDbText
 10
14.28082306561722
 20
4.284901710909114
 30
0.0
 40
0.062
  1
2
  7
ARIAL
 72
     1
 11
14.30490833164723
 21
4.284901710909114
 31
0.0
100
AcDbText
  0
LINE
  5
45E1
330
1968
100
AcDbEntity
  8
PART
 62
     7
100
AcDbLine
 10
14.39459788481971
 20
4.201705753379346
 30
0.0
 11
14.45659788481972
 21
4.201705753379346
 31
0.0
  0
LINE
  5
45E2
330
1968
100
AcDbEntity
  8
PART
 62
     7
100
AcDbLine
 10
14.45659788481972
 20
4.077705753379344
 30
0.0
 11
14.39459788481971
 21
4.077705753379344
 31
0.0
  0
LINE
  5
45E3
330
1968
100
AcDbEntity
  8
PART
 62
     7
100
AcDbLine
 10
14.15220083956852
 20
4.211705753379348
 30
0.0
 11
14.5989949300709
 21
4.211705753379344
 31
0.0
  0
LINE
  5
45E4
330
1968
100
AcDbEntity
  8
PART
 62
     7
100
AcDbLine
 10
14.39459788481971
 20
4.127705753379345
 30
0.0
 11
14.45659788481972
 21
4.127705753379345
 31
0.0
  0
LINE
  5
45E5
330
1968
100
AcDbEntity
  8
PART
 62
     7
100
AcDbLine
 10
14.13359788481971
 20
3.978705753379351
 30
0.0
 11
14.61859788481972
 21
3.978705753379351
 31
0.0
  0
LINE
  5
45E6
330
1968
100
AcDbEntity
  8
PART
 62
     7
100
AcDbLine
 10
14.13359788481971
 20
4.228705753379351
 30
0.0
 11
14.61859788481971
 21
4.228705753379351
 31
0.0
  0
LINE
  5
45E7
330
1968
100
AcDbEntity
  8
PART
 62
     7
100
AcDbLine
 10
14.15220083956852
 20
3.978705753379351
 30
0.0
 11
14.15220083956852
 21
4.211705753379348
 31
0.0
  0
LINE
  5
45E8
330
1968
100
AcDbEntity
  8
PART
 62
     7
100
AcDbLine
 10
14.39459788481971
 20
4.077705753379344
 30
0.0
 11
14.39459788481971
 21
4.201705753379346
 31
0.0
  0
LINE
  5
45E9
330
1968
100
AcDbEntity
  8
PART
 62
     7
100
AcDbLine
 10
14.35659788481971
 20
4.201705753379346
 30
0.0
 11
14.35659788481971
 21
4.077705753379344
 31
0.0
  0
LINE
  5
45EA
330
1968
100
AcDbEntity
  8
PART
 62
     7
100
AcDbLine
 10
14.29459788481971
 20
4.077705753379344
 30
0.0
 11
14.29459788481971
 21
4.201705753379346
 31
0.0
  0
LINE
  5
45EB
330
1968
100
AcDbEntity
  8
PART
 62
     7
100
AcDbLine
 10
14.19459788481972
 20
4.077705753379344
 30
0.0
 11
14.19459788481972
 21
4.201705753379346
 31
0.0
  0
LINE
  5
45EC
330
1968
100
AcDbEntity
  8
PART
 62
     7
100
AcDbLine
 10
14.25659788481971
 20
4.201705753379346
 30
0.0
 11
14.25659788481971
 21
4.077705753379344
 31
0.0
  0
LINE
  5
45ED
330
1968
100
AcDbEntity
  8
PART
 62
     7
100
AcDbLine
 10
14.13359788481971
 20
4.228705753379351
 30
0.0
 11
14.13359788481971
 21
3.978705753379351
 31
0.0
  0
LINE
  5
45EE
330
1968
100
AcDbEntity
  8
PART
 62
     7
100
AcDbLine
 10
14.25659788481971
 20
4.077705753379344
 30
0.0
 11
14.19459788481972
 21
4.077705753379344
 31
0.0
  0
LINE
  5
45EF
330
1968
100
AcDbEntity
  8
PART
 62
     7
100
AcDbLine
 10
14.35659788481971
 20
4.077705753379344
 30
0.0
 11
14.29459788481971
 21
4.077705753379344
 31
0.0
  0
LINE
  5
45F0
330
1968
100
AcDbEntity
  8
PART
 62
     7
100
AcDbLine
 10
14.19459788481972
 20
4.201705753379346
 30
0.0
 11
14.25659788481971
 21
4.201705753379346
 31
0.0
  0
LINE
  5
45F1
330
1968
100
AcDbEntity
  8
PART
 62
     7
100
AcDbLine
 10
14.19459788481972
 20
4.127705753379345
 30
0.0
 11
14.25659788481971
 21
4.127705753379345
 31
0.0
  0
LINE
  5
45F2
330
1968
100
AcDbEntity
  8
PART
 62
     7
100
AcDbLine
 10
14.29459788481971
 20
4.201705753379346
 30
0.0
 11
14.35659788481971
 21
4.201705753379346
 31
0.0
  0
LINE
  5
45F3
330
1968
100
AcDbEntity
  8
PART
 62
     7
100
AcDbLine
 10
14.29459788481971
 20
4.127705753379345
 30
0.0
 11
14.35659788481971
 21
4.127705753379345
 31
0.0
  0
LINE
  5
45F4
330
1968
100
AcDbEntity
  8
PART
 62
     7
100
AcDbLine
 10
14.5989949300709
 20
4.211705753379344
 30
0.0
 11
14.5989949300709
 21
3.978705753379351
 31
0.0
  0
LINE
  5
45F5
330
1968
100
AcDbEntity
  8
PART
 62
     7
100
AcDbLine
 10
14.55659788481971
 20
4.201705753379346
 30
0.0
 11
14.55659788481971
 21
4.077705753379344
 31
0.0
  0
LINE
  5
45F6
330
1968
100
AcDbEntity
  8
PART
 62
     7
100
AcDbLine
 10
14.49459788481972
 20
4.077705753379344
 30
0.0
 11
14.49459788481972
 21
4.201705753379346
 31
0.0
  0
LINE
  5
45F7
330
1968
100
AcDbEntity
  8
PART
 62
     7
100
AcDbLine
 10
14.45659788481972
 20
4.201705753379346
 30
0.0
 11
14.45659788481972
 21
4.077705753379344
 31
0.0
  0
LINE
  5
45F8
330
1968
100
AcDbEntity
  8
PART
 62
     7
100
AcDbLine
 10
14.61859788481972
 20
4.228705753379351
 30
0.0
 11
14.61859788481972
 21
3.978705753379351
 31
0.0
  0
SOLID
  5
45F9
330
1968
100
AcDbEntity
  8
SILK
 62
     7
100
AcDbTrace
 10
14.76156854973593
 20
4.142253551998955
 30
0.0
 11
14.72156854973592
 21
4.142253551998955
 31
0.0
 12
14.74156854973595
 22
4.062707658981896
 32
0.0
 13
14.74156854973595
 23
4.062707658981896
 33
0.0
  0
LINE
  5
45FA
330
1968
100
AcDbEntity
  8
PART
 62
     7
100
AcDbLine
 10
14.55659788481971
 20
4.077705753379344
 30
0.0
 11
14.49459788481972
 21
4.077705753379344
 31
0.0
  0
LINE
  5
45FB
330
1968
100
AcDbEntity
  8
PART
 62
     7
100
AcDbLine
 10
14.49459788481972
 20
4.201705753379346
 30
0.0
 11
14.55659788481971
 21
4.201705753379346
 31
0.0
  0
LINE
  5
45FC
330
1968
100
AcDbEntity
  8
PART
 62
     7
100
AcDbLine
 10
14.49459788481972
 20
4.127705753379345
 30
0.0
 11
14.55659788481971
 21
4.127705753379345
 31
0.0
  0
LWPOLYLINE
  5
45FD
330
1968
100
AcDbEntity
  8
SILK
 62
     7
100
AcDbPolyline
 90
        2
 70
     0
 43
0.004
 10
14.74156854973595
 20
4.142253551998955
 10
14.74156854973595
 20
4.214151238969325
  0
LWPOLYLINE
  5
45FE
330
1968
100
AcDbEntity
  8
PART
 62
     7
100
AcDbPolyline
 90
       16
 70
     1
 43
0.0
 10
15.13461937936315
 20
4.04106292650928
 10
15.16895505794964
 20
4.041062926509283
 42
-0.4142135623730951
 10
15.18395505794964
 20
4.026062926509283
 10
15.18395505794964
 20
3.991727247922788
 10
15.23324071168979
 20
3.991727247922788
 10
15.23324071168979
 20
4.026062926509279
 42
-0.4142135623730951
 10
15.24824071168979
 20
4.04106292650928
 10
15.28257639027628
 20
4.04106292650928
 10
15.28257639027628
 20
4.090348580249436
 10
15.24824071168979
 20
4.090348580249436
 42
-0.4142135623730951
 10
15.23324071168979
 20
4.105348580249437
 10
15.23324071168979
 20
4.139684258835924
 10
15.18395505794964
 20
4.139684258835924
 10
15.18395505794964
 20
4.105348580249437
 42
-0.4142135623731054
 10
15.16895505794964
 20
4.090348580249436
 10
15.13461937936315
 20
4.09034858024944
  0
CIRCLE
  5
45FF
330
1968
100
AcDbEntity
  8
PART
 62
     7
100
AcDbCircle
 10
15.20859788481971
 20
4.065705753379358
 30
0.0
 40
0.1080000000000023
  0
HATCH
  5
4600
330
1968
100
AcDbEntity
  8
SILK
 62
     7
100
AcDbHatch
 10
0.0
 20
0.0
 30
0.0
210
0.0
220
0.0
230
1.0
  2
SOLID
 70
     1
 71
     0
 91
        1
 92
        1
 93
        1
 72
     4
 94
        3
 73
     0
 74
     0
 95
       44
 96
       40
 40
0.0
 40
0.0
 40
0.0
 40
0.0
 40
1.0
 40
1.0
 40
1.0
 40
2.0
 40
2.0
 40
2.0
 40
3.0
 40
3.0
 40
3.0
 40
4.0
 40
4.0
 40
4.0
 40
5.0
 40
5.0
 40
5.0
 40
6.0
 40
6.0
 40
6.0
 40
7.0
 40
7.0
 40
7.0
 40
8.0
 40
8.0
 40
8.0
 40
9.0
 40
9.0
 40
9.0
 40
10.0
 40
10.0
 40
10.0
 40
11.0
 40
11.0
 40
11.0
 40
12.0
 40
12.0
 40
12.0
 40
13.0
 40
13.0
 40
13.0
 40
13.0
 10
14.62081966301773
 20
4.758651146033544
 10
14.62081966301773
 20
4.758651146033544
 10
14.63773883038052
 20
4.860371717762141
 10
14.63773883038052
 20
4.860371717762141
 10
14.63773883038052
 20
4.860371717762141
 10
14.69547826122076
 20
4.860371717762141
 10
14.69547826122076
 20
4.860371717762141
 10
14.69547826122076
 20
4.860371717762141
 10
14.75078330069373
 20
4.799895070236241
 10
14.75296791643342
 20
4.797493098124466
 10
14.75543472705619
 20
4.799465515100916
 10
14.83138420106898
 20
4.860371717762141
 10
14.83138420106898
 20
4.860371717762141
 10
14.83138420106898
 20
4.860371717762141
 10
14.97520191286084
 20
4.860222147106101
 10
14.97520191286084
 20
4.860222147106101
 10
14.97520191286084
 20
4.860222147106101
 10
15.01443068561393
 20
4.81385966454129
 10
15.01667940306336
 20
4.811206443199418
 10
15.01922726182487
 20
4.813408005368124
 10
15.07352509397367
 20
4.860222147106101
 10
15.07352509397367
 20
4.860222147106101
 10
15.07352509397367
 20
4.860222147106101
 10
15.1634222158625
 20
4.860222147106101
 10
15.1634222158625
 20
4.860222147106101
 10
15.1634222158625
 20
4.860222147106101
 10
15.11491122081979
 20
4.819102742316562
 10
15.08271742650941
 20
4.791804255586121
 10
15.03462198737806
 20
4.792018664753154
 10
14.98921882005544
 20
4.791352596412956
 10
14.94635024907162
 20
4.789915097152197
 10
14.92738056379869
 20
4.811719993678531
 10
14.8992686484758
 20
4.844030939389464
 10
14.88907426622472
 20
4.855736501027426
 10
14.88907426622472
 20
4.855736501027426
 10
14.87763321623956
 20
4.786850740706531
 10
14.87763321623956
 20
4.786850740706531
 10
14.77738551023226
 20
4.781233367890528
 10
14.69252958257311
 20
4.771228343563603
 10
14.62081966301773
 20
4.758651146033544
 97
        0
 75
     0
 76
     1
 98
        1
 10
14.75017175564686
 20
4.765449979672009
  0
ARC
  5
4601
330
1968
100
AcDbEntity
  8
PART
 62
     7
100
AcDbCircle
 10
15.22859788481972
 20
4.934705753379351
 30
0.0
 40
0.1
100
AcDbArc
 50
0.0
 51
90.0
  0
LWPOLYLINE
  5
4602
330
1968
100
AcDbEntity
  8
PART
 62
     7
100
AcDbPolyline
 90
       41
 70
     0
 43
0.0
 10
14.94858896557919
 20
7.118797847074624
 10
14.94889798782995
 20
7.084480875861554
 10
14.94972811300842
 20
7.056920148288135
 10
14.95101722059387
 20
7.033816401590325
 10
14.95267121970617
 20
7.014664888798442
 10
14.95459994204615
 20
6.998818550394666
 10
14.95675395690137
 20
6.985442338221591
 10
14.95917068083741
 20
6.973512567546134
 10
14.96197597555011
 20
6.961999622119932
 10
14.9652234858625
 20
6.950487929535317
 10
14.96885454144725
 20
6.939147398014085
 10
14.97286507408625
 20
6.927963944133939
 10
14.97728469912152
 20
6.916835540876103
 10
14.98214856868062
 20
6.905667682984347
 10
14.98749523033867
 20
6.894374914496388
 10
14.99336437743401
 20
6.882881673491151
 10
14.99979545425043
 20
6.871121083576756
 10
15.0068182294119
 20
6.859047447309656
 10
15.01442575835258
 20
6.846675564866174
 10
15.02259060168849
 20
6.83404716237273
 10
15.03128049100687
 20
6.821203737334148
 10
15.04046062102964
 20
6.808183835194174
 10
15.05009427638576
 20
6.795023080015358
 10
15.0601433557504
 20
6.781754261312901
 10
15.07053420116832
 20
6.768451755732417
 10
15.08109154312532
 20
6.755323189247743
 10
15.09178201269492
 20
6.742437126329811
 10
15.10276709498233
 20
6.729631588753655
 10
15.11425342645124
 20
6.716698838176977
 10
15.12645013533425
 20
6.703439181736172
 10
15.13956306634322
 20
6.689666730845381
 10
15.15379005111156
 20
6.675212345241583
 10
15.1693010905584
 20
6.659940434847609
 10
15.1861457795326
 20
6.643839623026689
 10
15.20421564821378
 20
6.627070597575041
 10
15.22342370641609
 20
6.609775131394574
 10
15.24370031454109
 20
6.592076184271043
 10
15.26497650287726
 20
6.574093958238744
 10
15.28718327313941
 20
6.555946529239168
 10
15.31025105712621
 20
6.537750220362973
 10
15.47326773993615
 20
6.413869955157863
  0
POLYLINE
  5
4603
330
1968
100
AcDbEntity
  8
PART
 62
     7
100
AcDb2dPolyline
 66
     1
 10
0.0
 20
0.0
 30
0.0
 70
     4
 75
     6
  0
VERTEX
  5
4604
330
4603
100
AcDbEntity
  8
PART
 62
     7
100
AcDbVertex
100
AcDb2dVertex
 10
15.54524637619254
 20
6.510320349312706
 30
0.0
 70
    16
  0
VERTEX
  5
4605
330
4603
100
AcDbEntity
  8
PART
 62
     7
100
AcDbVertex
100
AcDb2dVertex
 10
15.54524637619254
 20
6.510320349312706
 30
0.0
 70
     8
  0
VERTEX
  5
4606
330
4603
100
AcDbEntity
  8
PART
 62
     7
100
AcDbVertex
100
AcDb2dVertex
 10
15.48292392487047
 20
6.42102020573143
 30
0.0
 70
     8
  0
VERTEX
  5
4607
330
4603
100
AcDbEntity
  8
PART
 62
     7
100
AcDbVertex
100
AcDb2dVertex
 10
15.42903960352361
 20
6.381119727205255
 30
0.0
 70
     8
  0
VERTEX
  5
4608
330
4603
100
AcDbEntity
  8
PART
 62
     7
100
AcDbVertex
100
AcDb2dVertex
 10
15.38140358603382
 20
6.372243757424509
 30
0.0
 70
     8
  0
VERTEX
  5
4609
330
4603
100
AcDbEntity
  8
PART
 62
     7
100
AcDbVertex
100
AcDb2dVertex
 10
15.33782604628297
 20
6.376017140079518
 30
0.0
 70
     8
  0
VERTEX
  5
460A
330
4603
100
AcDbEntity
  8
PART
 62
     7
100
AcDbVertex
100
AcDb2dVertex
 10
15.29611715815294
 20
6.374064718860605
 30
0.0
 70
     8
  0
VERTEX
  5
460B
330
4603
100
AcDbEntity
  8
PART
 62
     7
100
AcDbVertex
100
AcDb2dVertex
 10
15.25408709552556
 20
6.348011337458096
 30
0.0
 70
     8
  0
VERTEX
  5
460C
330
4603
100
AcDbEntity
  8
PART
 62
     7
100
AcDbVertex
100
AcDb2dVertex
 10
15.20954603228273
 20
6.279481839562318
 30
0.0
 70
     8
  0
VERTEX
  5
460D
330
4603
100
AcDbEntity
  8
PART
 62
     7
100
AcDbVertex
100
AcDb2dVertex
 10
15.16030414230632
 20
6.150101068863595
 30
0.0
 70
     8
  0
VERTEX
  5
460E
330
4603
100
AcDbEntity
  8
PART
 62
     7
100
AcDbVertex
100
AcDb2dVertex
 10
15.36585582059507
 20
6.189986940747235
 30
0.0
 70
    16
  0
VERTEX
  5
460F
330
4603
100
AcDbEntity
  8
PART
 62
     7
100
AcDbVertex
100
AcDb2dVertex
 10
15.29983012999323
 20
6.592584960072713
 30
0.0
 70
    16
  0
VERTEX
  5
4610
330
4603
100
AcDbEntity
  8
PART
 62
     7
100
AcDbVertex
100
AcDb2dVertex
 10
15.16030414230632
 20
6.150101068863595
 30
0.0
 70
    16
  0
SEQEND
  5
4611
330
4603
100
AcDbEntity
  8
PART
 62
     7
  0
POLYLINE
  5
4612
330
1968
100
AcDbEntity
  8
PART
 62
     7
100
AcDb2dPolyline
 66
     1
 10
0.0
 20
0.0
 30
0.0
 70
     4
 75
     6
  0
VERTEX
  5
4613
330
4612
100
AcDbEntity
  8
PART
 62
     7
100
AcDbVertex
100
AcDb2dVertex
 10
14.72859788481971
 20
7.116816840694372
 30
0.0
 70
    16
  0
VERTEX
  5
4614
330
4612
100
AcDbEntity
  8
PART
 62
     7
100
AcDbVertex
100
AcDb2dVertex
 10
14.72859788481971
 20
7.116816840694372
 30
0.0
 70
     8
  0
VERTEX
  5
4615
330
4612
100
AcDbEntity
  8
PART
 62
     7
100
AcDbVertex
100
AcDb2dVertex
 10
14.72892781346404
 20
7.080178211074521
 30
0.0
 70
     8
  0
VERTEX
  5
4616
330
4612
100
AcDbEntity
  8
PART
 62
     7
100
AcDbVertex
100
AcDb2dVertex
 10
14.72991271399165
 20
7.047478835327172
 30
0.0
 70
     8
  0
VERTEX
  5
4617
330
4612
100
AcDbEntity
  8
PART
 62
     7
100
AcDbVertex
100
AcDb2dVertex
 10
14.73154525829443
 20
7.018219919725428
 30
0.0
 70
     8
  0
VERTEX
  5
4618
330
4612
100
AcDbEntity
  8
PART
 62
     7
100
AcDbVertex
100
AcDb2dVertex
 10
14.73381811826429
 20
6.991902670542376
 30
0.0
 70
     8
  0
VERTEX
  5
4619
330
4612
100
AcDbEntity
  8
PART
 62
     7
100
AcDbVertex
100
AcDb2dVertex
 10
14.73672396579311
 20
6.968028294051109
 30
0.0
 70
     8
  0
VERTEX
  5
461A
330
4612
100
AcDbEntity
  8
PART
 62
     7
100
AcDbVertex
100
AcDb2dVertex
 10
14.74025547277283
 20
6.946097996524716
 30
0.0
 70
     8
  0
VERTEX
  5
461B
330
4612
100
AcDbEntity
  8
PART
 62
     7
100
AcDbVertex
100
AcDb2dVertex
 10
14.74440531109532
 20
6.925612984236291
 30
0.0
 70
     8
  0
VERTEX
  5
461C
330
4612
100
AcDbEntity
  8
PART
 62
     7
100
AcDbVertex
100
AcDb2dVertex
 10
14.74916615265251
 20
6.906074463458924
 30
0.0
 70
     8
  0
VERTEX
  5
461D
330
4612
100
AcDbEntity
  8
PART
 62
     7
100
AcDbVertex
100
AcDb2dVertex
 10
14.7545302691044
 20
6.88705987885649
 30
0.0
 70
     8
  0
VERTEX
  5
461E
330
4612
100
AcDbEntity
  8
PART
 62
     7
100
AcDbVertex
100
AcDb2dVertex
 10
14.76048833118346
 20
6.868451628655979
 30
0.0
 70
     8
  0
VERTEX
  5
461F
330
4612
100
AcDbEntity
  8
PART
 62
     7
100
AcDbVertex
100
AcDb2dVertex
 10
14.76703060939028
 20
6.850208349475153
 30
0.0
 70
     8
  0
VERTEX
  5
4620
330
4612
100
AcDbEntity
  8
PART
 62
     7
100
AcDbVertex
100
AcDb2dVertex
 10
14.77414737422544
 20
6.832288677931785
 30
0.0
 70
     8
  0
VERTEX
  5
4621
330
4612
100
AcDbEntity
  8
PART
 62
     7
100
AcDbVertex
100
AcDb2dVertex
 10
14.78182889618955
 20
6.814651250643645
 30
0.0
 70
     8
  0
VERTEX
  5
4622
330
4612
100
AcDbEntity
  8
PART
 62
     7
100
AcDbVertex
100
AcDb2dVertex
 10
14.79006544578317
 20
6.7972547042285
 30
0.0
 70
     8
  0
VERTEX
  5
4623
330
4612
100
AcDbEntity
  8
PART
 62
     7
100
AcDbVertex
100
AcDb2dVertex
 10
14.7988472935069
 20
6.780057675304114
 30
0.0
 70
     8
  0
VERTEX
  5
4624
330
4612
100
AcDbEntity
  8
PART
 62
     7
100
AcDbVertex
100
AcDb2dVertex
 10
14.80816470986132
 20
6.763018800488264
 30
0.0
 70
     8
  0
VERTEX
  5
4625
330
4612
100
AcDbEntity
  8
PART
 62
     7
100
AcDbVertex
100
AcDb2dVertex
 10
14.81800268934906
 20
6.746105232389172
 30
0.0
 70
     8
  0
VERTEX
  5
4626
330
4612
100
AcDbEntity
  8
PART
 62
     7
100
AcDbVertex
100
AcDb2dVertex
 10
14.82832512248089
 20
6.729318187576904
 30
0.0
 70
     8
  0
VERTEX
  5
4627
330
4612
100
AcDbEntity
  8
PART
 62
     7
100
AcDbVertex
100
AcDb2dVertex
 10
14.83909062376963
 20
6.712667398611991
 30
0.0
 70
     8
  0
VERTEX
  5
4628
330
4612
100
AcDbEntity
  8
PART
 62
     7
100
AcDbVertex
100
AcDb2dVertex
 10
14.8502578077281
 20
6.69616259805495
 30
0.0
 70
     8
  0
VERTEX
  5
4629
330
4612
100
AcDbEntity
  8
PART
 62
     7
100
AcDbVertex
100
AcDb2dVertex
 10
14.86178528886912
 20
6.67981351846631
 30
0.0
 70
     8
  0
VERTEX
  5
462A
330
4612
100
AcDbEntity
  8
PART
 62
     7
100
AcDbVertex
100
AcDb2dVertex
 10
14.87363168170548
 20
6.663629892406596
 30
0.0
 70
     8
  0
VERTEX
  5
462B
330
4612
100
AcDbEntity
  8
PART
 62
     7
100
AcDbVertex
100
AcDb2dVertex
 10
14.88575560075003
 20
6.647621452436332
 30
0.0
 70
     8
  0
VERTEX
  5
462C
330
4612
100
AcDbEntity
  8
PART
 62
     7
100
AcDbVertex
100
AcDb2dVertex
 10
14.89811566051557
 20
6.631797931116043
 30
0.0
 70
     8
  0
VERTEX
  5
462D
330
4612
100
AcDbEntity
  8
PART
 62
     7
100
AcDbVertex
100
AcDb2dVertex
 10
14.9106802132766
 20
6.616165816819414
 30
0.0
 70
     8
  0
VERTEX
  5
462E
330
4612
100
AcDbEntity
  8
PART
 62
     7
100
AcDbVertex
100
AcDb2dVertex
 10
14.9234565623544
 20
6.600718621172763
 30
0.0
 70
     8
  0
VERTEX
  5
462F
330
4612
100
AcDbEntity
  8
PART
 62
     7
100
AcDbVertex
100
AcDb2dVertex
 10
14.93646174883192
 20
6.585446611615559
 30
0.0
 70
     8
  0
VERTEX
  5
4630
330
4612
100
AcDbEntity
  8
PART
 62
     7
100
AcDbVertex
100
AcDb2dVertex
 10
14.94971281379212
 20
6.570340055587283
 30
0.0
 70
     8
  0
VERTEX
  5
4631
330
4612
100
AcDbEntity
  8
PART
 62
     7
100
AcDbVertex
100
AcDb2dVertex
 10
14.96322679831797
 20
6.555389220527409
 30
0.0
 70
     8
  0
VERTEX
  5
4632
330
4612
100
AcDbEntity
  8
PART
 62
     7
100
AcDbVertex
100
AcDb2dVertex
 10
14.97702074349241
 20
6.540584373875407
 30
0.0
 70
     8
  0
VERTEX
  5
4633
330
4612
100
AcDbEntity
  8
PART
 62
     7
100
AcDbVertex
100
AcDb2dVertex
 10
14.9911116903984
 20
6.525915783070757
 30
0.0
 70
     8
  0
VERTEX
  5
4634
330
4612
100
AcDbEntity
  8
PART
 62
     7
100
AcDbVertex
100
AcDb2dVertex
 10
15.0055166801189
 20
6.511373715552931
 30
0.0
 70
     8
  0
VERTEX
  5
4635
330
4612
100
AcDbEntity
  8
PART
 62
     7
100
AcDbVertex
100
AcDb2dVertex
 10
15.02023753848424
 20
6.496957360275221
 30
0.0
 70
     8
  0
VERTEX
  5
4636
330
4612
100
AcDbEntity
  8
PART
 62
     7
100
AcDbVertex
100
AcDb2dVertex
 10
15.03521523031417
 20
6.482701592246172
 30
0.0
 70
     8
  0
VERTEX
  5
4637
330
4612
100
AcDbEntity
  8
PART
 62
     7
100
AcDbVertex
100
AcDb2dVertex
 10
15.05037550517578
 20
6.468650207988151
 30
0.0
 70
     8
  0
VERTEX
  5
4638
330
4612
100
AcDbEntity
  8
PART
 62
     7
100
AcDbVertex
100
AcDb2dVertex
 10
15.0656441126362
 20
6.45484700402352
 30
0.0
 70
     8
  0
VERTEX
  5
4639
330
4612
100
AcDbEntity
  8
PART
 62
     7
100
AcDbVertex
100
AcDb2dVertex
 10
15.08094680226253
 20
6.441335776874637
 30
0.0
 70
     8
  0
VERTEX
  5
463A
330
4612
100
AcDbEntity
  8
PART
 62
     7
100
AcDbVertex
100
AcDb2dVertex
 10
15.0962093236219
 20
6.42816032306387
 30
0.0
 70
     8
  0
VERTEX
  5
463B
330
4612
100
AcDbEntity
  8
PART
 62
     7
100
AcDbVertex
100
AcDb2dVertex
 10
15.1113574262814
 20
6.415364439113581
 30
0.0
 70
     8
  0
VERTEX
  5
463C
330
4612
100
AcDbEntity
  8
PART
 62
     7
100
AcDbVertex
100
AcDb2dVertex
 10
15.12631685980816
 20
6.402991921546131
 30
0.0
 70
     8
  0
VERTEX
  5
463D
330
4612
100
AcDbEntity
  8
PART
 62
     7
100
AcDbVertex
100
AcDb2dVertex
 10
15.14102295414296
 20
6.391075700698312
 30
0.0
 70
     8
  0
VERTEX
  5
463E
330
4612
100
AcDbEntity
  8
PART
 62
     7
100
AcDbVertex
100
AcDb2dVertex
 10
15.15544936072138
 20
6.379605242164654
 30
0.0
 70
     8
  0
VERTEX
  5
463F
330
4612
100
AcDbEntity
  8
PART
 62
     7
100
AcDbVertex
100
AcDb2dVertex
 10
15.16957931135267
 20
6.368559145354112
 30
0.0
 70
     8
  0
VERTEX
  5
4640
330
4612
100
AcDbEntity
  8
PART
 62
     7
100
AcDbVertex
100
AcDb2dVertex
 10
15.18339603784609
 20
6.357916009675644
 30
0.0
 70
     8
  0
VERTEX
  5
4641
330
4612
100
AcDbEntity
  8
PART
 62
     7
100
AcDbVertex
100
AcDb2dVertex
 10
15.19688277201089
 20
6.347654434538206
 30
0.0
 70
     8
  0
VERTEX
  5
4642
330
4612
100
AcDbEntity
  8
PART
 62
     7
100
AcDbVertex
100
AcDb2dVertex
 10
15.21002274565633
 20
6.33775301935076
 30
0.0
 70
     8
  0
VERTEX
  5
4643
330
4612
100
AcDbEntity
  8
PART
 62
     7
100
AcDbVertex
100
AcDb2dVertex
 10
15.22279919059167
 20
6.328190363522256
 30
0.0
 70
     8
  0
VERTEX
  5
4644
330
4612
100
AcDbEntity
  8
PART
 62
     7
100
AcDbVertex
100
AcDb2dVertex
 10
15.23519533862616
 20
6.318945066461658
 30
0.0
 70
     8
  0
VERTEX
  5
4645
330
4612
100
AcDbEntity
  8
PART
 62
     7
100
AcDbVertex
100
AcDb2dVertex
 10
14.72859788481971
 20
7.013418117676387
 30
0.0
 70
    16
  0
VERTEX
  5
4646
330
4612
100
AcDbEntity
  8
PART
 62
     7
100
AcDbVertex
100
AcDb2dVertex
 10
14.74272695130223
 20
6.901299020427973
 30
0.0
 70
    16
  0
VERTEX
  5
4647
330
4612
100
AcDbEntity
  8
PART
 62
     7
100
AcDbVertex
100
AcDb2dVertex
 10
14.80255575912768
 20
6.761773032741057
 30
0.0
 70
    16
  0
VERTEX
  5
4648
330
4612
100
AcDbEntity
  8
PART
 62
     7
100
AcDbVertex
100
AcDb2dVertex
 10
14.89603827135496
 20
6.629721651537369
 30
0.0
 70
    16
  0
VERTEX
  5
4649
330
4612
100
AcDbEntity
  8
PART
 62
     7
100
AcDbVertex
100
AcDb2dVertex
 10
15.00198511854588
 20
6.510127947805727
 30
0.0
 70
    16
  0
VERTEX
  5
464A
330
4612
100
AcDbEntity
  8
PART
 62
     7
100
AcDbVertex
100
AcDb2dVertex
 10
15.12912133517497
 20
6.39800885055731
 30
0.0
 70
    16
  0
VERTEX
  5
464B
330
4612
100
AcDbEntity
  8
PART
 62
     7
100
AcDbVertex
100
AcDb2dVertex
 10
15.20266091146043
 20
6.343195069680309
 30
0.0
 70
    16
  0
VERTEX
  5
464C
330
4612
100
AcDbEntity
  8
PART
 62
     7
100
AcDbVertex
100
AcDb2dVertex
 10
15.23519533862616
 20
6.318945066461655
 30
0.0
 70
    16
  0
SEQEND
  5
464D
330
4612
100
AcDbEntity
  8
PART
 62
     7
  0
LWPOLYLINE
  5
464E
330
1968
100
AcDbEntity
  8
PART
 62
     7
100
AcDbPolyline
 90
       41
 70
     0
 43
0.0
 10
14.83859342519945
 20
7.117807343884496
 10
14.838912900647
 20
7.08232954346802
 10
14.83982041350004
 20
7.052199491807659
 10
14.84128123944415
 20
7.026018160657876
 10
14.84324466898522
 20
7.003283779670422
 10
14.84566195391963
 20
6.983423422222884
 10
14.84850471483709
 20
6.965770167373154
 10
14.85178799596637
 20
6.949562775891202
 10
14.85557106410131
 20
6.934037042789434
 10
14.85987687748345
 20
6.918773904195905
 10
14.86467143631535
 20
6.903799513335023
 10
14.86994784173826
 20
6.889086146804547
 10
14.87571603667348
 20
6.874562109403939
 10
14.88198873243509
 20
6.860159466813971
 10
14.88878033806093
 20
6.84581480936243
 10
14.89610583547044
 20
6.831469674397659
 10
14.90398008205588
 20
6.817069942032492
 10
14.91241045938044
 20
6.802576339849473
 10
14.92137544041672
 20
6.787996876221551
 10
14.93084061272909
 20
6.773357280492319
 10
14.9407691493675
 20
6.758683167694528
 10
14.95112295494934
 20
6.743998676830294
 10
14.96186297904567
 20
6.729326486210926
 10
14.97294947825025
 20
6.714687856874569
 10
14.9843249308419
 20
6.700124843424291
 10
14.99589622457279
 20
6.685735378758042
 10
15.00770205849903
 20
6.671504879547345
 10
15.01989377394555
 20
6.657292744746388
 10
15.03264528791664
 20
6.642935493250611
 10
15.04613176330059
 20
6.628273666695282
 10
15.0605267212258
 20
6.613154708854015
 10
15.07599967628098
 20
6.597434437662361
 10
15.09270622769814
 20
6.580985446148304
 10
15.11072594781131
 20
6.563761493657874
 10
15.12999608116858
 20
6.545878610144661
 10
15.1504487882728
 20
6.527462427712553
 10
15.17202490492088
 20
6.508629171907085
 10
15.19466560185237
 20
6.489493689398763
 10
15.21831203552074
 20
6.470169763811011
 10
15.24290507742114
 20
6.450770302342107
 10
15.34171780737141
 20
6.37568015217537
  0
LWPOLYLINE
  5
464F
330
1968
100
AcDbEntity
  8
PART
 62
     7
100
AcDbPolyline
 90
       41
 70
     0
 43
0.0
 10
14.61860234443997
 20
7.115826337504248
 10
14.61894272628109
 20
7.078026878681026
 10
14.62000501448327
 20
7.042758178846685
 10
14.62180927714471
 20
7.010421678792969
 10
14.62439156754334
 20
6.980521561414342
 10
14.6277859776666
 20
6.952633165879333
 10
14.63200623070856
 20
6.926425825676279
 10
14.63702262622428
 20
6.901663192581377
 10
14.6427612412037
 20
6.878111884128422
 10
14.64918366072534
 20
6.855345853517089
 10
14.65630522605156
 20
6.83310374397692
 10
14.66411337704231
 20
6.811330552145701
 10
14.67257871177741
 20
6.790015246459606
 10
14.681669059944
 20
6.769143034473309
 10
14.69135055350543
 20
6.748694599094534
 10
14.70158875154335
 20
6.728645676210579
 10
14.71234933766675
 20
6.708967658944029
 10
14.72359491931764
 20
6.689634124928918
 10
14.73527480454505
 20
6.670639498932253
 10
14.74734063481019
 20
6.651977516731641
 10
14.7597464660887
 20
6.633642028415362
 10
14.77244762278892
 20
6.615628360102284
 10
14.78540038436535
 20
6.59793329860221
 10
14.79856172324977
 20
6.580555047998142
 10
14.81190639018925
 20
6.563471018807778
 10
14.82550558746771
 20
6.546559757778677
 10
14.83954215010725
 20
6.529640385982418
 10
14.85414713187221
 20
6.512615056731622
 10
14.86942901084741
 20
6.4954088033979
 10
14.8854950192333
 20
6.477942636613455
 10
14.90245403099083
 20
6.460130664871424
 10
14.9204189266199
 20
6.441878622503836
 10
14.93951650197777
 20
6.423075468749566
 10
14.95988628436865
 20
6.403605234920323
 10
14.98155694707816
 20
6.38349463528392
 10
15.0044989519865
 20
6.36283702034828
 10
15.02867408568035
 20
6.341735147179271
 10
15.0540437998026
 20
6.320293151718761
 10
15.0805695602836
 20
6.29861623295454
 10
15.10821311801086
 20
6.276810466300478
 10
15.18602439120739
 20
6.217679824004349
  0
LINE
  5
4650
330
1968
100
AcDbEntity
  8
PART
 62
     7
100
AcDbLine
 10
14.65859788481972
 20
7.186505429972541
 30
0.0
 11
14.90859788481972
 21
7.186505429972545
 31
0.0
  0
ARC
  5
4651
330
1968
100
AcDbEntity
  8
PART
 62
     7
100
AcDbCircle
 10
14.78359788481972
 20
7.116816840694372
 30
0.0
 40
0.055
100
AcDbArc
 50
0.0
 51
180.0
  0
LINE
  5
4652
330
1968
100
AcDbEntity
  8
PART
 62
     7
100
AcDbLine
 10
14.60859788481971
 20
7.13650542997254
 30
0.0
 11
14.60859788481971
 21
6.929373395616345
 31
0.0
  0
ARC
  5
4653
330
1968
100
AcDbEntity
  8
PART
 62
     7
100
AcDbCircle
 10
14.65859788481972
 20
7.13650542997254
 30
0.0
 40
0.05
100
AcDbArc
 50
90.00000000000067
 51
180.0
  0
ARC
  5
4654
330
1968
100
AcDbEntity
  8
PART
 62
     7
100
AcDbCircle
 10
14.67359788481972
 20
7.116816840694372
 30
0.0
 40
0.055
100
AcDbArc
 50
0.0
 51
180.0
  0
LWPOLYLINE
  5
4655
330
1968
100
AcDbEntity
  8
PART
 62
     7
100
AcDbPolyline
 90
       16
 70
     1
 43
0.0
 10
15.13461937936315
 20
6.896362603102236
 10
15.16895505794964
 20
6.89636260310224
 42
-0.4142135623730951
 10
15.18395505794964
 20
6.881362603102239
 10
15.18395505794964
 20
6.847026924515745
 10
15.23324071168979
 20
6.847026924515745
 10
15.23324071168979
 20
6.881362603102235
 42
-0.4142135623730951
 10
15.24824071168979
 20
6.896362603102236
 10
15.28257639027628
 20
6.896362603102236
 10
15.28257639027628
 20
6.945648256842392
 10
15.24824071168979
 20
6.945648256842392
 42
-0.4142135623730951
 10
15.23324071168979
 20
6.960648256842393
 10
15.23324071168979
 20
6.99498393542888
 10
15.18395505794964
 20
6.99498393542888
 10
15.18395505794964
 20
6.960648256842393
 42
-0.4142135623731054
 10
15.16895505794964
 20
6.945648256842392
 10
15.13461937936315
 20
6.945648256842396
  0
CIRCLE
  5
4656
330
1968
100
AcDbEntity
  8
PART
 62
     7
100
AcDbCircle
 10
15.20859788481971
 20
6.921005429972314
 30
0.0
 40
0.1080000000000023
  0
ARC
  5
4657
330
1968
100
AcDbEntity
  8
PART
 62
     7
100
AcDbCircle
 10
15.22859788481972
 20
6.64400542997231
 30
0.0
 40
0.1
100
AcDbArc
 50
302.6158644054277
 51
0.0
  0
LINE
  5
4658
330
1968
100
AcDbEntity
  8
PART
 62
     7
100
AcDbLine
 10
14.95859788481971
 20
7.136505429972544
 30
0.0
 11
14.95859788481971
 21
6.976340083355072
 31
0.0
  0
ARC
  5
4659
330
1968
100
AcDbEntity
  8
PART
 62
     7
100
AcDbCircle
 10
14.90859788481972
 20
7.136505429972544
 30
0.0
 40
0.05
100
AcDbArc
 50
359.9999999999992
 51
90.00000000000062
  0
ARC
  5
465A
330
1968
100
AcDbEntity
  8
PART
 62
     7
100
AcDbCircle
 10
14.89359788481972
 20
7.116816840694372
 30
0.0
 40
0.055
100
AcDbArc
 50
0.0
 51
180.0
  0
TEXT
  5
465B
330
1968
100
AcDbEntity
  8
SILK
 62
     7
100
AcDbText
 10
12.21405967701286
 20
7.745883254550971
 30
0.0
 40
0.062
  1
120 VAC 1200W  50/60 Hz
  7
ARIAL
 72
     1
 11
12.73334139597602
 21
7.745883254550971
 31
0.0
100
AcDbText
  0
LINE
  5
465C
330
1968
100
AcDbEntity
  8
PART
 62
     7
100
AcDbLine
 10
12.31109788481971
 20
7.560505429972309
 30
0.0
 11
12.44009788481972
 21
7.536505429972308
 31
0.0
  0
LINE
  5
465D
330
1968
100
AcDbEntity
  8
PART
 62
     7
100
AcDbLine
 10
12.53209788481972
 20
7.536505429972308
 30
0.0
 11
12.66109788481972
 21
7.560505429972309
 31
0.0
  0
LINE
  5
465E
330
1968
100
AcDbEntity
  8
PART
 62
     7
100
AcDbLine
 10
13.03209788481971
 20
7.502505429972309
 30
0.0
 11
13.16109788481971
 21
7.560505429972309
 31
0.0
  0
LINE
  5
465F
330
1968
100
AcDbEntity
  8
PART
 62
     7
100
AcDbLine
 10
12.94009788481972
 20
7.502505429972309
 30
0.0
 11
12.81109788481971
 21
7.560505429972309
 31
0.0
  0
TEXT
  5
4660
330
1968
100
AcDbEntity
  8
SILK
 62
     7
100
AcDbText
 10
14.62697952411707
 20
7.597072398993263
 30
0.0
 40
0.062
  1
10 AMP
  7
ARIAL
 72
     4
 11
14.78033013803249
 21
7.627670625459838
 31
0.0
100
AcDbText
  0
TEXT
  5
4661
330
1968
100
AcDbEntity
  8
SILK
 62
     7
100
AcDbText
 10
14.61286201093748
 20
7.497073081121501
 30
0.0
 40
0.062
  1
50/60 Hz
  7
ARIAL
 72
     4
 11
14.78619557164689
 21
7.528073081121501
 31
0.0
100
AcDbText
  0
TEXT
  5
4662
330
1968
100
AcDbEntity
  8
SILK
 62
     7
100
AcDbText
 10
14.60838336225967
 20
7.696268169798172
 30
0.0
 40
0.062
  1
120 VAC
  7
ARIAL
 72
     4
 11
14.78101910577945
 21
7.727268169798172
 31
0.0
100
AcDbText
  0
ARC
  5
4663
330
1968
100
AcDbEntity
  8
PART
 62
     7
100
AcDbCircle
 10
15.22859788481972
 20
7.790005429972307
 30
0.0
 40
0.1
100
AcDbArc
 50
0.0
 51
90.0
  0
INSERT
  5
4677
330
1968
100
AcDbEntity
  8
0
 62
     7
100
AcDbBlockReference
 66
     1
  2
SIGNOFF
 10
11.03011378089556
 20
2.303364982506458
 30
0.0
  0
ATTRIB
  5
4678
330
4677
100
AcDbEntity
  8
TXT
100
AcDbText
 10
11.86653925888933
 20
1.586708633250005
 30
0.0
 40
0.12
  1

  7
ROMANS
100
AcDbAttribute
  2
ENG
 70
     0
  0
ATTRIB
  5
4679
330
4677
100
AcDbEntity
  8
TXT
100
AcDbText
 10
12.46247696936171
 20
1.847381629751296
 30
0.0
 40
0.12
  1

 41
1.160196240208273
  7
ROMANS
 72
     5
 11
12.98622270065573
 21
1.847381629751296
 31
0.0
100
AcDbAttribute
  2
CHKDATE
 70
     0
  0
ATTRIB
  5
467A
330
4677
100
AcDbEntity
  8
TXT
100
AcDbText
 10
12.46247696936171
 20
1.586708633250005
 30
0.0
 40
0.12
  1

 41
0.6789296516774344
  7
ROMANS
 72
     5
 11
12.98622270065573
 21
1.586708633250005
 31
0.0
100
AcDbAttribute
  2
ENGDATE
 70
     0
  0
ATTRIB
  5
467B
330
4677
100
AcDbEntity
  8
TXT
100
AcDbText
 10
12.46247696936172
 20
1.326035636748713
 30
0.0
 40
0.12
  1
9/20/00
 41
0.6500390282017902
  7
ROMANS
 72
     5
 11
12.98622270065573
 21
1.326035636748713
 31
0.0
100
AcDbAttribute
  2
QCDATE
 70
     0
  0
ATTRIB
  5
467C
330
4677
100
AcDbEntity
  8
TXT
100
AcDbText
 10
12.46247696936172
 20
1.065362640247421
 30
0.0
 40
0.12
  1
8/18/00
 41
0.6500390282017903
  7
ROMANS
 72
     5
 11
12.98622270065573
 21
1.065362640247421
 31
0.0
100
AcDbAttribute
  2
MFGDATE
 70
     0
  0
ATTRIB
  5
467D
330
4677
100
AcDbEntity
  8
TXT
100
AcDbText
 10
11.86653925888933
 20
1.065362640247421
 30
0.0
 40
0.12
  1
III
  7
ROMANS
100
AcDbAttribute
  2
MFG
 70
     0
  0
ATTRIB
  5
467E
330
4677
100
AcDbEntity
  8
TXT
100
AcDbText
 10
11.86653925888933
 20
1.847381629751296
 30
0.0
 40
0.12
  1

  7
ROMANS
100
AcDbAttribute
  2
CHK
 70
     0
  0
ATTRIB
  5
467F
330
4677
100
AcDbEntity
  8
TXT
100
AcDbText
 10
11.86653925888933
 20
1.326035636748713
 30
0.0
 40
0.12
  1
AVT
  7
ROMANS
100
AcDbAttribute
  2
QC
 70
     0
  0
SEQEND
  5
4680
330
4677
100
AcDbEntity
  8
0
  0
INSERT
  5
4681
330
1968
100
AcDbEntity
  8
DEFAULT_1
 62
     7
100
AcDbBlockReference
 66
     1
  2
REV-TXT1
 10
16.50000000000068
 20
9.703200000000435
 30
0.0
  0
ATTRIB
  5
4682
330
4681
100
AcDbEntity
  8
TB-TXT
100
AcDbText
 10
11.56333289659672
 20
9.528200000000435
 30
0.0
 40
0.1
  1
B
  7
ROMANS
 72
     4
 11
11.61571384897767
 21
9.578200000000435
 31
0.0
100
AcDbAttribute
  2
REV
 70
     0
  0
ATTRIB
  5
4683
330
4681
100
AcDbEntity
  8
TB-TXT
100
AcDbText
 10
11.92943623616825
 20
9.528200000000435
 30
0.0
 40
0.1
  1
ECN 2631-A, AMX LOGO
  7
ROMANS
 11
11.92943623616825
 21
9.578200000000435
 31
0.0
100
AcDbAttribute
  2
DESC
 70
     0
 74
     2
  0
ATTRIB
  5
4684
330
4681
100
AcDbEntity
  8
TB-TXT
100
AcDbText
 10
14.71435992422997
 20
9.535342857143293
 30
0.0
 40
0.1
  1
8/14/01
  7
ROMANS
 72
     4
 11
15.0429313528014
 21
9.578200000000435
 31
0.0
100
AcDbAttribute
  2
DATE
 70
     0
  0
ATTRIB
  5
4685
330
4681
100
AcDbEntity
  8
TB-TXT
100
AcDbText
 10
15.99021567640104
 20
9.578200000000435
 30
0.0
 40
0.1
  1

  7
ROMANS
 72
     4
 11
15.99021567640104
 21
9.578200000000435
 31
0.0
100
AcDbAttribute
  2
APPR
 70
     0
  0
SEQEND
  5
4686
330
4681
100
AcDbEntity
  8
DEFAULT_1
  0
ENDSEC
  0
SECTION
  2
OBJECTS
  0
DICTIONARY
  5
195D
330
0
100
AcDbDictionary
  3
ACAD_GROUP
350
195E
  3
ACAD_MLINESTYLE
350
196B
  3
ACDBVARIABLEDICTIONARY
350
1992
  3
ACAD_PLOTSTYLENAME
350
468C
  3
ACAD_LAYOUT
350
468E
  3
ACAD_PLOTSETTINGS
350
468F
  3
ACDBHEADERROUNDTRIPXREC
350
4699
  0
DICTIONARY
  5
46BC
330
1968
100
AcDbDictionary
280
     1
  3
ACAD_LAYOUTSELFREF
360
46BD
  0
DICTIONARY
  5
46BA
330
1965
100
AcDbDictionary
280
     1
  3
ACAD_LAYOUTSELFREF
360
46BB
  0
DICTIONARY
  5
195E
102
{ACAD_REACTORS
330
195D
102
}
330
195D
100
AcDbDictionary
  0
DICTIONARY
  5
196B
102
{ACAD_REACTORS
330
195D
102
}
330
195D
100
AcDbDictionary
  3
STANDARD
350
196C
  0
DICTIONARY
  5
1992
102
{ACAD_REACTORS
330
195D
102
}
330
195D
100
AcDbDictionary
  3
DIMADEC
350
1993
  0
ACDBDICTIONARYWDFLT
  5
468C
102
{ACAD_REACTORS
330
195D
102
}
330
195D
100
AcDbDictionary
281
     1
  3
Normal
350
468D
100
AcDbDictionaryWithDefault
340
468D
  0
DICTIONARY
  5
468E
102
{ACAD_REACTORS
330
195D
102
}
330
195D
100
AcDbDictionary
  0
DICTIONARY
  5
468F
102
{ACAD_REACTORS
330
195D
102
}
330
195D
100
AcDbDictionary
  0
DICTIONARY
  5
4699
102
{ACAD_REACTORS
330
195D
102
}
330
195D
100
AcDbDictionary
  3
TSTACKALIGN
350
469A
  3
TSTACKSIZE
350
469B
  3
HYPERLINKBASE
350
469C
  3
STYLESHEET
350
469D
  3
LAYOUTDICT
350
469E
  3
PLOTSETDICT
350
469F
  3
PLOTSTYLNAMDICT
350
46A0
  3
LWETCUNION
350
46A1
  3
INSUNITS
350
46A2
  3
CEPSNTYPE
350
46A3
  3
FINGERPRINTGUID
350
46A4
  3
VERSIONGUID
350
46A5
  3
PSVPSCALE
350
46A6
  3
DIMSTYLEDATA
350
46A7
  3
PUCSORTHOREF
350
46A8
  3
PUCSORTHOVIEW
350
46A9
  3
PUCSBASE
350
46AA
  3
PUCSORGTOP
350
46AB
  3
PUCSORGBOTTOM
350
46AC
  3
PUCSORGLEFT
350
46AD
  3
PUCSORGRIGHT
350
46AE
  3
PUCSORGFRONT
350
46AF
  3
PUCSORGBACK
350
46B0
  3
UCSORTHOREF
350
46B1
  3
UCSORTHOVIEW
350
46B2
  3
UCSBASE
350
46B3
  3
UCSORGTOP
350
46B4
  3
UCSORGBOTTOM
350
46B5
  3
UCSORGLEFT
350
46B6
  3
UCSORGRIGHT
350
46B7
  3
UCSORGFRONT
350
46B8
  3
UCSORGBACK
350
46B9
  0
XRECORD
  5
46BD
102
{ACAD_REACTORS
330
46BC
102
}
330
46BC
100
AcDbXrecord
340
1968
  0
XRECORD
  5
46BB
102
{ACAD_REACTORS
330
46BA
102
}
330
46BA
100
AcDbXrecord
340
1965
  0
MLINESTYLE
  5
196C
102
{ACAD_REACTORS
330
196B
102
}
330
196B
100
AcDbMlineStyle
  2
STANDARD
 70
     0
  3

 62
   256
 51
90.0
 52
90.0
 71
     2
 49
0.5
 62
   256
  6
BYLAYER
 49
-0.5
 62
   256
  6
BYLAYER
  0
DICTIONARYVAR
  5
1993
102
{ACAD_REACTORS
330
1992
102
}
330
1992
100
DictionaryVariables
280
     0
  1
1
  0
ACDBPLACEHOLDER
  5
468D
102
{ACAD_REACTORS
330
468C
102
}
330
468C
100
AcDbPlaceHolder
280
     0
  0
XRECORD
  5
469A
102
{ACAD_REACTORS
330
4699
102
}
330
4699
100
AcDbXrecord
 90
        1
  0
XRECORD
  5
469B
102
{ACAD_REACTORS
330
4699
102
}
330
4699
100
AcDbXrecord
 90
       70
  0
XRECORD
  5
469C
102
{ACAD_REACTORS
330
4699
102
}
330
4699
100
AcDbXrecord
  1

  0
XRECORD
  5
469D
102
{ACAD_REACTORS
330
4699
102
}
330
4699
100
AcDbXrecord
  1

  0
XRECORD
  5
469E
102
{ACAD_REACTORS
330
4699
102
}
330
4699
100
AcDbXrecord
340
468E
  0
XRECORD
  5
469F
102
{ACAD_REACTORS
330
4699
102
}
330
4699
100
AcDbXrecord
340
468F
  0
XRECORD
  5
46A0
102
{ACAD_REACTORS
330
4699
102
}
330
4699
100
AcDbXrecord
340
468C
  0
XRECORD
  5
46A1
102
{ACAD_REACTORS
330
4699
102
}
330
4699
100
AcDbXrecord
 90
    14877
  0
XRECORD
  5
46A2
102
{ACAD_REACTORS
330
4699
102
}
330
4699
100
AcDbXrecord
 90
        0
  0
XRECORD
  5
46A3
102
{ACAD_REACTORS
330
4699
102
}
330
4699
100
AcDbXrecord
 90
        0
  0
XRECORD
  5
46A4
102
{ACAD_REACTORS
330
4699
102
}
330
4699
100
AcDbXrecord
  1
{B4D9DD34-F533-48F7-948A-143F20DFFE5A}
  0
XRECORD
  5
46A5
102
{ACAD_REACTORS
330
4699
102
}
330
4699
100
AcDbXrecord
  1
{3CDA8F54-82F1-4D99-B3AF-EC1C5BB34708}
  0
XRECORD
  5
46A6
102
{ACAD_REACTORS
330
4699
102
}
330
4699
100
AcDbXrecord
 40
0.0
  0
XRECORD
  5
46A7
102
{ACAD_REACTORS
330
4699
102
}
330
4699
100
AcDbXrecord
1000
DSTYLE
1002
{
1070
   279
 70
     2
1002
}
  0
XRECORD
  5
46A8
102
{ACAD_REACTORS
330
4699
102
}
330
4699
100
AcDbXrecord
340
0
  0
XRECORD
  5
46A9
102
{ACAD_REACTORS
330
4699
102
}
330
4699
100
AcDbXrecord
 70
     0
  0
XRECORD
  5
46AA
102
{ACAD_REACTORS
330
4699
102
}
330
4699
100
AcDbXrecord
340
0
  0
XRECORD
  5
46AB
102
{ACAD_REACTORS
330
4699
102
}
330
4699
100
AcDbXrecord
 10
0.0
 20
0.0
 30
0.0
  0
XRECORD
  5
46AC
102
{ACAD_REACTORS
330
4699
102
}
330
4699
100
AcDbXrecord
 10
0.0
 20
0.0
 30
0.0
  0
XRECORD
  5
46AD
102
{ACAD_REACTORS
330
4699
102
}
330
4699
100
AcDbXrecord
 10
0.0
 20
0.0
 30
0.0
  0
XRECORD
  5
46AE
102
{ACAD_REACTORS
330
4699
102
}
330
4699
100
AcDbXrecord
 10
0.0
 20
0.0
 30
0.0
  0
XRECORD
  5
46AF
102
{ACAD_REACTORS
330
4699
102
}
330
4699
100
AcDbXrecord
 10
0.0
 20
0.0
 30
0.0
  0
XRECORD
  5
46B0
102
{ACAD_REACTORS
330
4699
102
}
330
4699
100
AcDbXrecord
 10
0.0
 20
0.0
 30
0.0
  0
XRECORD
  5
46B1
102
{ACAD_REACTORS
330
4699
102
}
330
4699
100
AcDbXrecord
340
0
  0
XRECORD
  5
46B2
102
{ACAD_REACTORS
330
4699
102
}
330
4699
100
AcDbXrecord
 70
     0
  0
XRECORD
  5
46B3
102
{ACAD_REACTORS
330
4699
102
}
330
4699
100
AcDbXrecord
340
0
  0
XRECORD
  5
46B4
102
{ACAD_REACTORS
330
4699
102
}
330
4699
100
AcDbXrecord
 10
0.0
 20
0.0
 30
0.0
  0
XRECORD
  5
46B5
102
{ACAD_REACTORS
330
4699
102
}
330
4699
100
AcDbXrecord
 10
0.0
 20
0.0
 30
0.0
  0
XRECORD
  5
46B6
102
{ACAD_REACTORS
330
4699
102
}
330
4699
100
AcDbXrecord
 10
0.0
 20
0.0
 30
0.0
  0
XRECORD
  5
46B7
102
{ACAD_REACTORS
330
4699
102
}
330
4699
100
AcDbXrecord
 10
0.0
 20
0.0
 30
0.0
  0
XRECORD
  5
46B8
102
{ACAD_REACTORS
330
4699
102
}
330
4699
100
AcDbXrecord
 10
0.0
 20
0.0
 30
0.0
  0
XRECORD
  5
46B9
102
{ACAD_REACTORS
330
4699
102
}
330
4699
100
AcDbXrecord
 10
0.0
 20
0.0
 30
0.0
  0
ENDSEC
  0
EOF
