  0
SECTION
  2
HEADER
  9
$ACADVER
  1
AC1015
  9
$ACADMAINTVER
 70
    13
  9
$DWGCODEPAGE
  3
ANSI_1252
  9
$INSBASE
 10
0.0
 20
0.0
 30
0.0
  9
$EXTMIN
 10
-0.0006500604028474
 20
-0.0008221653983469
 30
-0.0000000349181948
  9
$EXTMAX
 10
34.00055903133145
 20
22.00063956962292
 30
0.0000000814935746
  9
$LIMMIN
 10
-0.0011691468586008
 20
-0.001158055241639
  9
$LIMMAX
 10
34.00107780110693
 20
22.00097525454911
  9
$ORTHOMODE
 70
     1
  9
$REGENMODE
 70
     1
  9
$FILLMODE
 70
     1
  9
$QTEXTMODE
 70
     0
  9
$MIRRTEXT
 70
     1
  9
$LTSCALE
 40
0.2
  9
$ATTMODE
 70
     1
  9
$TEXTSIZE
 40
0.05
  9
$TRACEWID
 40
0.05
  9
$TEXTSTYLE
  7
ARIAL
  9
$CLAYER
  8
DIM
  9
$CELTYPE
  6
BYLAYER
  9
$CECOLOR
 62
   256
  9
$CELTSCALE
 40
1.0
  9
$DISPSILH
 70
     0
  9
$DIMSCALE
 40
1.0
  9
$DIMASZ
 40
0.12
  9
$DIMEXO
 40
0.1
  9
$DIMDLI
 40
0.38
  9
$DIMRND
 40
0.0
  9
$DIMDLE
 40
0.0
  9
$DIMEXE
 40
0.1
  9
$DIMTP
 40
0.0
  9
$DIMTM
 40
0.0
  9
$DIMTXT
 40
0.12
  9
$DIMCEN
 40
0.09
  9
$DIMTSZ
 40
0.0
  9
$DIMTOL
 70
     0
  9
$DIMLIM
 70
     0
  9
$DIMTIH
 70
     1
  9
$DIMTOH
 70
     1
  9
$DIMSE1
 70
     0
  9
$DIMSE2
 70
     0
  9
$DIMTAD
 70
     0
  9
$DIMZIN
 70
     0
  9
$DIMBLK
  1

  9
$DIMASO
 70
     0
  9
$DIMSHO
 70
     0
  9
$DIMPOST
  1

  9
$DIMAPOST
  1

  9
$DIMALT
 70
     1
  9
$DIMALTD
 70
     2
  9
$DIMALTF
 40
25.4
  9
$DIMLFAC
 40
1.0
  9
$DIMTOFL
 70
     0
  9
$DIMTVP
 40
0.0
  9
$DIMTIX
 70
     0
  9
$DIMSOXD
 70
     0
  9
$DIMSAH
 70
     0
  9
$DIMBLK1
  1

  9
$DIMBLK2
  1

  9
$DIMSTYLE
  2
STANDARD
  9
$DIMCLRD
 70
   256
  9
$DIMCLRE
 70
   256
  9
$DIMCLRT
 70
   256
  9
$DIMTFAC
 40
1.0
  9
$DIMGAP
 40
0.09
  9
$DIMJUST
 70
     0
  9
$DIMSD1
 70
     0
  9
$DIMSD2
 70
     0
  9
$DIMTOLJ
 70
     1
  9
$DIMTZIN
 70
     0
  9
$DIMALTZ
 70
     0
  9
$DIMALTTZ
 70
     0
  9
$DIMUPT
 70
     1
  9
$DIMDEC
 70
     3
  9
$DIMTDEC
 70
     3
  9
$DIMALTU
 70
     2
  9
$DIMALTTD
 70
     2
  9
$DIMTXSTY
  7
ROMANS
  9
$DIMAUNIT
 70
     0
  9
$DIMADEC
 70
     0
  9
$DIMALTRND
 40
0.0
  9
$DIMAZIN
 70
     0
  9
$DIMDSEP
 70
    46
  9
$DIMATFIT
 70
     3
  9
$DIMFRAC
 70
     0
  9
$DIMLDRBLK
  1

  9
$DIMLUNIT
 70
     2
  9
$DIMLWD
 70
    -2
  9
$DIMLWE
 70
    -2
  9
$DIMTMOVE
 70
     0
  9
$LUNITS
 70
     2
  9
$LUPREC
 70
     3
  9
$SKETCHINC
 40
0.1
  9
$FILLETRAD
 40
0.0
  9
$AUNITS
 70
     0
  9
$AUPREC
 70
     1
  9
$MENU
  1
ACAD
  9
$ELEVATION
 40
0.0
  9
$PELEVATION
 40
0.0
  9
$THICKNESS
 40
0.0
  9
$LIMCHECK
 70
     0
  9
$CHAMFERA
 40
0.0
  9
$CHAMFERB
 40
0.0
  9
$CHAMFERC
 40
1.0
  9
$CHAMFERD
 40
0.0
  9
$SKPOLY
 70
     0
  9
$TDCREATE
 40
2456111.609453587
  9
$TDUCREATE
 40
2456111.817786921
  9
$TDUPDATE
 40
2456191.601398102
  9
$TDUUPDATE
 40
2456191.809731435
  9
$TDINDWG
 40
0.6213928588
  9
$TDUSRTIMER
 40
0.6213928588
  9
$USRTIMER
 70
     1
  9
$ANGBASE
 50
0.0
  9
$ANGDIR
 70
     0
  9
$PDMODE
 70
     2
  9
$PDSIZE
 40
0.085
  9
$PLINEWID
 40
0.0
  9
$SPLFRAME
 70
     0
  9
$SPLINETYPE
 70
     6
  9
$SPLINESEGS
 70
    16
  9
$HANDSEED
  5
622F
  9
$SURFTAB1
 70
     6
  9
$SURFTAB2
 70
     6
  9
$SURFTYPE
 70
     6
  9
$SURFU
 70
     6
  9
$SURFV
 70
     6
  9
$UCSBASE
  2

  9
$UCSNAME
  2

  9
$UCSORG
 10
0.0
 20
0.0
 30
0.0
  9
$UCSXDIR
 10
1.0
 20
0.0
 30
0.0
  9
$UCSYDIR
 10
0.0
 20
1.0
 30
0.0
  9
$UCSORTHOREF
  2

  9
$UCSORTHOVIEW
 70
     0
  9
$UCSORGTOP
 10
0.0
 20
0.0
 30
0.0
  9
$UCSORGBOTTOM
 10
0.0
 20
0.0
 30
0.0
  9
$UCSORGLEFT
 10
0.0
 20
0.0
 30
0.0
  9
$UCSORGRIGHT
 10
0.0
 20
0.0
 30
0.0
  9
$UCSORGFRONT
 10
0.0
 20
0.0
 30
0.0
  9
$UCSORGBACK
 10
0.0
 20
0.0
 30
0.0
  9
$PUCSBASE
  2

  9
$PUCSNAME
  2

  9
$PUCSORG
 10
0.0
 20
0.0
 30
0.0
  9
$PUCSXDIR
 10
1.0
 20
0.0
 30
0.0
  9
$PUCSYDIR
 10
0.0
 20
1.0
 30
0.0
  9
$PUCSORTHOREF
  2

  9
$PUCSORTHOVIEW
 70
     0
  9
$PUCSORGTOP
 10
0.0
 20
0.0
 30
0.0
  9
$PUCSORGBOTTOM
 10
0.0
 20
0.0
 30
0.0
  9
$PUCSORGLEFT
 10
0.0
 20
0.0
 30
0.0
  9
$PUCSORGRIGHT
 10
0.0
 20
0.0
 30
0.0
  9
$PUCSORGFRONT
 10
0.0
 20
0.0
 30
0.0
  9
$PUCSORGBACK
 10
0.0
 20
0.0
 30
0.0
  9
$USERI1
 70
     0
  9
$USERI2
 70
     0
  9
$USERI3
 70
     0
  9
$USERI4
 70
     0
  9
$USERI5
 70
     0
  9
$USERR1
 40
0.0
  9
$USERR2
 40
0.0
  9
$USERR3
 40
0.0
  9
$USERR4
 40
0.0
  9
$USERR5
 40
0.0
  9
$WORLDVIEW
 70
     1
  9
$SHADEDGE
 70
     3
  9
$SHADEDIF
 70
    70
  9
$TILEMODE
 70
     1
  9
$MAXACTVP
 70
    48
  9
$PINSBASE
 10
0.0
 20
0.0
 30
0.0
  9
$PLIMCHECK
 70
     0
  9
$PEXTMIN
 10
1.000000000000000E+20
 20
1.000000000000000E+20
 30
1.000000000000000E+20
  9
$PEXTMAX
 10
-1.000000000000000E+20
 20
-1.000000000000000E+20
 30
-1.000000000000000E+20
  9
$PLIMMIN
 10
0.0
 20
0.0
  9
$PLIMMAX
 10
12.0
 20
9.0
  9
$UNITMODE
 70
     0
  9
$VISRETAIN
 70
     0
  9
$PLINEGEN
 70
     0
  9
$PSLTSCALE
 70
     1
  9
$TREEDEPTH
 70
  3020
  9
$CMLSTYLE
  2
STANDARD
  9
$CMLJUST
 70
     0
  9
$CMLSCALE
 40
1.0
  9
$PROXYGRAPHICS
 70
     1
  9
$MEASUREMENT
 70
     0
  9
$CELWEIGHT
370
    -1
  9
$ENDCAPS
280
     0
  9
$JOINSTYLE
280
     0
  9
$LWDISPLAY
290
     0
  9
$INSUNITS
 70
     0
  9
$HYPERLINKBASE
  1

  9
$STYLESHEET
  1
monochrome.ctb
  9
$XEDIT
290
     1
  9
$CEPSNTYPE
380
     0
  9
$PSTYLEMODE
290
     1
  9
$FINGERPRINTGUID
  2
{8269B36E-5346-4F75-9EC1-11DA917C5436}
  9
$VERSIONGUID
  2
{15E1340B-0B27-48AA-A53D-D8DA9ABCD542}
  9
$EXTNAMES
290
     1
  9
$PSVPSCALE
 40
0.0
  9
$OLESTARTUP
290
     0
  0
ENDSEC
  0
SECTION
  2
CLASSES
  0
CLASS
  1
DICTIONARYVAR
  2
AcDbDictionaryVar
  3
AutoCAD 2000
 90
        0
280
     0
281
     0
  0
CLASS
  1
HATCH
  2
AcDbHatch
  3
AutoCAD 2000
 90
    32768
280
     0
281
     1
  0
CLASS
  1
LWPOLYLINE
  2
AcDbPolyline
  3
AutoCAD 2000
 90
    32768
280
     0
281
     1
  0
CLASS
  1
ACDBDICTIONARYWDFLT
  2
AcDbDictionaryWithDefault
  3
AutoCAD 2000
 90
        0
280
     0
281
     0
  0
CLASS
  1
ACDBPLACEHOLDER
  2
AcDbPlaceHolder
  3
AutoCAD 2000
 90
        0
280
     0
281
     0
  0
CLASS
  1
LAYOUT
  2
AcDbLayout
  3
AutoCAD 2000
 90
        0
280
     0
281
     0
  0
CLASS
  1
LONG_TRANSACTION
  2
AcDbLongTransaction
  3
AutoCAD 2000
 90
    32768
280
     0
281
     0
  0
CLASS
  1
LWPOLYLINE
  2
AcDbPolyline
  3
AutoCAD 2000
 90
    32768
280
     0
281
     1
  0
CLASS
  1
HATCH
  2
AcDbHatch
  3
AutoCAD 2000
 90
    32768
280
     0
281
     1
  0
CLASS
  1
XRECORD
  2
AcDbXrecord
  3
AutoCAD 2000
 90
    32768
280
     0
281
     0
  0
CLASS
  1
LONG_TRANSACTION
  2
AcDbLongTransaction
  3
AutoCAD 2000
 90
    32768
280
     0
281
     0
  0
CLASS
  1
LWPOLYLINE
  2
AcDbPolyline
  3
AutoCAD 2000
 90
    32768
280
     0
281
     1
  0
CLASS
  1
HATCH
  2
AcDbHatch
  3
AutoCAD 2000
 90
    32768
280
     0
281
     1
  0
CLASS
  1
XRECORD
  2
AcDbXrecord
  3
AutoCAD 2000
 90
    32768
280
     0
281
     0
  0
ENDSEC
  0
SECTION
  2
TABLES
  0
TABLE
  2
VPORT
  5
8
330
0
100
AcDbSymbolTable
 70
     2
  0
VPORT
  5
622E
330
8
100
AcDbSymbolTableRecord
100
AcDbViewportTableRecord
  2
*Active
 70
     0
 10
0.0
 20
0.0
 11
1.0
 21
1.0
 12
16.9999544854643
 22
10.99990870211229
 13
0.0
 23
0.0
 14
0.025
 24
0.025
 15
0.1
 25
0.1
 16
0.0
 26
0.0
 36
1.0
 17
0.0
 27
0.0
 37
0.0
 40
22.17889287804563
 41
1.566621803499327
 42
50.0
 43
0.0
 44
0.0
 50
0.0
 51
0.0
 71
     0
 72
  5000
 73
     1
 74
     0
 75
     0
 76
     0
 77
     0
 78
     0
281
     0
 65
     1
110
0.0
120
0.0
130
0.0
111
1.0
121
0.0
131
0.0
112
0.0
122
1.0
132
0.0
 79
     0
146
0.0
  0
ENDTAB
  0
TABLE
  2
LTYPE
  5
5
330
0
100
AcDbSymbolTable
 70
     6
  0
LTYPE
  5
11
330
5
100
AcDbSymbolTableRecord
100
AcDbLinetypeTableRecord
  2
BYBLOCK
 70
     0
  3

 72
    65
 73
     0
 40
0.0
  0
LTYPE
  5
12
330
5
100
AcDbSymbolTableRecord
100
AcDbLinetypeTableRecord
  2
BYLAYER
 70
     0
  3

 72
    65
 73
     0
 40
0.0
  0
LTYPE
  5
13
330
5
100
AcDbSymbolTableRecord
100
AcDbLinetypeTableRecord
  2
CONTINUOUS
 70
     0
  3
Solid line
 72
    65
 73
     0
 40
0.0
  0
LTYPE
  5
31E1
330
5
100
AcDbSymbolTableRecord
100
AcDbLinetypeTableRecord
  2
CENTER
 70
     0
  3
____ _ ____ _ ____ _ ____ _ ____ _ ____ _ ____
 72
    65
 73
     4
 40
2.0
 49
1.25
 74
     0
 49
-0.25
 74
     0
 49
0.25
 74
     0
 49
-0.25
 74
     0
  0
LTYPE
  5
4067
330
5
100
AcDbSymbolTableRecord
100
AcDbLinetypeTableRecord
  2
PHANTOM
 70
     0
  3
_____ _ _ _____ _ _ _____ _ _ _____
 72
    65
 73
     6
 40
0.8
 49
0.45
 74
     0
 49
-0.05
 74
     0
 49
0.1
 74
     0
 49
-0.05
 74
     0
 49
0.1
 74
     0
 49
-0.05
 74
     0
  0
LTYPE
  5
55F3
330
5
100
AcDbSymbolTableRecord
100
AcDbLinetypeTableRecord
  2
HIDDEN
 70
     0
  3
Hidden __ __ __ __ __ __ __ __ __ __ __ __ __ __
 72
    65
 73
     2
 40
0.075
 49
0.05
 74
     0
 49
-0.025
 74
     0
  0
LTYPE
  5
55F4
330
5
100
AcDbSymbolTableRecord
100
AcDbLinetypeTableRecord
  2
CENTERX2
 70
     0
  3
Center (2x) ________  __  ________  __  _____
 72
    65
 73
     4
 40
0.8
 49
0.5
 74
     0
 49
-0.1
 74
     0
 49
0.1
 74
     0
 49
-0.1
 74
     0
  0
LTYPE
  5
55F5
330
5
100
AcDbSymbolTableRecord
100
AcDbLinetypeTableRecord
  2
DOT2
 70
     0
  3
Dot (.5x) ........................................
 72
    65
 73
     2
 40
0.025
 49
0.0
 74
     0
 49
-0.025
 74
     0
  0
ENDTAB
  0
TABLE
  2
LAYER
  5
2
330
0
100
AcDbSymbolTable
 70
     8
  0
LAYER
  5
E
330
2
100
AcDbSymbolTableRecord
100
AcDbLayerTableRecord
  2
0
 70
     0
 62
     9
  6
CONTINUOUS
370
    -3
390
4020
  0
LAYER
  5
31E3
330
2
100
AcDbSymbolTableRecord
100
AcDbLayerTableRecord
  2
FORMAT
 70
     0
 62
     7
  6
CONTINUOUS
370
    -3
390
4020
  0
LAYER
  5
3BB7
330
2
100
AcDbSymbolTableRecord
100
AcDbLayerTableRecord
  2
TB-TXT
 70
     0
 62
     3
  6
CONTINUOUS
370
    -3
390
4020
  0
LAYER
  5
4005
330
2
100
AcDbSymbolTableRecord
100
AcDbLayerTableRecord
  2
PART
 70
     0
 62
     4
  6
CONTINUOUS
370
    -3
390
4020
  0
LAYER
  5
4006
330
2
100
AcDbSymbolTableRecord
100
AcDbLayerTableRecord
  2
DIM
 70
     0
 62
     1
  6
CONTINUOUS
370
    -3
390
4020
  0
LAYER
  5
4008
330
2
100
AcDbSymbolTableRecord
100
AcDbLayerTableRecord
  2
TXT
 70
     0
 62
     3
  6
CONTINUOUS
370
    -3
390
4020
  0
LAYER
  5
4009
330
2
100
AcDbSymbolTableRecord
100
AcDbLayerTableRecord
  2
SILK
 70
     0
 62
     7
  6
CONTINUOUS
370
    -3
390
4020
  0
LAYER
  5
55F6
330
2
100
AcDbSymbolTableRecord
100
AcDbLayerTableRecord
  2
SLD-0
 70
     0
 62
     9
  6
CONTINUOUS
370
    -3
390
4020
  0
ENDTAB
  0
TABLE
  2
STYLE
  5
3
330
0
100
AcDbSymbolTable
 70
    10
  0
STYLE
  5
F
330
3
100
AcDbSymbolTableRecord
100
AcDbTextStyleTableRecord
  2
STANDARD
 70
     0
 40
0.0
 41
1.0
 50
0.0
 71
     0
 42
0.2
  3
txt
  4

  0
STYLE
  5
1E
330
3
100
AcDbSymbolTableRecord
100
AcDbTextStyleTableRecord
  2
ROMANS
 70
     0
 40
0.0
 41
1.0
 50
0.0
 71
     0
 42
4.0
  3
ROMANS.SHX
  4

  0
STYLE
  5
31E4
330
3
100
AcDbSymbolTableRecord
100
AcDbTextStyleTableRecord
  2
ARIAL
 70
     0
 40
0.0
 41
1.0
 50
0.0
 71
     0
 42
0.05
  3
arial.ttf
  4

1001
ACAD
1000
Arial
1071
       34
  0
STYLE
  5
55F7
330
3
100
AcDbSymbolTableRecord
100
AcDbTextStyleTableRecord
  2
SLDTEXTSTYLE0
 70
     0
 40
0.0
 41
0.7
 50
0.0
 71
     0
 42
0.2
  3
TXT
  4

  0
STYLE
  5
55F8
330
3
100
AcDbSymbolTableRecord
100
AcDbTextStyleTableRecord
  2
SLDTEXTSTYLE1
 70
     0
 40
0.0
 41
0.6381856540084389
 50
0.0
 71
     0
 42
0.2
  3
TXT
  4

  0
STYLE
  5
55F9
330
3
100
AcDbSymbolTableRecord
100
AcDbTextStyleTableRecord
  2
SLDTEXTSTYLE2
 70
     0
 40
0.0
 41
0.6457397730096305
 50
0.0
 71
     0
 42
0.2
  3
TXT
  4

  0
STYLE
  5
55FA
330
3
100
AcDbSymbolTableRecord
100
AcDbTextStyleTableRecord
  2
SLDTEXTSTYLE3
 70
     0
 40
0.0
 41
0.6502377399469584
 50
0.0
 71
     0
 42
0.2
  3
TXT
  4

  0
STYLE
  5
55FB
330
3
100
AcDbSymbolTableRecord
100
AcDbTextStyleTableRecord
  2
SLDTEXTSTYLE4
 70
     0
 40
0.0
 41
0.75
 50
0.0
 71
     0
 42
0.2
  3
TXT
  4

  0
STYLE
  5
55FC
330
3
100
AcDbSymbolTableRecord
100
AcDbTextStyleTableRecord
  2
SLDTEXTSTYLE5
 70
     0
 40
0.0
 41
0.57
 50
0.0
 71
     0
 42
0.2
  3
TXT
  4

  0
STYLE
  5
55FD
330
3
100
AcDbSymbolTableRecord
100
AcDbTextStyleTableRecord
  2
SLDTEXTSTYLE6
 70
     0
 40
0.0
 41
0.59
 50
0.0
 71
     0
 42
0.2
  3
TXT
  4

  0
ENDTAB
  0
TABLE
  2
VIEW
  5
6
330
0
100
AcDbSymbolTable
 70
     0
  0
ENDTAB
  0
TABLE
  2
UCS
  5
7
330
0
100
AcDbSymbolTable
 70
     0
  0
ENDTAB
  0
TABLE
  2
APPID
  5
9
330
0
100
AcDbSymbolTable
 70
     1
  0
APPID
  5
10
330
9
100
AcDbSymbolTableRecord
100
AcDbRegAppTableRecord
  2
ACAD
 70
     0
  0
ENDTAB
  0
TABLE
  2
DIMSTYLE
  5
A
330
0
100
AcDbSymbolTable
 70
     1
100
AcDbDimStyleTable
 71
     0
  0
DIMSTYLE
105
16E
330
A
100
AcDbSymbolTableRecord
100
AcDbDimStyleTableRecord
  2
STANDARD
 70
     0
340
F
  0
ENDTAB
  0
TABLE
  2
BLOCK_RECORD
  5
1
330
0
100
AcDbSymbolTable
 70
     2
  0
BLOCK_RECORD
  5
17
102
{ACAD_XDICTIONARY
360
404E
102
}
330
1
100
AcDbSymbolTableRecord
100
AcDbBlockTableRecord
  2
*MODEL_SPACE
340
4023
  0
BLOCK_RECORD
  5
14
102
{ACAD_XDICTIONARY
360
404C
102
}
330
1
100
AcDbSymbolTableRecord
100
AcDbBlockTableRecord
  2
*PAPER_SPACE
340
4024
  0
BLOCK_RECORD
  5
3CAC
330
1
100
AcDbSymbolTableRecord
100
AcDbBlockTableRecord
  2
REV-BLOCK
340
0
102
{BLKREFS
331
417F
102
}
  0
BLOCK_RECORD
  5
3CBF
330
1
100
AcDbSymbolTableRecord
100
AcDbBlockTableRecord
  2
TITLE-BLOCK
340
0
102
{BLKREFS
331
4186
102
}
  0
ENDTAB
  0
ENDSEC
  0
SECTION
  2
BLOCKS
  0
BLOCK
  5
29
330
17
100
AcDbEntity
  8
0
100
AcDbBlockBegin
  2
*MODEL_SPACE
 70
     0
 10
0.0
 20
0.0
 30
0.0
  3
*MODEL_SPACE
  1

  0
ENDBLK
  5
2A
330
17
100
AcDbEntity
  8
0
100
AcDbBlockEnd
  0
BLOCK
  5
27
330
14
100
AcDbEntity
 67
     1
  8
0
100
AcDbBlockBegin
  2
*PAPER_SPACE
 70
     0
 10
0.0
 20
0.0
 30
0.0
  3
*PAPER_SPACE
  1

  0
ENDBLK
  5
28
330
14
100
AcDbEntity
 67
     1
  8
0
100
AcDbBlockEnd
  0
BLOCK
  5
3CAD
330
3CAC
100
AcDbEntity
  8
0
100
AcDbBlockBegin
  2
REV-BLOCK
 70
     2
 10
0.0
 20
0.0
 30
0.0
  3
REV-BLOCK
  1

  0
ATTDEF
  5
3CAE
330
3CAC
100
AcDbEntity
  8
TB-TXT
100
AcDbText
 10
-7.41962634146294
 20
-0.2641364156046726
 30
0.0
 40
0.12
  1
--
  7
ARIAL
 72
     1
 11
-7.363760038598002
 21
-0.2041364156046725
 31
0.0
100
AcDbAttributeDefinition
  3
REV
  2
REV
 70
     0
 74
     2
  0
ATTDEF
  5
3CAF
330
3CAC
100
AcDbEntity
  8
TB-TXT
100
AcDbText
 10
-7.021598876369779
 20
-0.2621627084294076
 30
0.0
 40
0.12
  1

  7
ARIAL
100
AcDbAttributeDefinition
  3
ECN N0,
  2
ECN
 70
     0
  0
ATTDEF
  5
3CB0
330
3CAC
100
AcDbEntity
  8
TB-TXT
100
AcDbText
 10
-6.3841325538651
 20
-0.2621627084294076
 30
0.0
 40
0.12
  1

  7
ARIAL
100
AcDbAttributeDefinition
  3
DESCRIPTION
  2
DESCRIPTION
 70
     0
  0
ATTDEF
  5
3CB1
330
3CAC
100
AcDbEntity
  8
TB-TXT
100
AcDbText
 10
-1.912314371261913
 20
-0.2641364156046726
 30
0.0
 40
0.12
  1

  7
ARIAL
 72
     1
 11
-1.912314371261913
 21
-0.2041364156046725
 31
0.0
100
AcDbAttributeDefinition
  3
REV DATE
  2
REV-DATE
 70
     0
 74
     2
  0
ATTDEF
  5
3CB2
330
3CAC
100
AcDbEntity
  8
TB-TXT
100
AcDbText
 10
-0.7008820905977871
 20
-0.2641364156046726
 30
0.0
 40
0.12
  1

  7
ARIAL
 72
     1
 11
-0.7008820905977871
 21
-0.2041364156046725
 31
0.0
100
AcDbAttributeDefinition
  3
APPR
  2
APPR
 70
     0
 74
     2
  0
LWPOLYLINE
  5
3CB3
330
3CAC
100
AcDbEntity
  8
FORMAT
100
AcDbPolyline
 90
        2
 70
     0
 43
0.0198
 10
-7.66263347794009
 20
-0.4059699235454915
 10
0.0
 20
-0.4059699235454915
  0
ENDBLK
  5
3CB7
330
3CAC
100
AcDbEntity
  8
0
100
AcDbBlockEnd
  0
BLOCK
  5
3CC0
330
3CBF
100
AcDbEntity
  8
0
100
AcDbBlockBegin
  2
TITLE-BLOCK
 70
     2
 10
0.0
 20
0.0
 30
0.0
  3
TITLE-BLOCK
  1

  0
ATTDEF
  5
3CC1
330
3CBF
100
AcDbEntity
  8
TB-TXT
100
AcDbText
 10
-5.452069740892156
 20
1.724637434505384
 30
0.0
 40
0.15996
  1

  7
ARIAL
100
AcDbAttributeDefinition
  3
TITLE (LINE 1)
  2
LINE1
 70
     0
  0
ATTDEF
  5
3CC2
330
3CBF
100
AcDbEntity
  8
TB-TXT
100
AcDbText
 10
-5.452069740892156
 20
1.465654577362527
 30
0.0
 40
0.15996
  1

  7
ARIAL
100
AcDbAttributeDefinition
  3
TITLE (LINE 2)
  2
LINE2
 70
     0
  0
ATTDEF
  5
3CC3
330
3CBF
100
AcDbEntity
  8
TB-TXT
100
AcDbText
 10
-5.452069740892156
 20
1.20667172021967
 30
0.0
 40
0.15996
  1

  7
ARIAL
100
AcDbAttributeDefinition
  3
TITLE (LINE 3)
  2
LINE3
 70
     0
  0
ATTDEF
  5
3CC4
330
3CBF
100
AcDbEntity
  8
TB-TXT
100
AcDbText
 10
-5.452069740892156
 20
0.9476888630768137
 30
0.0
 40
0.15996
  1

  7
ARIAL
100
AcDbAttributeDefinition
  3
TITLE (LINE 4)
  2
LINE4
 70
     0
  0
ATTDEF
  5
3CC5
330
3CBF
100
AcDbEntity
  8
TB-TXT
100
AcDbText
 10
-2.607663526262058
 20
0.495823930069566
 30
0.0
 40
0.12
  1

  7
ARIAL
100
AcDbAttributeDefinition
  3
DWG NO.
  2
DWG#
 70
     0
  0
ATTDEF
  5
3CC6
330
3CBF
100
AcDbEntity
  8
TB-TXT
100
AcDbText
 10
-5.506905230490374
 20
0.1136078675417114
 30
0.0
 40
0.12
  1

  7
ARIAL
100
AcDbAttributeDefinition
  3
FILE NO.
  2
FILE#
 70
     0
  0
ATTDEF
  5
3CC7
330
3CBF
100
AcDbEntity
  8
TB-TXT
100
AcDbText
 10
-0.2425360425092862
 20
0.4881363695403174
 30
0.0
 40
0.12
  1

  7
ARIAL
 72
     4
 11
-0.2425360425092862
 21
0.4881363695403174
 31
0.0
100
AcDbAttributeDefinition
  3
REV
  2
REV
 70
     0
  0
ATTDEF
  5
3CC8
330
3CBF
100
AcDbEntity
  8
TB-TXT
100
AcDbText
 10
-4.485055143223689
 20
0.495823930069566
 30
0.0
 40
0.12
  1
FULL
  7
ARIAL
100
AcDbAttributeDefinition
  3
SCALE
  2
SCALE
 70
     0
  0
ATTDEF
  5
3CC9
330
3CBF
100
AcDbEntity
  8
TB-TXT
100
AcDbText
 10
-1.004564496465349
 20
0.0916846763858388
 30
0.0
 40
0.12
  1
1 OF 1
  7
ARIAL
100
AcDbAttributeDefinition
  3
SHEET N0.
  2
SHT#
 70
     0
  0
ENDBLK
  5
3CCA
330
3CBF
100
AcDbEntity
  8
0
100
AcDbBlockEnd
  0
ENDSEC
  0
SECTION
  2
ENTITIES
  0
TEXT
  5
40F8
330
17
100
AcDbEntity
  8
FORMAT
100
AcDbText
 10
27.2922243621056
 20
0.8984635216691145
 30
0.0
 40
0.16
  1
D
  7
ARIAL
100
AcDbText
  0
TEXT
  5
40F9
330
17
100
AcDbEntity
  8
FORMAT
  6
Continuous
100
AcDbText
 10
31.74897680763983
 20
0.1499999999999986
 30
0.0
 40
0.25
  1
H
  7
ARIAL
 72
     1
 11
31.875
 21
0.1499999999999986
 31
0.0
100
AcDbText
  0
TEXT
  5
40FA
330
17
100
AcDbEntity
  8
FORMAT
  6
Continuous
100
AcDbText
 10
27.49079126875852
 20
0.1499999999999986
 30
0.0
 40
0.25
  1
G
  7
ARIAL
 72
     1
 11
27.625
 21
0.1499999999999986
 31
0.0
100
AcDbText
  0
TEXT
  5
40FB
330
17
100
AcDbEntity
  8
FORMAT
  6
Continuous
100
AcDbText
 10
23.26202251023192
 20
0.1499999999999986
 30
0.0
 40
0.25
  1
F
  7
ARIAL
 72
     1
 11
23.37499999999999
 21
0.1499999999999986
 31
0.0
100
AcDbText
  0
TEXT
  5
40FC
330
17
100
AcDbEntity
  8
FORMAT
  6
Continuous
100
AcDbText
 10
19.00409276944065
 20
0.1499999999999986
 30
0.0
 40
0.25
  1
E
  7
ARIAL
 72
     1
 11
19.125
 21
0.1499999999999986
 31
0.0
100
AcDbText
  0
TEXT
  5
40FD
330
17
100
AcDbEntity
  8
FORMAT
  6
Continuous
100
AcDbText
 10
14.74471350613915
 20
0.1499999999999986
 30
0.0
 40
0.25
  1
D
  7
ARIAL
 72
     1
 11
14.875
 21
0.1499999999999986
 31
0.0
100
AcDbText
  0
TEXT
  5
40FE
330
17
100
AcDbEntity
  8
FORMAT
  6
Continuous
100
AcDbText
 10
6.255030695770805
 20
0.1499999999999986
 30
0.0
 40
0.25
  1
B
  7
ARIAL
 72
     1
 11
6.375
 21
0.1499999999999986
 31
0.0
100
AcDbText
  0
TEXT
  5
40FF
330
17
100
AcDbEntity
  8
FORMAT
  6
Continuous
100
AcDbText
 10
10.49710095497953
 20
0.1499999999999986
 30
0.0
 40
0.25
  1
C
  7
ARIAL
 72
     1
 11
10.625
 21
0.1499999999999986
 31
0.0
100
AcDbText
  0
TEXT
  5
4100
330
17
100
AcDbEntity
  8
FORMAT
  6
Continuous
100
AcDbText
 10
2.008526603001364
 20
0.1499999999999986
 30
0.0
 40
0.25
  1
A
  7
ARIAL
 72
     1
 11
2.125
 21
0.1499999999999986
 31
0.0
100
AcDbText
  0
TEXT
  5
4101
330
17
100
AcDbEntity
  8
FORMAT
  6
Continuous
100
AcDbText
 10
33.68998114106767
 20
19.125
 30
0.0
 40
0.25
  1
1
  7
ARIAL
 72
     2
 11
33.82009710286848
 21
19.125
 31
0.0
100
AcDbText
  0
TEXT
  5
4102
330
17
100
AcDbEntity
  8
FORMAT
  6
Continuous
100
AcDbText
 10
33.64427854898035
 20
13.625
 30
0.0
 40
0.25
  1
2
  7
ARIAL
 72
     2
 11
33.82009710286848
 21
13.625
 31
0.0
100
AcDbText
  0
TEXT
  5
4103
330
17
100
AcDbEntity
  8
FORMAT
  6
Continuous
100
AcDbText
 10
33.64172056807994
 20
8.125
 30
0.0
 40
0.25
  1
3
  7
ARIAL
 72
     2
 11
33.82009710286848
 21
8.125
 31
0.0
100
AcDbText
  0
TEXT
  5
4104
330
17
100
AcDbEntity
  8
FORMAT
  6
Continuous
100
AcDbText
 10
33.64274376044011
 20
2.625
 30
0.0
 40
0.25
  1
4
  7
ARIAL
 72
     2
 11
33.82009710286848
 21
2.625
 31
0.0
100
AcDbText
  0
TEXT
  5
4105
330
17
100
AcDbEntity
  8
FORMAT
  6
Continuous
100
AcDbText
 10
27.49079126875852
 20
21.59999999999999
 30
0.0
 40
0.25
  1
G
  7
ARIAL
 72
     1
 11
27.625
 21
21.59999999999999
 31
0.0
100
AcDbText
  0
TEXT
  5
4106
330
17
100
AcDbEntity
  8
FORMAT
100
AcDbText
 10
28.46644392275831
 20
0.6672081632976301
 30
0.0
 40
0.1088
  1
ACAD FILE NO.
  7
ARIAL
100
AcDbText
  0
LWPOLYLINE
  5
4107
330
17
100
AcDbEntity
  8
FORMAT
100
AcDbPolyline
 90
        2
 70
     0
 43
0.02
 10
27.61703378072079
 20
1.272892106623777
 10
27.61703378072079
 20
0.8236485696487072
  0
LWPOLYLINE
  5
410B
330
17
100
AcDbEntity
  8
FORMAT
100
AcDbPolyline
 90
        2
 70
     0
 43
0.02
 10
28.42063372699124
 20
0.8236485696487072
 10
28.42063372699124
 20
0.5
  0
LWPOLYLINE
  5
410F
330
17
100
AcDbEntity
  8
FORMAT
100
AcDbPolyline
 90
        2
 70
     0
 43
0.02
 10
31.81895966809327
 20
0.8236485696487072
 10
31.81895966809327
 20
0.5
  0
LWPOLYLINE
  5
4113
330
17
100
AcDbEntity
  8
FORMAT
100
AcDbPolyline
 90
        2
 70
     0
 43
0.02
 10
32.94931437403055
 20
1.272892106623777
 10
32.94931437403055
 20
0.8236485696487072
  0
LWPOLYLINE
  5
4117
330
17
100
AcDbEntity
  8
FORMAT
100
AcDbPolyline
 90
        2
 70
     0
 43
0.02
 10
27.12431506274814
 20
0.8236485696487072
 10
33.5
 20
0.8236485696487072
  0
LWPOLYLINE
  5
411B
330
17
100
AcDbEntity
  8
FORMAT
100
AcDbPolyline
 90
        2
 70
     0
 43
0.02
 10
27.12431506274814
 20
1.272892106623777
 10
33.5
 20
1.272892106623777
  0
LWPOLYLINE
  5
411F
330
17
100
AcDbEntity
  8
FORMAT
100
AcDbPolyline
 90
        2
 70
     0
 43
0.02
 10
27.12431506274814
 20
2.441891417892239
 10
33.5
 20
2.441891417892239
  0
LWPOLYLINE
  5
4123
330
17
100
AcDbEntity
  8
FORMAT
100
AcDbPolyline
 90
        2
 70
     0
 43
0.02
 10
22.60089726348933
 20
1.055516201635839
 10
27.12431293507279
 20
1.055507487567172
  0
LWPOLYLINE
  5
4127
330
17
100
AcDbEntity
  8
FORMAT
100
AcDbPolyline
 90
        2
 70
     0
 43
0.02
 10
22.60089513581397
 20
3.113332721452977
 10
22.60089726348933
 20
0.5
  0
LWPOLYLINE
  5
412B
330
17
100
AcDbEntity
  8
FORMAT
100
AcDbPolyline
 90
        2
 70
     0
 43
0.02
 10
27.12431506274814
 20
3.113341435521647
 10
27.12431506274814
 20
0.5
  0
LWPOLYLINE
  5
412F
330
17
100
AcDbEntity
  8
FORMAT
100
AcDbPolyline
 90
        3
 70
     0
 43
0.02
 10
19.55365650994497
 20
0.5
 10
19.55365654839636
 20
3.113341420836697
 10
33.5
 20
3.113341435521647
  0
TEXT
  5
4134
330
17
100
AcDbEntity
  8
FORMAT
100
AcDbText
 10
27.17012525851521
 20
0.6672081632976301
 30
0.0
 40
0.1088
  1
SCALE
  7
ARIAL
100
AcDbText
  0
TEXT
  5
4135
330
17
100
AcDbEntity
  8
FORMAT
  6
Continuous
100
AcDbText
 10
31.74897680763983
 20
21.59999999999999
 30
0.0
 40
0.25
  1
H
  7
ARIAL
 72
     1
 11
31.875
 21
21.59999999999999
 31
0.0
100
AcDbText
  0
LINE
  5
4136
330
17
100
AcDbEntity
  8
FORMAT
  6
Continuous
100
AcDbLine
 10
29.75
 20
21.49999999999999
 30
0.0
 11
29.75
 21
22.0
 31
0.0
  0
LINE
  5
4137
330
17
100
AcDbEntity
  8
FORMAT
  6
Continuous
100
AcDbLine
 10
33.5
 20
16.5
 30
0.0
 11
34.0
 21
16.5
 31
0.0
  0
LINE
  5
4138
330
17
100
AcDbEntity
  8
FORMAT
  6
Continuous
100
AcDbLine
 10
25.5
 20
21.49999999999999
 30
0.0
 11
25.5
 21
22.0
 31
0.0
  0
TEXT
  5
4139
330
17
100
AcDbEntity
  8
FORMAT
  6
Continuous
100
AcDbText
 10
23.26202251023192
 20
21.59999999999999
 30
0.0
 40
0.25
  1
F
  7
ARIAL
 72
     1
 11
23.37499999999999
 21
21.59999999999999
 31
0.0
100
AcDbText
  0
LINE
  5
413A
330
17
100
AcDbEntity
  8
FORMAT
  6
Continuous
100
AcDbLine
 10
21.25
 20
21.49999999999999
 30
0.0
 11
21.25
 21
22.0
 31
0.0
  0
TEXT
  5
413B
330
17
100
AcDbEntity
  8
FORMAT
  6
Continuous
100
AcDbText
 10
19.00409276944065
 20
21.59999999999999
 30
0.0
 40
0.25
  1
E
  7
ARIAL
 72
     1
 11
19.125
 21
21.59999999999999
 31
0.0
100
AcDbText
  0
LINE
  5
413C
330
17
100
AcDbEntity
  8
FORMAT
  6
Continuous
100
AcDbLine
 10
33.5
 20
11.0
 30
0.0
 11
33.696573
 21
10.88650899999999
 31
0.0
  0
LINE
  5
413D
330
17
100
AcDbEntity
  8
FORMAT
  6
Continuous
100
AcDbLine
 10
33.5
 20
11.0
 30
0.0
 11
34.0
 21
11.0
 31
0.0
  0
LINE
  5
413E
330
17
100
AcDbEntity
  8
FORMAT
  6
Continuous
100
AcDbLine
 10
33.5
 20
5.5
 30
0.0
 11
34.0
 21
5.5
 31
0.0
  0
LINE
  5
413F
330
17
100
AcDbEntity
  8
FORMAT
  6
Continuous
100
AcDbLine
 10
29.75
 20
0.0
 30
0.0
 11
29.75
 21
0.5
 31
0.0
  0
TEXT
  5
4140
330
17
100
AcDbEntity
  8
FORMAT
  6
Continuous
100
AcDbText
 10
26.57841112561099
 20
2.051152953348244
 30
0.0
 40
0.12
  1
0.005
  7
ARIAL
 72
     2
 11
26.99120785139544
 21
2.051152953348244
 31
0.0
100
AcDbText
  0
TEXT
  5
4141
330
17
100
AcDbEntity
  8
FORMAT
  6
Continuous
100
AcDbText
 10
26.57990001726632
 20
2.236977562228064
 30
0.0
 40
0.12
  1
0.01
  7
ARIAL
 72
     2
 11
26.8753979708816
 21
2.236977562228064
 31
0.0
100
AcDbText
  0
TEXT
  5
4142
330
17
100
AcDbEntity
  8
FORMAT
  6
Continuous
100
AcDbText
 10
26.57750599678259
 20
1.865328344468428
 30
0.0
 40
0.12
  1
0.5%%d
 51
1.0
  7
ARIAL
 72
     2
 11
26.86645551929283
 21
1.865328344468428
 31
0.0
100
AcDbText
  0
TEXT
  5
4143
330
17
100
AcDbEntity
  8
FORMAT
  6
Continuous
100
AcDbText
 10
25.85592567265782
 20
2.051152953348244
 30
0.0
 40
0.12
  1
.XXX = %%p
  7
ARIAL
 72
     2
 11
26.51461598643681
 21
2.051152953348244
 31
0.0
100
AcDbText
  0
TEXT
  5
4144
330
17
100
AcDbEntity
  8
FORMAT
  6
Continuous
100
AcDbText
 10
25.9677401337765
 20
2.236977562228064
 30
0.0
 40
0.12
  1
.XX = %%p
  7
ARIAL
 72
     2
 11
26.51461598643681
 21
2.236977562228064
 31
0.0
100
AcDbText
  0
TEXT
  5
4145
330
17
100
AcDbEntity
  8
FORMAT
  6
Continuous
100
AcDbText
 10
25.60913167538632
 20
1.865328344468428
 30
0.0
 40
0.12
  1
ANGLES:  %%p
  7
ARIAL
 72
     2
 11
26.51461598643681
 21
1.865328344468428
 31
0.0
100
AcDbText
  0
TEXT
  5
4146
330
17
100
AcDbEntity
  8
FORMAT
  6
Continuous
100
AcDbText
 10
26.57771921573429
 20
2.422802171107882
 30
0.0
 40
0.12
  1
0.1
  7
ARIAL
 72
     2
 11
26.77998388149146
 21
2.422802171107882
 31
0.0
100
AcDbText
  0
TEXT
  5
4147
330
17
100
AcDbEntity
  8
FORMAT
  6
Continuous
100
AcDbText
 10
23.22933118414733
 20
1.12281556394616
 30
0.0
 40
0.186
  1
DO NOT SCALE DRAWING
  7
ARIAL
 72
     1
 11
24.86260403544338
 21
1.12281556394616
 31
0.0
100
AcDbText
  0
TEXT
  5
4148
330
17
100
AcDbEntity
  8
FORMAT
  6
Continuous
100
AcDbText
 10
23.68896147064119
 20
1.398362308673736
 30
0.0
 40
0.12
  1
ALL DIMENSIONS IN INCHES. 
  7
ARIAL
 72
     1
 11
24.86260403544338
 21
1.398362308673736
 31
0.0
100
AcDbText
  0
TEXT
  5
4149
330
17
100
AcDbEntity
  8
FORMAT
  6
Continuous
100
AcDbText
 10
22.89431436012378
 20
1.598364381162374
 30
0.0
 40
0.12
  1
SURFACE FLATNESS .003 TIR PER LINEAR INCH  
  7
ARIAL
 72
     2
 11
26.84416429191095
 21
1.598364381162374
 31
0.0
100
AcDbText
  0
TEXT
  5
414A
330
17
100
AcDbEntity
  8
FORMAT
  6
Continuous
100
AcDbText
 10
22.67035950621852
 20
2.422802171107882
 30
0.0
 40
0.12
  1
TOLERANCE ON DECIMAL DIMENSIONS:   .X = %%p
  7
ARIAL
 72
     2
 11
26.51461598643681
 21
2.422802171107882
 31
0.0
100
AcDbText
  0
TEXT
  5
414B
330
17
100
AcDbEntity
  8
FORMAT
  6
Continuous
100
AcDbText
 10
22.75103520334062
 20
2.741378395140287
 30
0.0
 40
0.1899233025254706
  1
%%uUNLESS OTHERWISE SPECIFIED
  7
ARIAL
 72
     1
 11
24.86260403544338
 21
2.741378395140287
 31
0.0
100
AcDbText
  0
TEXT
  5
414C
330
17
100
AcDbEntity
  8
FORMAT
  6
Continuous
100
AcDbText
 10
23.21154877296527
 20
0.8019109791499126
 30
0.0
 40
0.124
  1
          THIRD ANGLE
  7
ARIAL
100
AcDbText
  0
LINE
  5
414D
330
17
100
AcDbEntity
  8
FORMAT
  6
Continuous
100
AcDbLine
 10
25.5
 20
0.0
 30
0.0
 11
25.5
 21
0.5
 31
0.0
  0
TEXT
  5
414E
330
17
100
AcDbEntity
  8
FORMAT
  6
Continuous
100
AcDbText
 10
23.21154877296527
 20
0.6043942372759084
 30
0.0
 40
0.124
  1
          PROJECTION 
  7
ARIAL
100
AcDbText
  0
LINE
  5
414F
330
17
100
AcDbEntity
  8
FORMAT
  6
Continuous
100
AcDbLine
 10
21.25
 20
0.0
 30
0.0
 11
21.25
 21
0.5
 31
0.0
  0
LINE
  5
4150
330
17
100
AcDbEntity
  8
FORMAT
  6
Continuous
100
AcDbLine
 10
33.696573
 20
10.88650899999999
 30
0.0
 11
33.696573
 21
11.113492
 31
0.0
  0
LINE
  5
4151
330
17
100
AcDbEntity
  8
FORMAT
  6
Continuous
100
AcDbLine
 10
33.696573
 20
11.113492
 30
0.0
 11
33.5
 21
11.0
 31
0.0
  0
HATCH
  5
4152
330
17
100
AcDbEntity
  8
FORMAT
  6
Continuous
100
AcDbHatch
 10
0.0
 20
0.0
 30
0.0
210
0.0
220
0.0
230
1.0
  2
ARROW_RIGHT
 70
     1
 71
     0
 91
        1
 92
        1
 93
        3
 72
     1
 10
33.5
 20
10.99999999999999
 11
33.696573
 21
10.88650899999999
 72
     1
 10
33.696573
 20
10.88650899999999
 11
33.696573
 21
11.11349199999999
 72
     1
 10
33.696573
 20
11.11349199999999
 11
33.5
 21
10.99999999999999
 97
        0
 75
     0
 76
     1
 98
        1
 10
0.25
 20
0.0
  0
LWPOLYLINE
  5
4153
330
17
100
AcDbEntity
  8
FORMAT
  6
PHANTOM
 48
10.0
100
AcDbPolyline
 90
        2
 70
     0
 43
0.001
 10
34.0
 20
0.0
 10
34.0
 20
22.0
  0
LINE
  5
4154
330
17
100
AcDbEntity
  8
FORMAT
  6
Continuous
100
AcDbLine
 10
16.88650799999999
 20
21.696573
 30
0.0
 11
17.0
 21
21.49999999999999
 31
0.0
  0
LINE
  5
4155
330
17
100
AcDbEntity
  8
FORMAT
  6
Continuous
100
AcDbLine
 10
17.0
 20
21.49999999999999
 30
0.0
 11
17.0
 21
22.0
 31
0.0
  0
TEXT
  5
4156
330
17
100
AcDbEntity
  8
FORMAT
  6
Continuous
100
AcDbText
 10
14.74471350613915
 20
21.59999999999999
 30
0.0
 40
0.25
  1
D
  7
ARIAL
 72
     1
 11
14.875
 21
21.59999999999999
 31
0.0
100
AcDbText
  0
LINE
  5
4157
330
17
100
AcDbEntity
  8
FORMAT
  6
Continuous
100
AcDbLine
 10
12.75
 20
21.49999999999999
 30
0.0
 11
12.75
 21
22.0
 31
0.0
  0
TEXT
  5
4158
330
17
100
AcDbEntity
  8
FORMAT
  6
Continuous
100
AcDbText
 10
10.49710095497953
 20
21.59999999999999
 30
0.0
 40
0.25
  1
C
  7
ARIAL
 72
     1
 11
10.625
 21
21.59999999999999
 31
0.0
100
AcDbText
  0
LINE
  5
4159
330
17
100
AcDbEntity
  8
FORMAT
  6
Continuous
100
AcDbLine
 10
8.5
 20
21.49999999999999
 30
0.0
 11
8.5
 21
22.0
 31
0.0
  0
LINE
  5
415A
330
17
100
AcDbEntity
  8
FORMAT
  6
Continuous
100
AcDbLine
 10
4.25
 20
21.49999999999999
 30
0.0
 11
4.25
 21
22.0
 31
0.0
  0
TEXT
  5
415B
330
17
100
AcDbEntity
  8
FORMAT
  6
Continuous
100
AcDbText
 10
2.008526603001364
 20
21.59999999999999
 30
0.0
 40
0.25
  1
A
  7
ARIAL
 72
     1
 11
2.125
 21
21.59999999999999
 31
0.0
100
AcDbText
  0
TEXT
  5
415C
330
17
100
AcDbEntity
  8
FORMAT
  6
Continuous
100
AcDbText
 10
0.1698840381991786
 20
19.125
 30
0.0
 40
0.25
  1
1
  7
ARIAL
 72
     2
 11
0.2999999999999971
 21
19.125
 31
0.0
100
AcDbText
  0
LINE
  5
415D
330
17
100
AcDbEntity
  8
FORMAT
  6
Continuous
100
AcDbLine
 10
0.0
 20
16.5
 30
0.0
 11
0.5
 21
16.5
 31
0.0
  0
TEXT
  5
415E
330
17
100
AcDbEntity
  8
FORMAT
  6
Continuous
100
AcDbText
 10
0.1241814461118662
 20
13.625
 30
0.0
 40
0.25
  1
2
  7
ARIAL
 72
     2
 11
0.2999999999999971
 21
13.625
 31
0.0
100
AcDbText
  0
TEXT
  5
415F
330
17
100
AcDbEntity
  8
FORMAT
  6
Continuous
100
AcDbText
 10
6.255030695770805
 20
21.59999999999999
 30
0.0
 40
0.25
  1
B
  7
ARIAL
 72
     1
 11
6.375
 21
21.59999999999999
 31
0.0
100
AcDbText
  0
LINE
  5
4160
330
17
100
AcDbEntity
  8
FORMAT
  6
Continuous
100
AcDbLine
 10
17.0
 20
0.5
 30
0.0
 11
16.88650899999998
 21
0.3034269999999992
 31
0.0
  0
LINE
  5
4161
330
17
100
AcDbEntity
  8
FORMAT
  6
Continuous
100
AcDbLine
 10
17.0
 20
0.0
 30
0.0
 11
17.0
 21
0.5
 31
0.0
  0
LINE
  5
4162
330
17
100
AcDbEntity
  8
FORMAT
  6
Continuous
100
AcDbLine
 10
12.75
 20
0.0
 30
0.0
 11
12.75
 21
0.5
 31
0.0
  0
LINE
  5
4163
330
17
100
AcDbEntity
  8
FORMAT
  6
Continuous
100
AcDbLine
 10
8.5
 20
0.0
 30
0.0
 11
8.5
 21
0.5
 31
0.0
  0
LINE
  5
4164
330
17
100
AcDbEntity
  8
FORMAT
  6
Continuous
100
AcDbLine
 10
0.3034269999999992
 20
10.88650799999999
 30
0.0
 11
0.5
 21
11.0
 31
0.0
  0
LINE
  5
4165
330
17
100
AcDbEntity
  8
FORMAT
  6
Continuous
100
AcDbLine
 10
0.0
 20
11.0
 30
0.0
 11
0.5
 21
11.0
 31
0.0
  0
TEXT
  5
4166
330
17
100
AcDbEntity
  8
FORMAT
  6
Continuous
100
AcDbText
 10
0.1216234652114569
 20
8.125
 30
0.0
 40
0.25
  1
3
  7
ARIAL
 72
     2
 11
0.2999999999999971
 21
8.125
 31
0.0
100
AcDbText
  0
LINE
  5
4167
330
17
100
AcDbEntity
  8
FORMAT
  6
Continuous
100
AcDbLine
 10
0.0
 20
5.5
 30
0.0
 11
0.5
 21
5.5
 31
0.0
  0
LINE
  5
4168
330
17
100
AcDbEntity
  8
FORMAT
  6
Continuous
100
AcDbLine
 10
4.25
 20
0.0
 30
0.0
 11
4.25
 21
0.5
 31
0.0
  0
TEXT
  5
4169
330
17
100
AcDbEntity
  8
FORMAT
  6
Continuous
100
AcDbText
 10
0.1226466575716206
 20
2.625
 30
0.0
 40
0.25
  1
4
  7
ARIAL
 72
     2
 11
0.2999999999999971
 21
2.625
 31
0.0
100
AcDbText
  0
LINE
  5
416A
330
17
100
AcDbEntity
  8
FORMAT
  6
Continuous
100
AcDbLine
 10
0.5
 20
11.0
 30
0.0
 11
0.3034269999999992
 21
11.11349099999999
 31
0.0
  0
LINE
  5
416B
330
17
100
AcDbEntity
  8
FORMAT
  6
Continuous
100
AcDbLine
 10
0.3034269999999992
 20
11.11349099999999
 30
0.0
 11
0.3034269999999992
 21
10.88650799999999
 31
0.0
  0
LWPOLYLINE
  5
416C
330
17
100
AcDbEntity
  8
FORMAT
  6
PHANTOM
 48
10.0
100
AcDbPolyline
 90
        2
 70
     0
 43
0.001
 10
0.0
 20
22.0
 10
0.0
 20
0.0
  0
HATCH
  5
416D
330
17
100
AcDbEntity
  8
FORMAT
  6
Continuous
100
AcDbHatch
 10
0.0
 20
0.0
 30
0.0
210
0.0
220
0.0
230
1.0
  2
ARROW_LEFT
 70
     1
 71
     0
 91
        1
 92
        1
 93
        3
 72
     1
 10
0.3034269999999992
 20
10.88650799999999
 11
0.4999999999999992
 21
10.99999999999999
 72
     1
 10
0.5
 20
10.99999999999999
 11
0.3034270000000001
 21
11.11349099999999
 72
     1
 10
0.3034269999999992
 20
11.11349099999999
 11
0.3034269999999992
 21
10.88650799999999
 97
        0
 75
     0
 76
     1
 98
        1
 10
-0.25
 20
0.0
  0
LINE
  5
416E
330
17
100
AcDbEntity
  8
FORMAT
  6
Continuous
100
AcDbLine
 10
17.11349099999999
 20
21.696573
 30
0.0
 11
16.88650799999999
 21
21.696573
 31
0.0
  0
LINE
  5
416F
330
17
100
AcDbEntity
  8
FORMAT
  6
Continuous
100
AcDbLine
 10
17.0
 20
21.49999999999999
 30
0.0
 11
17.11349099999999
 21
21.696573
 31
0.0
  0
LINE
  5
4170
330
17
100
AcDbEntity
  8
FORMAT
  6
Continuous
100
AcDbLine
 10
17.11349199999999
 20
0.3034269999999992
 30
0.0
 11
17.0
 21
0.5
 31
0.0
  0
LINE
  5
4171
330
17
100
AcDbEntity
  8
FORMAT
  6
Continuous
100
AcDbLine
 10
16.88650899999998
 20
0.3034269999999992
 30
0.0
 11
17.11349199999999
 21
0.3034269999999992
 31
0.0
  0
LWPOLYLINE
  5
4172
330
17
100
AcDbEntity
  8
FORMAT
  6
PHANTOM
 48
10.0
100
AcDbPolyline
 90
        2
 70
     0
 43
0.001
 10
0.0
 20
0.0
 10
34.0
 20
0.0
  0
HATCH
  5
4173
330
17
100
AcDbEntity
  8
FORMAT
  6
Continuous
100
AcDbHatch
 10
0.0
 20
0.0
 30
0.0
210
0.0
220
0.0
230
1.0
  2
ARROW_BOTTOM
 70
     1
 71
     0
 91
        1
 92
        1
 93
        3
 72
     1
 10
17.11349199999999
 20
0.3034269999999992
 11
16.99999999999999
 21
0.5
 72
     1
 10
17.0
 20
0.5
 11
16.886509
 21
0.3034269999999992
 72
     1
 10
16.88650899999998
 20
0.3034269999999992
 11
17.11349199999999
 21
0.3034269999999992
 97
        0
 75
     0
 76
     1
 98
        1
 10
0.0
 20
0.0
  0
HATCH
  5
4174
330
17
100
AcDbEntity
  8
FORMAT
  6
Continuous
100
AcDbHatch
 10
0.0
 20
0.0
 30
0.0
210
0.0
220
0.0
230
1.0
  2
ARROW_TOP
 70
     1
 71
     0
 91
        1
 92
        1
 93
        3
 72
     1
 10
17.11349099999999
 20
21.696573
 11
16.88650799999999
 21
21.696573
 72
     1
 10
16.88650799999999
 20
21.696573
 11
16.99999999999999
 21
21.49999999999999
 72
     1
 10
17.0
 20
21.49999999999999
 11
17.113491
 21
21.696573
 97
        0
 75
     0
 76
     1
 98
        1
 10
0.0
 20
0.0
  0
LWPOLYLINE
  5
4175
330
17
100
AcDbEntity
  8
FORMAT
  6
PHANTOM
 48
10.0
100
AcDbPolyline
 90
        2
 70
     0
 43
0.001
 10
34.0
 20
22.0
 10
0.0
 20
22.0
  0
TEXT
  5
4176
330
17
100
AcDbEntity
  8
TXT
100
AcDbText
 10
13.25165097349319
 20
0.7815415536662798
 30
0.0
 40
0.2
  1
PER EU DIRECTIVE 2002/95/EC
  7
ARIAL
100
AcDbText
  0
TEXT
  5
4177
330
17
100
AcDbEntity
  8
TXT
100
AcDbText
 10
13.25165097349319
 20
1.131541553666281
 30
0.0
 40
0.2
  1
SPECIFIED SHALL BE RoHS COMPLIANT
  7
ARIAL
100
AcDbText
  0
TEXT
  5
4178
330
17
100
AcDbEntity
  8
TXT
100
AcDbText
 10
13.25165097349319
 20
1.481541553666282
 30
0.0
 40
0.2
  1
UNLESS OTHERWISE STATED, THE ARTICLE
  7
ARIAL
100
AcDbText
  0
LWPOLYLINE
  5
4179
102
{ACAD_REACTORS
330
417E
102
}
330
17
100
AcDbEntity
  8
FORMAT
100
AcDbPolyline
 90
       10
 70
     1
 43
0.0
 10
28.84812546490569
 20
2.560038189765117
 10
29.00159362169353
 20
2.6889965139272
 10
29.11376411899891
 20
2.560038189765117
 10
29.32737967356207
 20
2.560038189765117
 10
29.13999480838106
 20
2.775467725762407
 42
0.0105244554857435
 10
28.88886932108983
 20
2.773755392477088
 10
28.66271243457582
 20
2.58371718720382
 10
28.69329665119762
 20
2.76722248693467
 42
0.0083241925565687
 10
28.52763063088184
 20
2.75943994238878
 10
28.49439700544456
 20
2.560038189765117
  0
LWPOLYLINE
  5
417A
102
{ACAD_REACTORS
330
417E
102
}
330
17
100
AcDbEntity
  8
FORMAT
100
AcDbPolyline
 90
        7
 70
     1
 43
0.0
 10
27.85379733476327
 20
2.669165529635449
 10
27.89252030058969
 20
2.560038189765117
 10
28.22439509774364
 20
2.560038189765117
 10
28.2534481466875
 20
2.734356483428371
 42
0.0085307115550227
 10
28.08505320817211
 20
2.711324292315012
 10
28.06284416794594
 20
2.577987260808255
 10
28.01571075607803
 20
2.699450484025899
 42
0.014633201278307
  0
LWPOLYLINE
  5
417B
102
{ACAD_REACTORS
330
417E
102
}
330
17
100
AcDbEntity
  8
FORMAT
100
AcDbPolyline
 90
        4
 70
     1
 43
0.0
 10
27.82625138631124
 20
2.746301120733491
 10
27.82647137730056
 20
2.746087929262984
 10
27.78730301109048
 20
2.857448970448498
 10
27.71638256267897
 20
2.746087929262984
  0
LWPOLYLINE
  5
417C
102
{ACAD_REACTORS
330
417E
102
}
330
17
100
AcDbEntity
  8
FORMAT
100
AcDbPolyline
 90
        4
 70
     1
 43
0.0
 10
27.89524244557755
 20
3.009898395795563
 10
27.99604627712901
 20
2.75012602185323
 42
0.0660149720166298
 10
27.42096358594918
 20
2.560038189765119
 10
27.72221440253551
 20
3.009898395795563
  0
LWPOLYLINE
  5
417D
102
{ACAD_REACTORS
330
417E
102
}
330
17
100
AcDbEntity
  8
FORMAT
100
AcDbPolyline
 90
       13
 70
     1
 43
0.0
 10
29.38348614891178
 20
3.009898395795563
 10
29.19279654184188
 20
2.849663121732444
 42
0.0022906596071181
 10
28.86759586955777
 20
2.843048835812439
 10
28.73192948971407
 20
2.999019518033357
 10
28.70471702376885
 20
2.835744722362004
 42
0.0274655559228494
 10
28.09477463227537
 20
2.769689076148374
 10
28.13478466086577
 20
3.009898395795563
 10
28.27250800784915
 20
3.009898395795563
 10
28.40846516441128
 20
2.86109542429461
 10
28.59422335947938
 20
3.009898395795563
 10
28.93608238153996
 20
3.009898395795563
 10
29.03481323325339
 20
2.896391141339901
 10
29.16989368840465
 20
3.009898395795563
  0
HATCH
  5
417E
330
17
100
AcDbEntity
  8
FORMAT
100
AcDbHatch
 10
0.0
 20
0.0
 30
0.0
210
0.0
220
0.0
230
1.0
  2
SOLID
 70
     1
 71
     1
 91
        5
 92
        1
 93
        4
 72
     1
 10
27.89524244557755
 20
3.009898395795563
 11
27.99604627712901
 21
2.75012602185323
 72
     2
 10
28.42523413703466
 20
0.4867236379588187
 40
2.303734483509177
 50
100.7369884767685
 51
115.8445848643794
 73
     1
 72
     1
 10
27.42096358594918
 20
2.560038189765119
 11
27.72221440253551
 21
3.009898395795563
 72
     1
 10
27.72221440253551
 20
3.009898395795563
 11
27.89524244557755
 21
3.009898395795563
 97
        1
330
417C
 92
       16
 93
        4
 72
     1
 10
27.82625138631124
 20
2.746301120733491
 11
27.82647137730056
 21
2.746087929262984
 72
     1
 10
27.82647137730056
 20
2.746087929262984
 11
27.78730301109048
 21
2.857448970448498
 72
     1
 10
27.78730301109048
 20
2.857448970448498
 11
27.71638256267897
 21
2.746087929262984
 72
     1
 10
27.71638256267897
 20
2.746087929262984
 11
27.82625138631124
 21
2.746301120733491
 97
        1
330
417B
 92
        1
 93
        7
 72
     1
 10
27.85379733476327
 20
2.669165529635449
 11
27.89252030058969
 21
2.560038189765117
 72
     1
 10
27.89252030058969
 20
2.560038189765117
 11
28.22439509774364
 21
2.560038189765117
 72
     1
 10
28.22439509774364
 20
2.560038189765117
 11
28.2534481466875
 21
2.734356483428371
 72
     2
 10
28.84418016139653
 20
-2.211762160162989
 40
4.98127031485787
 50
96.81077116038439
 51
98.7658188097698
 73
     1
 72
     1
 10
28.08505320817211
 20
2.711324292315012
 11
28.06284416794594
 21
2.577987260808255
 72
     1
 10
28.06284416794594
 20
2.577987260808255
 11
28.01571075607803
 21
2.699450484025899
 72
     2
 10
28.4520446382265
 20
-0.0812992519853255
 40
2.814774653686729
 50
98.91769894924955
 51
102.2711423007092
 73
     1
 97
        1
330
417A
 92
        1
 93
       13
 72
     1
 10
29.38348614891178
 20
3.009898395795563
 11
29.19279654184188
 21
2.849663121732444
 72
     2
 10
29.75206810599112
 20
-32.64549153385557
 40
35.49956040159622
 50
90.90269359832781
 51
91.4276731912744
 73
     1
 72
     1
 10
28.86759586955777
 20
2.843048835812439
 11
28.73192948971407
 21
2.999019518033357
 72
     1
 10
28.73192948971407
 20
2.999019518033357
 11
28.70471702376885
 21
2.835744722362004
 72
     2
 10
29.00055122292874
 20
-2.744979632338445
 40
5.588559939424407
 50
93.03440911951204
 51
99.32746877910854
 73
     1
 72
     1
 10
28.09477463227537
 20
2.769689076148374
 11
28.13478466086577
 21
3.009898395795563
 72
     1
 10
28.13478466086577
 20
3.009898395795563
 11
28.27250800784915
 21
3.009898395795563
 72
     1
 10
28.27250800784915
 20
3.009898395795563
 11
28.40846516441128
 21
2.86109542429461
 72
     1
 10
28.40846516441128
 20
2.86109542429461
 11
28.59422335947938
 21
3.009898395795563
 72
     1
 10
28.59422335947938
 20
3.009898395795563
 11
28.93608238153996
 21
3.009898395795563
 72
     1
 10
28.93608238153996
 20
3.009898395795563
 11
29.03481323325339
 21
2.896391141339901
 72
     1
 10
29.03481323325339
 20
2.896391141339901
 11
29.16989368840465
 21
3.009898395795563
 72
     1
 10
29.16989368840465
 20
3.009898395795563
 11
29.38348614891178
 21
3.009898395795563
 97
        1
330
417D
 92
        1
 93
       10
 72
     1
 10
28.84812546490569
 20
2.560038189765117
 11
29.00159362169353
 21
2.6889965139272
 72
     1
 10
29.00159362169353
 20
2.6889965139272
 11
29.11376411899891
 21
2.560038189765117
 72
     1
 10
29.11376411899891
 20
2.560038189765117
 11
29.32737967356207
 21
2.560038189765117
 72
     1
 10
29.32737967356207
 20
2.560038189765117
 11
29.13999480838106
 21
2.775467725762407
 72
     2
 10
29.05510266338243
 20
-3.190012262200435
 40
5.966083988938442
 50
89.18470377236852
 51
91.59664224690866
 73
     1
 72
     1
 10
28.88886932108983
 20
2.773755392477088
 11
28.66271243457582
 21
2.58371718720382
 72
     1
 10
28.66271243457582
 20
2.58371718720382
 11
28.69329665119762
 21
2.76722248693467
 72
     2
 10
28.84418016139635
 20
-2.211762160162928
 40
4.981270314857797
 50
91.73576423011793
 51
93.6434845729463
 73
     1
 72
     1
 10
28.52763063088184
 20
2.75943994238878
 11
28.49439700544456
 21
2.560038189765117
 72
     1
 10
28.49439700544456
 20
2.560038189765117
 11
28.84812546490569
 21
2.560038189765117
 97
        1
330
4179
 75
     0
 76
     1
 98
        1
 10
27.40349142259076
 20
2.321955963782295
  0
INSERT
  5
417F
330
17
100
AcDbEntity
  8
TB-TXT
100
AcDbBlockReference
 66
     1
  2
REV-BLOCK
 10
33.5
 20
20.80009599999999
 30
0.0
 41
0.969696969696969
 42
0.969696969696969
 43
0.969696969696969
  0
ATTRIB
  5
4180
330
417F
100
AcDbEntity
  8
TB-TXT
100
AcDbText
 10
26.29415910267664
 20
20.53214553638333
 30
0.0
 40
0.14
  1
A
  7
ARIAL
 72
     1
 11
26.35938420499587
 21
20.60214553638333
 31
0.0
100
AcDbAttribute
  2
REV
 70
     0
 74
     2
  0
ATTRIB
  5
4181
330
417F
100
AcDbEntity
  8
TB-TXT
100
AcDbText
 10
26.69157265819915
 20
20.53722017915365
 30
0.0
 40
0.14
  1
19993
  7
ARIAL
100
AcDbAttribute
  2
ECN
 70
     0
  0
ATTRIB
  5
4182
330
417F
100
AcDbEntity
  8
TB-TXT
100
AcDbText
 10
27.36529819403024
 20
20.53955040620385
 30
0.0
 40
0.14
  1
RELEASE TO PRODUCTION
  7
ARIAL
100
AcDbAttribute
  2
DESCRIPTION
 70
     0
  0
ATTRIB
  5
4183
330
417F
100
AcDbEntity
  8
TB-TXT
100
AcDbText
 10
31.26497970596885
 20
20.53214553638333
 30
0.0
 40
0.14
  1
07/03/12
  7
ARIAL
 72
     1
 11
31.64563454907936
 21
20.60214553638333
 31
0.0
100
AcDbAttribute
  2
REV-DATE
 70
     0
 74
     2
  0
ATTRIB
  5
4184
330
417F
100
AcDbEntity
  8
TB-TXT
100
AcDbText
 10
32.71707572379753
 20
20.53214553638333
 30
0.0
 40
0.14
  1
JL
  7
ARIAL
 72
     1
 11
32.82035676063244
 21
20.60214553638333
 31
0.0
100
AcDbAttribute
  2
APPR
 70
     0
 74
     2
  0
SEQEND
  5
4185
330
417F
100
AcDbEntity
  8
TB-TXT
  0
INSERT
  5
4186
330
17
100
AcDbEntity
  8
TB-TXT
100
AcDbBlockReference
 66
     1
  2
TITLE-BLOCK
 10
32.60259009549838
 20
0.4871808286051192
 30
0.0
 41
0.9696969696969773
 42
0.9696969696969773
 43
0.9696969696969773
  0
ATTRIB
  5
4187
330
4186
100
AcDbEntity
  8
TB-TXT
100
AcDbText
 10
27.31573458917869
 20
2.159556522670953
 30
0.0
 40
0.17
  1
PICTORIAL,
  7
ARIAL
100
AcDbAttribute
  2
LINE1
 70
     0
  0
ATTRIB
  5
4188
330
4186
100
AcDbEntity
  8
TB-TXT
100
AcDbText
 10
27.31573458917869
 20
1.908421630896071
 30
0.0
 40
0.17
  1
PS-POE-AT-TC, HIGH POWER POE INJECTOR, 
  7
ARIAL
100
AcDbAttribute
  2
LINE2
 70
     0
  0
ATTRIB
  5
4189
330
4186
100
AcDbEntity
  8
TB-TXT
100
AcDbText
 10
27.31573458917869
 20
1.657286739121175
 30
0.0
 40
0.17
  1
802.3AT COMPLIANT
  7
ARIAL
100
AcDbAttribute
  2
LINE3
 70
     0
  0
ATTRIB
  5
418A
330
4186
100
AcDbEntity
  8
TB-TXT
100
AcDbText
 10
27.31573458917869
 20
1.406151847346279
 30
0.0
 40
0.17
  1
 
  7
ARIAL
100
AcDbAttribute
  2
LINE4
 70
     0
  0
ATTRIB
  5
418B
330
4186
100
AcDbEntity
  8
TB-TXT
100
AcDbText
 10
28.67240744538594
 20
0.9393484331170611
 30
0.0
 40
0.17
  1
95-0423-84
  7
ARIAL
100
AcDbAttribute
  2
DWG#
 70
     0
  0
ATTRIB
  5
418C
330
4186
100
AcDbEntity
  8
TB-TXT
100
AcDbText
 10
29.67184955913904
 20
0.6131212011589185
 30
0.0
 40
0.1163636363636373
  1
 
  7
ARIAL
100
AcDbAttribute
  2
FILE#
 70
     0
  0
ATTRIB
  5
418D
330
4186
100
AcDbEntity
  8
TB-TXT
100
AcDbText
 10
33.15909260795084
 20
0.8971920186209283
 30
0.0
 40
0.17
  1
A
  7
ARIAL
 72
     4
 11
33.23829451790992
 21
0.9821920186209283
 31
0.0
100
AcDbAttribute
  2
REV
 70
     0
  0
ATTRIB
  5
418E
330
4186
100
AcDbEntity
  8
TB-TXT
100
AcDbText
 10
27.7341555078267
 20
0.5791391671473889
 30
0.0
 40
0.17
  1
1/1
  7
ARIAL
100
AcDbAttribute
  2
SCALE
 70
     0
  0
ATTRIB
  5
418F
330
4186
100
AcDbEntity
  8
TB-TXT
100
AcDbText
 10
32.56139344279876
 20
0.585935475765524
 30
0.0
 40
0.17
  1
1 OF 1
  7
ARIAL
100
AcDbAttribute
  2
SHT#
 70
     0
  0
SEQEND
  5
4190
330
4186
100
AcDbEntity
  8
TB-TXT
  0
TEXT
  5
4191
330
17
100
AcDbEntity
  8
FORMAT
100
AcDbText
 10
29.37565033606138
 20
2.561556359369892
 30
0.0
 40
0.0583271326082317
  1
TM
  7
ARIAL
 11
29.37565033606138
 21
2.590719925674008
 31
0.0
100
AcDbText
 73
     2
  0
TEXT
  5
4192
330
17
100
AcDbEntity
  8
FORMAT
  6
ByBlock
100
AcDbText
 10
31.43486788649962
 20
2.911254421449086
 30
0.0
 40
0.1035906873199564
  1
AMX LLC
 41
1.011836867459718
  7
ARIAL
100
AcDbText
  0
TEXT
  5
4193
330
17
100
AcDbEntity
  8
FORMAT
  6
ByBlock
100
AcDbText
 10
31.43486788649962
 20
2.733670985046202
 30
0.0
 40
0.1035906873199564
  1
3000 RESEARCH DRIVE
 41
1.011836867459718
  7
ARIAL
100
AcDbText
  0
TEXT
  5
4194
330
17
100
AcDbEntity
  8
FORMAT
  6
ByBlock
100
AcDbText
 10
31.4299650373904
 20
2.556087548643318
 30
0.0
 40
0.1035906873199564
  1
RICHARDSON, TX 75082
 41
1.018884921437547
  7
ARIAL
100
AcDbText
  0
LWPOLYLINE
  5
4195
330
17
100
AcDbEntity
  8
FORMAT
100
AcDbPolyline
 90
        2
 70
     0
 43
0.0192
 10
32.19495213158492
 20
20.24009599999999
 10
32.19495213158492
 20
21.14083199999999
  0
TEXT
  5
4196
330
17
100
AcDbEntity
  8
FORMAT
100
AcDbText
 10
32.37221851084823
 20
20.92767073851941
 30
0.0
 40
0.1152
  1
APPROVED
  7
ARIAL
 72
     1
 11
32.81498413158493
 21
20.92767073851941
 31
0.0
100
AcDbText
  0
LWPOLYLINE
  5
4197
330
17
100
AcDbEntity
  8
FORMAT
100
AcDbPolyline
 90
        2
 70
     0
 43
0.0192
 10
31.07495213158492
 20
20.24009599999999
 10
31.07495213158492
 20
21.14083199999999
  0
TEXT
  5
4198
330
17
100
AcDbEntity
  8
FORMAT
100
AcDbText
 10
29.20523009782781
 20
21.23746077739912
 30
0.0
 40
0.1536
  1
REVISIONS
  7
ARIAL
 72
     1
 11
29.79233623698198
 21
21.23746077739912
 31
0.0
100
AcDbText
  0
LWPOLYLINE
  5
4199
330
17
100
AcDbEntity
  8
FORMAT
100
AcDbPolyline
 90
        2
 70
     0
 43
0.0192
 10
27.25043331858677
 20
20.24009599999999
 10
27.25043331858677
 20
21.14083199999999
  0
LWPOLYLINE
  5
419A
330
17
100
AcDbEntity
  8
FORMAT
100
AcDbPolyline
 90
        2
 70
     0
 43
0.0192
 10
26.62956753654293
 20
20.24009599999999
 10
26.62956753654293
 20
21.14083199999999
  0
TEXT
  5
419B
330
17
100
AcDbEntity
  8
FORMAT
100
AcDbText
 10
26.74328549335555
 20
20.92767073851941
 30
0.0
 40
0.1152
  1
ECN
  7
ARIAL
 72
     1
 11
26.91294224642513
 21
20.92767073851941
 31
0.0
100
AcDbText
  0
TEXT
  5
419C
330
17
100
AcDbEntity
  8
FORMAT
100
AcDbText
 10
26.1817924510636
 20
20.92767073851941
 30
0.0
 40
0.1152
  1
REV
  7
ARIAL
 72
     1
 11
26.35294224642513
 21
20.92767073851941
 31
0.0
100
AcDbText
  0
LWPOLYLINE
  5
419D
330
17
100
AcDbEntity
  8
FORMAT
100
AcDbPolyline
 90
        2
 70
     0
 43
0.0256
 10
26.06956753654294
 20
21.49999999999999
 10
26.06956753654294
 20
20.24009599999999
  0
TEXT
  5
419E
330
17
100
AcDbEntity
  8
FORMAT
100
AcDbText
 10
28.60405512708991
 20
20.92767073851941
 30
0.0
 40
0.1152
  1
DESCRIPTION
  7
ARIAL
 72
     1
 11
29.1535732717011
 21
20.92767073851941
 31
0.0
100
AcDbText
  0
TEXT
  5
419F
330
17
100
AcDbEntity
  8
FORMAT
100
AcDbText
 10
31.39849299925204
 20
20.92767073851941
 30
0.0
 40
0.1152
  1
DATE
  7
ARIAL
 72
     1
 11
31.61498413158492
 21
20.92767073851941
 31
0.0
100
AcDbText
  0
LWPOLYLINE
  5
41A0
330
17
100
AcDbEntity
  8
FORMAT
100
AcDbPolyline
 90
        2
 70
     0
 43
0.0192
 10
26.06956753654294
 20
21.14083199999999
 10
33.5
 20
21.14083199999999
  0
LWPOLYLINE
  5
41A1
330
17
100
AcDbEntity
  8
FORMAT
100
AcDbPolyline
 90
        2
 70
     0
 43
0.0192
 10
26.06956753654294
 20
20.80009599999999
 10
33.5
 20
20.80009599999999
  0
TEXT
  5
41A2
330
17
100
AcDbEntity
  8
FORMAT
100
AcDbText
 10
33.07693135410495
 20
1.112168497683782
 30
0.0
 40
0.1088
  1
REV.
  7
ARIAL
 72
     1
 11
33.25367569244056
 21
1.112168497683782
 31
0.0
100
AcDbText
  0
TEXT
  5
41A3
330
17
100
AcDbEntity
  8
FORMAT
100
AcDbText
 10
31.85237387102683
 20
0.6672081632976301
 30
0.0
 40
0.1163636363636364
  1
SHEET
  7
ARIAL
100
AcDbText
  0
TEXT
  5
41A4
330
17
100
AcDbEntity
  8
FORMAT
100
AcDbText
 10
27.68095276043268
 20
1.112168497683782
 30
0.0
 40
0.1088
  1
DWG. NO.
  7
ARIAL
100
AcDbText
  0
TEXT
  5
41A5
330
17
100
AcDbEntity
  8
FORMAT
100
AcDbText
 10
27.18997948867459
 20
1.112168497683782
 30
0.0
 40
0.1088
  1
SIZE
  7
ARIAL
100
AcDbText
  0
LWPOLYLINE
  5
41A6
330
17
100
AcDbEntity
  8
FORMAT
100
AcDbPolyline
 90
        2
 70
     0
 43
0.0128
 10
25.63662467048089
 20
0.8009602925574199
 10
25.78320002298025
 20
0.8009602925574199
  0
LWPOLYLINE
  5
41A7
330
17
100
AcDbEntity
  8
FORMAT
100
AcDbPolyline
 90
        2
 70
     1
 43
0.0128
 10
25.7476715218181
 20
0.8009602925574199
 42
0.9999999999999998
 10
25.4116715218181
 20
0.8009602925574199
 42
1.0
  0
LWPOLYLINE
  5
41A8
330
17
100
AcDbEntity
  8
FORMAT
100
AcDbPolyline
 90
        2
 70
     1
 43
0.0128
 10
25.6564715218181
 20
0.8009602925574199
 42
0.9999999999999998
 10
25.50287152181811
 20
0.8009602925574199
 42
1.0
  0
LWPOLYLINE
  5
41A9
330
17
100
AcDbEntity
  8
FORMAT
100
AcDbPolyline
 90
        2
 70
     0
 43
0.0128
 10
25.57967152181811
 20
1.023234780957793
 10
25.57967152181811
 20
0.8579134412198783
  0
LWPOLYLINE
  5
41AA
330
17
100
AcDbEntity
  8
FORMAT
100
AcDbPolyline
 90
        2
 70
     0
 43
0.0128
 10
25.55471837315534
 20
0.8009602925574199
 10
25.60462467048087
 20
0.8009602925574199
  0
LWPOLYLINE
  5
41AB
330
17
100
AcDbEntity
  8
FORMAT
100
AcDbPolyline
 90
        2
 70
     0
 43
0.0128
 10
25.57967152181811
 20
0.7440071438953453
 10
25.57967152181811
 20
0.5836946164949382
  0
LWPOLYLINE
  5
41AC
330
17
100
AcDbEntity
  8
FORMAT
100
AcDbPolyline
 90
        2
 70
     0
 43
0.0128
 10
25.57967152181811
 20
0.8259134412194555
 10
25.57967152181811
 20
0.7760071438963081
  0
LWPOLYLINE
  5
41AD
330
17
100
AcDbEntity
  8
FORMAT
100
AcDbPolyline
 90
        2
 70
     0
 43
0.0128
 10
25.3654010850568
 20
0.8009602925574199
 10
25.52271837315531
 20
0.8009602925574199
  0
LWPOLYLINE
  5
41AE
330
17
100
AcDbEntity
  8
FORMAT
  6
CENTER
100
AcDbPolyline
 90
        2
 70
     0
 43
0.0128
 10
25.81066408562731
 20
0.8009602925574199
 10
26.43894105695028
 20
0.8009602925574199
  0
LWPOLYLINE
  5
41AF
330
17
100
AcDbEntity
  8
FORMAT
100
AcDbPolyline
 90
        4
 70
     1
 43
0.0128
 10
26.0118528121386
 20
0.8777602925574115
 10
26.35745281213861
 20
0.9689602925574121
 10
26.3574528121386
 20
0.6372473945541799
 10
26.0118528121386
 20
0.7241602925574142
  0
TEXT
  5
41B0
330
17
100
AcDbEntity
  8
FORMAT
100
AcDbText
 10
19.75495393651598
 20
0.6510078903925703
 30
0.0
 40
0.131328
  1
written permission.
  7
ARIAL
100
AcDbText
  0
TEXT
  5
41B1
330
17
100
AcDbEntity
  8
FORMAT
100
AcDbText
 10
19.74984773187751
 20
1.96876701726844
 30
0.0
 40
0.131328
  1
shall be confidential except
  7
ARIAL
100
AcDbText
  0
TEXT
  5
41B2
330
17
100
AcDbEntity
  8
FORMAT
100
AcDbText
 10
19.7415165558884
 20
2.85100570758221
 30
0.0
 40
0.131328
  1
NOTICE:   This drawing is the 
  7
ARIAL
100
AcDbText
  0
TEXT
  5
41B3
330
17
100
AcDbEntity
  8
FORMAT
100
AcDbText
 10
19.74339778917627
 20
2.629886144144286
 30
0.0
 40
0.131328
  1
property of AMX LLC.
  7
ARIAL
100
AcDbText
  0
TEXT
  5
41B4
330
17
100
AcDbEntity
  8
FORMAT
100
AcDbText
 10
19.75226646039044
 20
2.18988658070635
 30
0.0
 40
0.131328
  1
that is not generally known 
  7
ARIAL
100
AcDbText
  0
TEXT
  5
41B5
330
17
100
AcDbEntity
  8
FORMAT
100
AcDbText
 10
19.75226646039044
 20
1.747647453830502
 30
0.0
 40
0.131328
  1
to the extent the information
  7
ARIAL
100
AcDbText
  0
TEXT
  5
41B6
330
17
100
AcDbEntity
  8
FORMAT
100
AcDbText
 10
19.74339778917627
 20
1.528767453830504
 30
0.0
 40
0.131328
  1
has been previously established.
  7
ARIAL
100
AcDbText
  0
TEXT
  5
41B7
330
17
100
AcDbEntity
  8
FORMAT
100
AcDbText
 10
19.75119146994023
 20
1.309887453830505
 30
0.0
 40
0.131328
  1
This drawing may not be copied,
  7
ARIAL
100
AcDbText
  0
TEXT
  5
41B8
330
17
100
AcDbEntity
  8
FORMAT
100
AcDbText
 10
19.75378936352825
 20
0.869887890392583
 30
0.0
 40
0.131328
  1
for manufacture or sale without
  7
ARIAL
100
AcDbText
  0
TEXT
  5
41B9
330
17
100
AcDbEntity
  8
FORMAT
100
AcDbText
 10
19.74357695425132
 20
1.091007453830492
 30
0.0
 40
0.131328
  1
reproduced, or used as the basis
  7
ARIAL
100
AcDbText
  0
TEXT
  5
41BA
330
17
100
AcDbEntity
  8
FORMAT
100
AcDbText
 10
19.74330820663874
 20
2.408766580706362
 30
0.0
 40
0.131328
  1
All information contained herein
  7
ARIAL
100
AcDbText
  0
LWPOLYLINE
  5
41BB
330
17
100
AcDbEntity
  8
FORMAT
100
AcDbPolyline
 90
        4
 70
     1
 43
0.0290909090909091
 10
0.5
 20
0.5
 10
33.5
 20
0.5
 10
33.5
 20
21.49999999999999
 10
0.5
 20
21.49999999999999
  0
LINE
  5
56FC
330
17
100
AcDbEntity
  8
PART
100
AcDbLine
 10
12.91124232087233
 20
10.15884824082842
 30
0.0
 11
18.17723950810757
 21
10.15884824082842
 31
0.0
  0
LINE
  5
56FF
330
17
100
AcDbEntity
  8
PART
100
AcDbLine
 10
12.91071380081417
 20
11.45884824082842
 30
0.0
 11
18.17776802816572
 21
11.45884824082842
 31
0.0
  0
LINE
  5
5700
330
17
100
AcDbEntity
  8
PART
100
AcDbLine
 10
6.32739741805782
 20
11.52138941675431
 30
0.0
 11
8.192954963695399
 21
11.52138941675431
 31
0.0
  0
LINE
  5
5701
330
17
100
AcDbEntity
  8
PART
100
AcDbLine
 10
6.327815911833818
 20
10.22138941675431
 30
0.0
 11
6.407676161585383
 21
10.22138941675431
 31
0.0
  0
LINE
  5
5702
330
17
100
AcDbEntity
  8
PART
100
AcDbLine
 10
12.84924091448995
 20
10.84384824082842
 30
0.0
 11
12.84924091448995
 21
10.87884824082842
 31
0.0
  0
LINE
  5
5703
330
17
100
AcDbEntity
  8
PART
100
AcDbLine
 10
18.23924091448995
 20
10.84384824082842
 30
0.0
 11
18.23924091448995
 21
10.87884824082842
 31
0.0
  0
LINE
  5
5706
330
17
100
AcDbEntity
  8
PART
100
AcDbLine
 10
12.81424091448995
 20
10.87884824082842
 30
0.0
 11
18.27424091448995
 21
10.87884824082842
 31
0.0
  0
LINE
  5
5707
330
17
100
AcDbEntity
  8
PART
100
AcDbLine
 10
12.81424091448995
 20
10.84384824082842
 30
0.0
 11
18.27424091448995
 21
10.84384824082842
 31
0.0
  0
LINE
  5
5708
330
17
100
AcDbEntity
  8
PART
100
AcDbLine
 10
6.236676190876609
 20
10.90638941675431
 30
0.0
 11
6.739676161585384
 21
10.90638941675431
 31
0.0
  0
LINE
  5
5709
330
17
100
AcDbEntity
  8
PART
100
AcDbLine
 10
6.236676190876609
 20
10.94138941675431
 30
0.0
 11
6.739676161585384
 21
10.94138941675431
 31
0.0
  0
LINE
  5
570A
330
17
100
AcDbEntity
  8
PART
100
AcDbLine
 10
6.271676190876609
 20
10.94138941675431
 30
0.0
 11
6.271676190876609
 21
10.90638941675431
 31
0.0
  0
LINE
  5
570B
330
17
100
AcDbEntity
  8
PART
100
AcDbLine
 10
8.24867619087661
 20
10.94138941675431
 30
0.0
 11
8.24867619087661
 21
10.90638941675431
 31
0.0
  0
LINE
  5
570C
330
17
100
AcDbEntity
  8
PART
100
AcDbLine
 10
6.257454805050311
 20
11.45422329848823
 30
0.0
 11
6.236676190876609
 21
10.94138941675431
 31
0.0
  0
LINE
  5
570D
330
17
100
AcDbEntity
  8
PART
100
AcDbLine
 10
6.236676190876609
 20
10.90638941675431
 30
0.0
 11
6.257857068432723
 21
10.28898936884201
 31
0.0
  0
LINE
  5
570E
330
17
100
AcDbEntity
  8
PART
100
AcDbLine
 10
8.28367619087661
 20
10.90638941675431
 30
0.0
 11
8.262495313320494
 21
10.28898936884201
 31
0.0
  0
LINE
  5
570F
330
17
100
AcDbEntity
  8
PART
100
AcDbLine
 10
8.262897576702906
 20
11.45422329848823
 30
0.0
 11
8.28367619087661
 21
10.94138941675431
 31
0.0
  0
ARC
  5
5710
330
17
100
AcDbEntity
  8
PART
100
AcDbCircle
 10
8.192954963695399
 20
11.45138941675431
 30
0.0
 40
0.07
100
AcDbArc
 50
2.320197835398519
 51
90.0
  0
ARC
  5
5711
330
17
100
AcDbEntity
  8
PART
100
AcDbCircle
 10
8.192536469919401
 20
10.29138941675431
 30
0.0
 40
0.07
100
AcDbArc
 50
270.0
 51
358.0351489630087
  0
ARC
  5
5712
330
17
100
AcDbEntity
  8
PART
100
AcDbCircle
 10
6.327815911833818
 20
10.29138941675431
 30
0.0
 40
0.07
100
AcDbArc
 50
181.9648510369912
 51
270.0
  0
ARC
  5
5713
330
17
100
AcDbEntity
  8
PART
100
AcDbCircle
 10
6.32739741805782
 20
11.45138941675431
 30
0.0
 40
0.07
100
AcDbArc
 50
90.0
 51
177.6798021646014
  0
LINE
  5
5714
330
17
100
AcDbEntity
  8
PART
  6
Continuous
 62
     4
100
AcDbLine
 10
6.739676161585384
 20
10.53538941675431
 30
0.0
 11
6.739676161585384
 21
11.01138941129509
 31
0.0
  0
LINE
  5
5715
330
17
100
AcDbEntity
  8
PART
  6
Continuous
 62
     4
100
AcDbLine
 10
6.739676161585384
 20
11.01138941129509
 30
0.0
 11
7.363676164750767
 21
11.01138941129509
 31
0.0
  0
LINE
  5
5716
330
17
100
AcDbEntity
  8
PART
  6
Continuous
 62
     4
100
AcDbLine
 10
7.363676164750767
 20
10.6303894113896
 30
0.0
 11
7.363676164750767
 21
10.53538941675431
 31
0.0
  0
LINE
  5
5717
330
17
100
AcDbEntity
  8
PART
  6
Continuous
 62
     4
100
AcDbLine
 10
7.226676175719664
 20
10.64638941405621
 30
0.0
 11
7.311676172125785
 21
10.64638941405621
 31
0.0
  0
LINE
  5
5718
330
17
100
AcDbEntity
  8
PART
  6
Continuous
 62
     4
100
AcDbLine
 10
7.311676172125785
 20
10.64638941405621
 30
0.0
 11
7.311676172125785
 21
10.746389414681
 31
0.0
  0
LINE
  5
5719
330
17
100
AcDbEntity
  8
PART
  6
Continuous
 62
     4
100
AcDbLine
 10
7.311676172125785
 20
10.746389414681
 30
0.0
 11
7.331676177750681
 21
10.746389414681
 31
0.0
  0
LINE
  5
571A
330
17
100
AcDbEntity
  8
PART
  6
Continuous
 62
     4
100
AcDbLine
 10
7.331676177750681
 20
10.746389414681
 30
0.0
 11
7.331676177750681
 21
10.76138941431639
 31
0.0
  0
LINE
  5
571B
330
17
100
AcDbEntity
  8
PART
  6
Continuous
 62
     4
100
AcDbLine
 10
7.301676169313338
 20
10.76138941431639
 30
0.0
 11
7.331676177750681
 21
10.76138941431639
 31
0.0
  0
LINE
  5
571C
330
17
100
AcDbEntity
  8
PART
  6
Continuous
 62
     4
100
AcDbLine
 10
7.301676169313338
 20
10.76138941431639
 30
0.0
 11
7.301676169313338
 21
10.84138941848285
 31
0.0
  0
LINE
  5
571D
330
17
100
AcDbEntity
  8
PART
  6
Continuous
 62
     4
100
AcDbLine
 10
7.331676177750681
 20
10.84138941848285
 30
0.0
 11
7.301676169313338
 21
10.84138941848285
 31
0.0
  0
LINE
  5
571E
330
17
100
AcDbEntity
  8
PART
  6
Continuous
 62
     4
100
AcDbLine
 10
7.331676177750681
 20
10.84138941848285
 30
0.0
 11
7.331676177750681
 21
10.85638941353496
 31
0.0
  0
LINE
  5
571F
330
17
100
AcDbEntity
  8
PART
  6
Continuous
 62
     4
100
AcDbLine
 10
7.331676177750681
 20
10.85638941353496
 30
0.0
 11
7.311676172125785
 21
10.85638941353496
 31
0.0
  0
LINE
  5
5720
330
17
100
AcDbEntity
  8
PART
  6
Continuous
 62
     4
100
AcDbLine
 10
7.311676172125785
 20
10.85638941353496
 30
0.0
 11
7.311676172125785
 21
10.96638940780564
 31
0.0
  0
LINE
  5
5721
330
17
100
AcDbEntity
  8
PART
  6
Continuous
 62
     4
100
AcDbLine
 10
7.311676172125785
 20
10.96638940780564
 30
0.0
 11
6.791676190876609
 21
10.96638940780564
 31
0.0
  0
LINE
  5
5722
330
17
100
AcDbEntity
  8
PART
  6
Continuous
 62
     4
100
AcDbLine
 10
6.791676190876609
 20
10.96638940780564
 30
0.0
 11
6.791676190876609
 21
10.85638941353496
 31
0.0
  0
LINE
  5
5723
330
17
100
AcDbEntity
  8
PART
  6
Continuous
 62
     4
100
AcDbLine
 10
6.791676190876609
 20
10.85638941353496
 30
0.0
 11
6.771676185251713
 21
10.85638941353496
 31
0.0
  0
LINE
  5
5724
330
17
100
AcDbEntity
  8
PART
  6
Continuous
 62
     4
100
AcDbLine
 10
6.771676185251713
 20
10.85638941353496
 30
0.0
 11
6.771676185251713
 21
10.84138941848285
 31
0.0
  0
LINE
  5
5725
330
17
100
AcDbEntity
  8
PART
  6
Continuous
 62
     4
100
AcDbLine
 10
6.801676175355934
 20
10.84138941848285
 30
0.0
 11
6.771676185251713
 21
10.84138941848285
 31
0.0
  0
LINE
  5
5726
330
17
100
AcDbEntity
  8
PART
  6
Continuous
 62
     4
100
AcDbLine
 10
6.801676175355934
 20
10.84138941848285
 30
0.0
 11
6.801676175355934
 21
10.76138941431639
 31
0.0
  0
LINE
  5
5727
330
17
100
AcDbEntity
  8
PART
  6
Continuous
 62
     4
100
AcDbLine
 10
6.771676185251713
 20
10.76138941431639
 30
0.0
 11
6.801676175355934
 21
10.76138941431639
 31
0.0
  0
LINE
  5
5728
330
17
100
AcDbEntity
  8
PART
  6
Continuous
 62
     4
100
AcDbLine
 10
6.771676185251713
 20
10.76138941431639
 30
0.0
 11
6.771676185251713
 21
10.746389414681
 31
0.0
  0
LINE
  5
5729
330
17
100
AcDbEntity
  8
PART
  6
Continuous
 62
     4
100
AcDbLine
 10
6.771676185251713
 20
10.746389414681
 30
0.0
 11
6.791676190876609
 21
10.746389414681
 31
0.0
  0
LINE
  5
572A
330
17
100
AcDbEntity
  8
PART
  6
Continuous
 62
     4
100
AcDbLine
 10
6.791676190876609
 20
10.746389414681
 30
0.0
 11
6.791676190876609
 21
10.64638941405621
 31
0.0
  0
LINE
  5
572B
330
17
100
AcDbEntity
  8
PART
  6
Continuous
 62
     4
100
AcDbLine
 10
6.791676190876609
 20
10.64638941405621
 30
0.0
 11
6.876676168949609
 21
10.64638941405621
 31
0.0
  0
LINE
  5
572C
330
17
100
AcDbEntity
  8
PART
  6
Continuous
 62
     4
100
AcDbLine
 10
7.363676164750767
 20
10.53538941675431
 30
0.0
 11
6.739676161585384
 21
10.53538941675431
 31
0.0
  0
LINE
  5
572D
330
17
100
AcDbEntity
  8
PART
  6
Continuous
 62
     4
100
AcDbLine
 10
7.284788678565739
 20
10.84138941848285
 30
0.0
 11
7.284788678565739
 21
10.76138941431639
 31
0.0
  0
LINE
  5
572E
330
17
100
AcDbEntity
  8
PART
  6
Continuous
 62
     4
100
AcDbLine
 10
7.284788678565739
 20
10.76138941431639
 30
0.0
 11
7.301676169313338
 21
10.76138941431639
 31
0.0
  0
LINE
  5
572F
330
17
100
AcDbEntity
  8
PART
  6
Continuous
 62
     4
100
AcDbLine
 10
7.301676169313338
 20
10.84138941848285
 30
0.0
 11
7.284788678565739
 21
10.84138941848285
 31
0.0
  0
LINE
  5
5730
330
17
100
AcDbEntity
  8
PART
  6
Continuous
 62
     4
100
AcDbLine
 10
6.818563656936973
 20
10.76138941431639
 30
0.0
 11
6.818563656936973
 21
10.84138941848285
 31
0.0
  0
LINE
  5
5731
330
17
100
AcDbEntity
  8
PART
  6
Continuous
 62
     4
100
AcDbLine
 10
6.818563656936973
 20
10.84138941848285
 30
0.0
 11
6.801676175355934
 21
10.84138941848285
 31
0.0
  0
LINE
  5
5732
330
17
100
AcDbEntity
  8
PART
  6
Continuous
 62
     4
100
AcDbLine
 10
6.801676175355934
 20
10.76138941431639
 30
0.0
 11
6.818563656936973
 21
10.76138941431639
 31
0.0
  0
LINE
  5
5733
330
17
100
AcDbEntity
  8
PART
  6
Continuous
 62
     4
100
AcDbLine
 10
7.252312727064035
 20
10.84138941848285
 30
0.0
 11
7.252312727064035
 21
10.76138941431639
 31
0.0
  0
LINE
  5
5734
330
17
100
AcDbEntity
  8
PART
  6
Continuous
 62
     4
100
AcDbLine
 10
7.252312727064035
 20
10.76138941431639
 30
0.0
 11
7.284788678565739
 21
10.76138941431639
 31
0.0
  0
LINE
  5
5735
330
17
100
AcDbEntity
  8
PART
  6
Continuous
 62
     4
100
AcDbLine
 10
7.284788678565739
 20
10.84138941848285
 30
0.0
 11
7.252312727064035
 21
10.84138941848285
 31
0.0
  0
LINE
  5
5736
330
17
100
AcDbEntity
  8
PART
  6
Continuous
 62
     4
100
AcDbLine
 10
6.851039626771799
 20
10.76138941431639
 30
0.0
 11
6.851039626771799
 21
10.84138941848285
 31
0.0
  0
LINE
  5
5737
330
17
100
AcDbEntity
  8
PART
  6
Continuous
 62
     4
100
AcDbLine
 10
6.851039626771799
 20
10.84138941848285
 30
0.0
 11
6.818563656936973
 21
10.84138941848285
 31
0.0
  0
LINE
  5
5738
330
17
100
AcDbEntity
  8
PART
  6
Continuous
 62
     4
100
AcDbLine
 10
6.818563656936973
 20
10.76138941431639
 30
0.0
 11
6.851039626771799
 21
10.76138941431639
 31
0.0
  0
LINE
  5
5739
330
17
100
AcDbEntity
  8
PART
  6
Continuous
 62
     4
100
AcDbLine
 10
6.786676161970703
 20
10.75638941291017
 30
0.0
 11
6.786676161970703
 21
10.76138941431639
 31
0.0
  0
LINE
  5
573A
330
17
100
AcDbEntity
  8
PART
  6
Continuous
 62
     4
100
AcDbLine
 10
6.786676161970703
 20
10.84138941848285
 30
0.0
 11
6.786676161970703
 21
10.84638941072251
 31
0.0
  0
LINE
  5
573B
330
17
100
AcDbEntity
  8
PART
  6
Continuous
 62
     4
100
AcDbLine
 10
6.78167616973104
 20
10.76138941431639
 30
0.0
 11
6.78167616973104
 21
10.75638941291017
 31
0.0
  0
LINE
  5
573C
330
17
100
AcDbEntity
  8
PART
  6
Continuous
 62
     4
100
AcDbLine
 10
6.78167616973104
 20
10.84638941072251
 30
0.0
 11
6.78167616973104
 21
10.84138941848285
 31
0.0
  0
LINE
  5
573D
330
17
100
AcDbEntity
  8
PART
  6
Continuous
 62
     4
100
AcDbLine
 10
7.321676174938232
 20
10.84138941848285
 30
0.0
 11
7.321676174938232
 21
10.84638941072251
 31
0.0
  0
LINE
  5
573E
330
17
100
AcDbEntity
  8
PART
  6
Continuous
 62
     4
100
AcDbLine
 10
7.301676169313338
 20
10.84638941072251
 30
0.0
 11
7.321676174938232
 21
10.84638941072251
 31
0.0
  0
LINE
  5
573F
330
17
100
AcDbEntity
  8
PART
  6
Continuous
 62
     4
100
AcDbLine
 10
7.301676169313338
 20
10.95638940499319
 30
0.0
 11
7.301676169313338
 21
10.84638941072251
 31
0.0
  0
LINE
  5
5740
330
17
100
AcDbEntity
  8
PART
  6
Continuous
 62
     4
100
AcDbLine
 10
6.801676175355934
 20
10.95638940499319
 30
0.0
 11
7.301676169313338
 21
10.95638940499319
 31
0.0
  0
LINE
  5
5741
330
17
100
AcDbEntity
  8
PART
  6
Continuous
 62
     4
100
AcDbLine
 10
6.801676175355934
 20
10.84638941072251
 30
0.0
 11
6.801676175355934
 21
10.95638940499319
 31
0.0
  0
LINE
  5
5742
330
17
100
AcDbEntity
  8
PART
  6
Continuous
 62
     4
100
AcDbLine
 10
6.78167616973104
 20
10.84638941072251
 30
0.0
 11
6.801676175355934
 21
10.84638941072251
 31
0.0
  0
LINE
  5
5743
330
17
100
AcDbEntity
  8
PART
  6
Continuous
 62
     4
100
AcDbLine
 10
6.801676175355934
 20
10.75638941291017
 30
0.0
 11
6.78167616973104
 21
10.75638941291017
 31
0.0
  0
LINE
  5
5744
330
17
100
AcDbEntity
  8
PART
  6
Continuous
 62
     4
100
AcDbLine
 10
6.801676175355934
 20
10.65638941228537
 30
0.0
 11
6.801676175355934
 21
10.75638941291017
 31
0.0
  0
LINE
  5
5745
330
17
100
AcDbEntity
  8
PART
  6
Continuous
 62
     4
100
AcDbLine
 10
6.801676175355934
 20
10.65638941228537
 30
0.0
 11
6.876676168949609
 21
10.65638941228537
 31
0.0
  0
LINE
  5
5746
330
17
100
AcDbEntity
  8
PART
  6
Continuous
 62
     4
100
AcDbLine
 10
6.876676168949609
 20
10.58638941093136
 30
0.0
 11
6.876676168949609
 21
10.65638941228537
 31
0.0
  0
LINE
  5
5747
330
17
100
AcDbEntity
  8
PART
  6
Continuous
 62
     4
100
AcDbLine
 10
7.316676164365448
 20
10.84638941072251
 30
0.0
 11
7.316676164365448
 21
10.84138941848285
 31
0.0
  0
LINE
  5
5748
330
17
100
AcDbEntity
  8
PART
  6
Continuous
 62
     4
100
AcDbLine
 10
7.316676164365448
 20
10.76138941431639
 30
0.0
 11
7.316676164365448
 21
10.75638941291017
 31
0.0
  0
LINE
  5
5749
330
17
100
AcDbEntity
  8
PART
  6
Continuous
 62
     4
100
AcDbLine
 10
7.321676174938232
 20
10.75638941291017
 30
0.0
 11
7.321676174938232
 21
10.76138941431639
 31
0.0
  0
LINE
  5
574A
330
17
100
AcDbEntity
  8
PART
  6
Continuous
 62
     4
100
AcDbLine
 10
7.301676169313338
 20
10.65638941228537
 30
0.0
 11
7.226676175719664
 21
10.65638941228537
 31
0.0
  0
LINE
  5
574B
330
17
100
AcDbEntity
  8
PART
  6
Continuous
 62
     4
100
AcDbLine
 10
7.301676169313338
 20
10.75638941291017
 30
0.0
 11
7.301676169313338
 21
10.65638941228537
 31
0.0
  0
LINE
  5
574C
330
17
100
AcDbEntity
  8
PART
  6
Continuous
 62
     4
100
AcDbLine
 10
7.321676174938232
 20
10.75638941291017
 30
0.0
 11
7.301676169313338
 21
10.75638941291017
 31
0.0
  0
LINE
  5
574D
330
17
100
AcDbEntity
  8
PART
  6
Continuous
 62
     4
100
AcDbLine
 10
7.226676175719664
 20
10.65638941228537
 30
0.0
 11
7.226676175719664
 21
10.58638941093136
 31
0.0
  0
LINE
  5
574E
330
17
100
AcDbEntity
  8
PART
  6
Continuous
 62
     4
100
AcDbLine
 10
6.739676161585384
 20
10.57038941743132
 30
0.0
 11
6.739676161585384
 21
10.53938941054604
 31
0.0
  0
LINE
  5
574F
330
17
100
AcDbEntity
  8
PART
  6
Continuous
 62
     4
100
AcDbLine
 10
7.363676164750767
 20
11.01138941129509
 30
0.0
 11
7.363676164750767
 21
10.6303894113896
 31
0.0
  0
LINE
  5
5750
330
17
100
AcDbEntity
  8
PART
  6
Continuous
 62
     4
100
AcDbLine
 10
7.121676173688648
 20
10.55038941180642
 30
0.0
 11
7.121676173688648
 21
10.58638941093136
 31
0.0
  0
LINE
  5
5751
330
17
100
AcDbEntity
  8
PART
  6
Continuous
 62
     4
100
AcDbLine
 10
7.226676175719664
 20
10.58638941093136
 30
0.0
 11
7.121676173688648
 21
10.58638941093136
 31
0.0
  0
LINE
  5
5752
330
17
100
AcDbEntity
  8
PART
  6
Continuous
 62
     4
100
AcDbLine
 10
6.981676170980625
 20
10.58638941093136
 30
0.0
 11
6.876676168949609
 21
10.58638941093136
 31
0.0
  0
LINE
  5
5753
330
17
100
AcDbEntity
  8
PART
  6
Continuous
 62
     4
100
AcDbLine
 10
6.981676170980625
 20
10.58638941093136
 30
0.0
 11
6.981676170980625
 21
10.55038941180642
 31
0.0
  0
LINE
  5
5754
330
17
100
AcDbEntity
  8
PART
  6
Continuous
 62
     4
100
AcDbLine
 10
7.121676173688648
 20
10.55038941180642
 30
0.0
 11
6.981676170980625
 21
10.55038941180642
 31
0.0
  0
LINE
  5
5755
330
17
100
AcDbEntity
  8
PART
  6
Continuous
 62
     4
100
AcDbLine
 10
6.811676159835261
 20
10.76138941431639
 30
0.0
 11
6.811676159835261
 21
10.75638941291017
 31
0.0
  0
LINE
  5
5756
330
17
100
AcDbEntity
  8
PART
  6
Continuous
 62
     4
100
AcDbLine
 10
7.291676175667451
 20
10.75638941291017
 30
0.0
 11
7.291676175667451
 21
10.76138941431639
 31
0.0
  0
LINE
  5
5757
330
17
100
AcDbEntity
  8
PART
  6
Continuous
 62
     4
100
AcDbLine
 10
7.301676169313338
 20
10.75638941291017
 30
0.0
 11
7.291676175667451
 21
10.75638941291017
 31
0.0
  0
LINE
  5
5758
330
17
100
AcDbEntity
  8
PART
  6
Continuous
 62
     4
100
AcDbLine
 10
6.811676159835261
 20
10.75638941291017
 30
0.0
 11
6.801676175355934
 21
10.75638941291017
 31
0.0
  0
LINE
  5
5759
330
17
100
AcDbEntity
  8
PART
  6
Continuous
 62
     4
100
AcDbLine
 10
7.184176172933323
 20
10.82138941285795
 30
0.0
 11
7.199176172568714
 21
10.82138941285795
 31
0.0
  0
LINE
  5
575A
330
17
100
AcDbEntity
  8
PART
  6
Continuous
 62
     4
100
AcDbLine
 10
6.90417618126712
 20
10.82138941285795
 30
0.0
 11
6.919176176319231
 21
10.82138941285795
 31
0.0
  0
LINE
  5
575B
330
17
100
AcDbEntity
  8
PART
  6
Continuous
 62
     4
100
AcDbLine
 10
6.984176167100457
 20
10.82138941285795
 30
0.0
 11
6.999176171319128
 21
10.82138941285795
 31
0.0
  0
LINE
  5
575C
330
17
100
AcDbEntity
  8
PART
  6
Continuous
 62
     4
100
AcDbLine
 10
7.024176169183686
 20
10.82138941285795
 30
0.0
 11
7.039176173402358
 21
10.82138941285795
 31
0.0
  0
LINE
  5
575D
330
17
100
AcDbEntity
  8
PART
  6
Continuous
 62
     4
100
AcDbLine
 10
7.064176171266915
 20
10.82138941285795
 30
0.0
 11
7.079176175485587
 21
10.82138941285795
 31
0.0
  0
LINE
  5
575E
330
17
100
AcDbEntity
  8
PART
  6
Continuous
 62
     4
100
AcDbLine
 10
7.104176173350145
 20
10.82138941285795
 30
0.0
 11
7.119176172985536
 21
10.82138941285795
 31
0.0
  0
LINE
  5
575F
330
17
100
AcDbEntity
  8
PART
  6
Continuous
 62
     4
100
AcDbLine
 10
7.144176173428189
 20
10.82138941285795
 30
0.0
 11
7.159176173922945
 21
10.82138941285795
 31
0.0
  0
LINE
  5
5760
330
17
100
AcDbEntity
  8
PART
  6
Continuous
 62
     4
100
AcDbLine
 10
6.944176174183787
 20
10.82138941285795
 30
0.0
 11
6.959176169235899
 21
10.82138941285795
 31
0.0
  0
LINE
  5
5761
330
17
100
AcDbEntity
  8
PART
  6
Continuous
 62
     4
100
AcDbLine
 10
6.811676159835261
 20
10.84638941072251
 30
0.0
 11
6.811676159835261
 21
10.84138941848285
 31
0.0
  0
LINE
  5
5762
330
17
100
AcDbEntity
  8
PART
  6
Continuous
 62
     4
100
AcDbLine
 10
7.291676175667451
 20
10.84138941848285
 30
0.0
 11
7.291676175667451
 21
10.84638941072251
 31
0.0
  0
LINE
  5
5763
330
17
100
AcDbEntity
  8
PART
  6
Continuous
 62
     4
100
AcDbLine
 10
6.959176169235899
 20
10.82138941285795
 30
0.0
 11
6.959176169235899
 21
10.95638940499319
 31
0.0
  0
LINE
  5
5764
330
17
100
AcDbEntity
  8
PART
  6
Continuous
 62
     4
100
AcDbLine
 10
7.039176173402358
 20
10.82138941285795
 30
0.0
 11
7.039176173402358
 21
10.95638940499319
 31
0.0
  0
LINE
  5
5765
330
17
100
AcDbEntity
  8
PART
  6
Continuous
 62
     4
100
AcDbLine
 10
7.064176171266915
 20
10.95638940499319
 30
0.0
 11
7.064176171266915
 21
10.82138941285795
 31
0.0
  0
LINE
  5
5766
330
17
100
AcDbEntity
  8
PART
  6
Continuous
 62
     4
100
AcDbLine
 10
7.079176175485587
 20
10.82138941285795
 30
0.0
 11
7.079176175485587
 21
10.95638940499319
 31
0.0
  0
LINE
  5
5767
330
17
100
AcDbEntity
  8
PART
  6
Continuous
 62
     4
100
AcDbLine
 10
7.024176169183686
 20
10.95638940499319
 30
0.0
 11
7.024176169183686
 21
10.82138941285795
 31
0.0
  0
LINE
  5
5768
330
17
100
AcDbEntity
  8
PART
  6
Continuous
 62
     4
100
AcDbLine
 10
6.984176167100457
 20
10.95638940499319
 30
0.0
 11
6.984176167100457
 21
10.82138941285795
 31
0.0
  0
LINE
  5
5769
330
17
100
AcDbEntity
  8
PART
  6
Continuous
 62
     4
100
AcDbLine
 10
6.944176174183787
 20
10.95638940499319
 30
0.0
 11
6.944176174183787
 21
10.82138941285795
 31
0.0
  0
LINE
  5
576A
330
17
100
AcDbEntity
  8
PART
  6
Continuous
 62
     4
100
AcDbLine
 10
7.104176173350145
 20
10.95638940499319
 30
0.0
 11
7.104176173350145
 21
10.82138941285795
 31
0.0
  0
LINE
  5
576B
330
17
100
AcDbEntity
  8
PART
  6
Continuous
 62
     4
100
AcDbLine
 10
7.199176172568714
 20
10.82138941285795
 30
0.0
 11
7.199176172568714
 21
10.95638940499319
 31
0.0
  0
LINE
  5
576C
330
17
100
AcDbEntity
  8
PART
  6
Continuous
 62
     4
100
AcDbLine
 10
7.159176173922945
 20
10.82138941285795
 30
0.0
 11
7.159176173922945
 21
10.95638940499319
 31
0.0
  0
LINE
  5
576D
330
17
100
AcDbEntity
  8
PART
  6
Continuous
 62
     4
100
AcDbLine
 10
6.999176171319128
 20
10.82138941285795
 30
0.0
 11
6.999176171319128
 21
10.95638940499319
 31
0.0
  0
LINE
  5
576E
330
17
100
AcDbEntity
  8
PART
  6
Continuous
 62
     4
100
AcDbLine
 10
7.119176172985536
 20
10.82138941285795
 30
0.0
 11
7.119176172985536
 21
10.95638940499319
 31
0.0
  0
LINE
  5
576F
330
17
100
AcDbEntity
  8
PART
  6
Continuous
 62
     4
100
AcDbLine
 10
7.144176173428189
 20
10.95638940499319
 30
0.0
 11
7.144176173428189
 21
10.82138941285795
 31
0.0
  0
LINE
  5
5770
330
17
100
AcDbEntity
  8
PART
  6
Continuous
 62
     4
100
AcDbLine
 10
6.90417618126712
 20
10.95638940499319
 30
0.0
 11
6.90417618126712
 21
10.82138941285795
 31
0.0
  0
LINE
  5
5771
330
17
100
AcDbEntity
  8
PART
  6
Continuous
 62
     4
100
AcDbLine
 10
7.184176172933323
 20
10.95638940499319
 30
0.0
 11
7.184176172933323
 21
10.82138941285795
 31
0.0
  0
LINE
  5
5772
330
17
100
AcDbEntity
  8
PART
  6
Continuous
 62
     4
100
AcDbLine
 10
6.919176176319231
 20
10.82138941285795
 30
0.0
 11
6.919176176319231
 21
10.95638940499319
 31
0.0
  0
LINE
  5
5773
330
17
100
AcDbEntity
  8
PART
  6
Continuous
 62
     4
100
AcDbLine
 10
6.811676159835261
 20
10.84638941072251
 30
0.0
 11
6.801676175355934
 21
10.84638941072251
 31
0.0
  0
LINE
  5
5774
330
17
100
AcDbEntity
  8
PART
  6
Continuous
 62
     4
100
AcDbLine
 10
7.301676169313338
 20
10.84638941072251
 30
0.0
 11
7.291676175667451
 21
10.84638941072251
 31
0.0
  0
LINE
  5
5775
330
17
100
AcDbEntity
  8
PART
  6
Continuous
 62
     4
100
AcDbLine
 10
7.98767616791615
 20
10.53538941675431
 30
0.0
 11
7.363676164750767
 21
10.53538941675431
 31
0.0
  0
LINE
  5
5776
330
17
100
AcDbEntity
  8
PART
  6
Continuous
 62
     4
100
AcDbLine
 10
7.605676174146008
 20
10.58638941093136
 30
0.0
 11
7.500676172114992
 21
10.58638941093136
 31
0.0
  0
LINE
  5
5777
330
17
100
AcDbEntity
  8
PART
  6
Continuous
 62
     4
100
AcDbLine
 10
7.363676164750767
 20
11.01138941129509
 30
0.0
 11
7.98767616791615
 21
11.01138941129509
 31
0.0
  0
LINE
  5
5778
330
17
100
AcDbEntity
  8
PART
  6
Continuous
 62
     4
100
AcDbLine
 10
7.528176184432503
 20
10.82138941285795
 30
0.0
 11
7.543176179484614
 21
10.82138941285795
 31
0.0
  0
LINE
  5
5779
330
17
100
AcDbEntity
  8
PART
  6
Continuous
 62
     4
100
AcDbLine
 10
7.935676175291169
 20
10.96638940780564
 30
0.0
 11
7.415676194041992
 21
10.96638940780564
 31
0.0
  0
LINE
  5
577A
330
17
100
AcDbEntity
  8
PART
  6
Continuous
 62
     4
100
AcDbLine
 10
7.425676178521317
 20
10.95638940499319
 30
0.0
 11
7.925676172478722
 21
10.95638940499319
 31
0.0
  0
LINE
  5
577B
330
17
100
AcDbEntity
  8
PART
  6
Continuous
 62
     4
100
AcDbLine
 10
7.363676164750767
 20
10.53538941675431
 30
0.0
 11
7.363676164750767
 21
11.01138941129509
 31
0.0
  0
LINE
  5
577C
330
17
100
AcDbEntity
  8
PART
  6
Continuous
 62
     4
100
AcDbLine
 10
7.500676172114992
 20
10.58638941093136
 30
0.0
 11
7.500676172114992
 21
10.65638941228537
 31
0.0
  0
LINE
  5
577D
330
17
100
AcDbEntity
  8
PART
  6
Continuous
 62
     4
100
AcDbLine
 10
7.415676194041992
 20
10.96638940780564
 30
0.0
 11
7.415676194041992
 21
10.85638941353496
 31
0.0
  0
LINE
  5
577E
330
17
100
AcDbEntity
  8
PART
  6
Continuous
 62
     4
100
AcDbLine
 10
7.425676178521317
 20
10.84638941072251
 30
0.0
 11
7.425676178521317
 21
10.95638940499319
 31
0.0
  0
LINE
  5
577F
330
17
100
AcDbEntity
  8
PART
  6
Continuous
 62
     4
100
AcDbLine
 10
7.415676194041992
 20
10.85638941353496
 30
0.0
 11
7.395676188417096
 21
10.85638941353496
 31
0.0
  0
LINE
  5
5780
330
17
100
AcDbEntity
  8
PART
  6
Continuous
 62
     4
100
AcDbLine
 10
7.395676188417096
 20
10.85638941353496
 30
0.0
 11
7.395676188417096
 21
10.84138941848285
 31
0.0
  0
LINE
  5
5781
330
17
100
AcDbEntity
  8
PART
  6
Continuous
 62
     4
100
AcDbLine
 10
7.425676178521317
 20
10.84138941848285
 30
0.0
 11
7.395676188417096
 21
10.84138941848285
 31
0.0
  0
LINE
  5
5782
330
17
100
AcDbEntity
  8
PART
  6
Continuous
 62
     4
100
AcDbLine
 10
7.442563660102356
 20
10.84138941848285
 30
0.0
 11
7.425676178521317
 21
10.84138941848285
 31
0.0
  0
LINE
  5
5783
330
17
100
AcDbEntity
  8
PART
  6
Continuous
 62
     4
100
AcDbLine
 10
7.475039629937182
 20
10.84138941848285
 30
0.0
 11
7.442563660102356
 21
10.84138941848285
 31
0.0
  0
LINE
  5
5784
330
17
100
AcDbEntity
  8
PART
  6
Continuous
 62
     4
100
AcDbLine
 10
7.410676165136086
 20
10.84138941848285
 30
0.0
 11
7.410676165136086
 21
10.84638941072251
 31
0.0
  0
LINE
  5
5785
330
17
100
AcDbEntity
  8
PART
  6
Continuous
 62
     4
100
AcDbLine
 10
7.405676172896423
 20
10.84638941072251
 30
0.0
 11
7.405676172896423
 21
10.84138941848285
 31
0.0
  0
LINE
  5
5786
330
17
100
AcDbEntity
  8
PART
  6
Continuous
 62
     4
100
AcDbLine
 10
7.405676172896423
 20
10.84638941072251
 30
0.0
 11
7.425676178521317
 21
10.84638941072251
 31
0.0
  0
LINE
  5
5787
330
17
100
AcDbEntity
  8
PART
  6
Continuous
 62
     4
100
AcDbLine
 10
7.435676163000644
 20
10.84638941072251
 30
0.0
 11
7.435676163000644
 21
10.84138941848285
 31
0.0
  0
LINE
  5
5788
330
17
100
AcDbEntity
  8
PART
  6
Continuous
 62
     4
100
AcDbLine
 10
7.435676163000644
 20
10.84638941072251
 30
0.0
 11
7.425676178521317
 21
10.84638941072251
 31
0.0
  0
LINE
  5
5789
330
17
100
AcDbEntity
  8
PART
  6
Continuous
 62
     4
100
AcDbLine
 10
7.528176184432503
 20
10.95638940499319
 30
0.0
 11
7.528176184432503
 21
10.82138941285795
 31
0.0
  0
LINE
  5
578A
330
17
100
AcDbEntity
  8
PART
  6
Continuous
 62
     4
100
AcDbLine
 10
7.363676164750767
 20
10.57038941743132
 30
0.0
 11
7.363676164750767
 21
10.53938941054604
 31
0.0
  0
LINE
  5
578B
330
17
100
AcDbEntity
  8
PART
  6
Continuous
 62
     4
100
AcDbLine
 10
7.395676188417096
 20
10.76138941431639
 30
0.0
 11
7.425676178521317
 21
10.76138941431639
 31
0.0
  0
LINE
  5
578C
330
17
100
AcDbEntity
  8
PART
  6
Continuous
 62
     4
100
AcDbLine
 10
7.395676188417096
 20
10.76138941431639
 30
0.0
 11
7.395676188417096
 21
10.746389414681
 31
0.0
  0
LINE
  5
578D
330
17
100
AcDbEntity
  8
PART
  6
Continuous
 62
     4
100
AcDbLine
 10
7.395676188417096
 20
10.746389414681
 30
0.0
 11
7.415676194041992
 21
10.746389414681
 31
0.0
  0
LINE
  5
578E
330
17
100
AcDbEntity
  8
PART
  6
Continuous
 62
     4
100
AcDbLine
 10
7.415676194041992
 20
10.746389414681
 30
0.0
 11
7.415676194041992
 21
10.64638941405621
 31
0.0
  0
LINE
  5
578F
330
17
100
AcDbEntity
  8
PART
  6
Continuous
 62
     4
100
AcDbLine
 10
7.415676194041992
 20
10.64638941405621
 30
0.0
 11
7.500676172114992
 21
10.64638941405621
 31
0.0
  0
LINE
  5
5790
330
17
100
AcDbEntity
  8
PART
  6
Continuous
 62
     4
100
AcDbLine
 10
7.425676178521317
 20
10.76138941431639
 30
0.0
 11
7.442563660102356
 21
10.76138941431639
 31
0.0
  0
LINE
  5
5791
330
17
100
AcDbEntity
  8
PART
  6
Continuous
 62
     4
100
AcDbLine
 10
7.442563660102356
 20
10.76138941431639
 30
0.0
 11
7.475039629937182
 21
10.76138941431639
 31
0.0
  0
LINE
  5
5792
330
17
100
AcDbEntity
  8
PART
  6
Continuous
 62
     4
100
AcDbLine
 10
7.410676165136086
 20
10.75638941291017
 30
0.0
 11
7.410676165136086
 21
10.76138941431639
 31
0.0
  0
LINE
  5
5793
330
17
100
AcDbEntity
  8
PART
  6
Continuous
 62
     4
100
AcDbLine
 10
7.405676172896423
 20
10.76138941431639
 30
0.0
 11
7.405676172896423
 21
10.75638941291017
 31
0.0
  0
LINE
  5
5794
330
17
100
AcDbEntity
  8
PART
  6
Continuous
 62
     4
100
AcDbLine
 10
7.425676178521317
 20
10.75638941291017
 30
0.0
 11
7.405676172896423
 21
10.75638941291017
 31
0.0
  0
LINE
  5
5795
330
17
100
AcDbEntity
  8
PART
  6
Continuous
 62
     4
100
AcDbLine
 10
7.425676178521317
 20
10.65638941228537
 30
0.0
 11
7.425676178521317
 21
10.75638941291017
 31
0.0
  0
LINE
  5
5796
330
17
100
AcDbEntity
  8
PART
  6
Continuous
 62
     4
100
AcDbLine
 10
7.425676178521317
 20
10.65638941228537
 30
0.0
 11
7.500676172114992
 21
10.65638941228537
 31
0.0
  0
LINE
  5
5797
330
17
100
AcDbEntity
  8
PART
  6
Continuous
 62
     4
100
AcDbLine
 10
7.435676163000644
 20
10.76138941431639
 30
0.0
 11
7.435676163000644
 21
10.75638941291017
 31
0.0
  0
LINE
  5
5798
330
17
100
AcDbEntity
  8
PART
  6
Continuous
 62
     4
100
AcDbLine
 10
7.435676163000644
 20
10.75638941291017
 30
0.0
 11
7.425676178521317
 21
10.75638941291017
 31
0.0
  0
LINE
  5
5799
330
17
100
AcDbEntity
  8
PART
  6
Continuous
 62
     4
100
AcDbLine
 10
7.425676178521317
 20
10.84138941848285
 30
0.0
 11
7.425676178521317
 21
10.76138941431639
 31
0.0
  0
LINE
  5
579A
330
17
100
AcDbEntity
  8
PART
  6
Continuous
 62
     4
100
AcDbLine
 10
7.442563660102356
 20
10.76138941431639
 30
0.0
 11
7.442563660102356
 21
10.84138941848285
 31
0.0
  0
LINE
  5
579B
330
17
100
AcDbEntity
  8
PART
  6
Continuous
 62
     4
100
AcDbLine
 10
7.475039629937182
 20
10.76138941431639
 30
0.0
 11
7.475039629937182
 21
10.84138941848285
 31
0.0
  0
LINE
  5
579C
330
17
100
AcDbEntity
  8
PART
  6
Continuous
 62
     4
100
AcDbLine
 10
7.98767616791615
 20
10.6303894113896
 30
0.0
 11
7.98767616791615
 21
10.53538941675431
 31
0.0
  0
LINE
  5
579D
330
17
100
AcDbEntity
  8
PART
  6
Continuous
 62
     4
100
AcDbLine
 10
7.850676178885047
 20
10.58638941093136
 30
0.0
 11
7.745676176854031
 21
10.58638941093136
 31
0.0
  0
LINE
  5
579E
330
17
100
AcDbEntity
  8
PART
  6
Continuous
 62
     4
100
AcDbLine
 10
7.850676178885047
 20
10.65638941228537
 30
0.0
 11
7.850676178885047
 21
10.58638941093136
 31
0.0
  0
LINE
  5
579F
330
17
100
AcDbEntity
  8
PART
  6
Continuous
 62
     4
100
AcDbLine
 10
7.98767616791615
 20
11.01138941129509
 30
0.0
 11
7.98767616791615
 21
10.6303894113896
 31
0.0
  0
LINE
  5
57A0
330
17
100
AcDbEntity
  8
PART
  6
Continuous
 62
     4
100
AcDbLine
 10
7.935676175291169
 20
10.85638941353496
 30
0.0
 11
7.935676175291169
 21
10.96638940780564
 31
0.0
  0
LINE
  5
57A1
330
17
100
AcDbEntity
  8
PART
  6
Continuous
 62
     4
100
AcDbLine
 10
7.925676172478722
 20
10.95638940499319
 30
0.0
 11
7.925676172478722
 21
10.84638941072251
 31
0.0
  0
LINE
  5
57A2
330
17
100
AcDbEntity
  8
PART
  6
Continuous
 62
     4
100
AcDbLine
 10
7.823176175734097
 20
10.82138941285795
 30
0.0
 11
7.823176175734097
 21
10.95638940499319
 31
0.0
  0
LINE
  5
57A3
330
17
100
AcDbEntity
  8
PART
  6
Continuous
 62
     4
100
AcDbLine
 10
7.783176177088328
 20
10.82138941285795
 30
0.0
 11
7.783176177088328
 21
10.95638940499319
 31
0.0
  0
LINE
  5
57A4
330
17
100
AcDbEntity
  8
PART
  6
Continuous
 62
     4
100
AcDbLine
 10
7.743176176150919
 20
10.82138941285795
 30
0.0
 11
7.743176176150919
 21
10.95638940499319
 31
0.0
  0
LINE
  5
57A5
330
17
100
AcDbEntity
  8
PART
  6
Continuous
 62
     4
100
AcDbLine
 10
7.768176176593572
 20
10.95638940499319
 30
0.0
 11
7.768176176593572
 21
10.82138941285795
 31
0.0
  0
LINE
  5
57A6
330
17
100
AcDbEntity
  8
PART
  6
Continuous
 62
     4
100
AcDbLine
 10
7.808176176098706
 20
10.95638940499319
 30
0.0
 11
7.808176176098706
 21
10.82138941285795
 31
0.0
  0
LINE
  5
57A7
330
17
100
AcDbEntity
  8
PART
  6
Continuous
 62
     4
100
AcDbLine
 10
7.808176176098706
 20
10.82138941285795
 30
0.0
 11
7.823176175734097
 21
10.82138941285795
 31
0.0
  0
LINE
  5
57A8
330
17
100
AcDbEntity
  8
PART
  6
Continuous
 62
     4
100
AcDbLine
 10
7.768176176593572
 20
10.82138941285795
 30
0.0
 11
7.783176177088328
 21
10.82138941285795
 31
0.0
  0
LINE
  5
57A9
330
17
100
AcDbEntity
  8
PART
  6
Continuous
 62
     4
100
AcDbLine
 10
7.955676180916064
 20
10.84138941848285
 30
0.0
 11
7.925676172478722
 21
10.84138941848285
 31
0.0
  0
LINE
  5
57AA
330
17
100
AcDbEntity
  8
PART
  6
Continuous
 62
     4
100
AcDbLine
 10
7.955676180916064
 20
10.84138941848285
 30
0.0
 11
7.955676180916064
 21
10.85638941353496
 31
0.0
  0
LINE
  5
57AB
330
17
100
AcDbEntity
  8
PART
  6
Continuous
 62
     4
100
AcDbLine
 10
7.955676180916064
 20
10.85638941353496
 30
0.0
 11
7.935676175291169
 21
10.85638941353496
 31
0.0
  0
LINE
  5
57AC
330
17
100
AcDbEntity
  8
PART
  6
Continuous
 62
     4
100
AcDbLine
 10
7.925676172478722
 20
10.84138941848285
 30
0.0
 11
7.908788681731122
 21
10.84138941848285
 31
0.0
  0
LINE
  5
57AD
330
17
100
AcDbEntity
  8
PART
  6
Continuous
 62
     4
100
AcDbLine
 10
7.908788681731122
 20
10.84138941848285
 30
0.0
 11
7.876312730229418
 21
10.84138941848285
 31
0.0
  0
LINE
  5
57AE
330
17
100
AcDbEntity
  8
PART
  6
Continuous
 62
     4
100
AcDbLine
 10
7.945676178103616
 20
10.84138941848285
 30
0.0
 11
7.945676178103616
 21
10.84638941072251
 31
0.0
  0
LINE
  5
57AF
330
17
100
AcDbEntity
  8
PART
  6
Continuous
 62
     4
100
AcDbLine
 10
7.925676172478722
 20
10.84638941072251
 30
0.0
 11
7.945676178103616
 21
10.84638941072251
 31
0.0
  0
LINE
  5
57B0
330
17
100
AcDbEntity
  8
PART
  6
Continuous
 62
     4
100
AcDbLine
 10
7.940676167530831
 20
10.84638941072251
 30
0.0
 11
7.940676167530831
 21
10.84138941848285
 31
0.0
  0
LINE
  5
57B1
330
17
100
AcDbEntity
  8
PART
  6
Continuous
 62
     4
100
AcDbLine
 10
7.915676178832834
 20
10.84138941848285
 30
0.0
 11
7.915676178832834
 21
10.84638941072251
 31
0.0
  0
LINE
  5
57B2
330
17
100
AcDbEntity
  8
PART
  6
Continuous
 62
     4
100
AcDbLine
 10
7.925676172478722
 20
10.84638941072251
 30
0.0
 11
7.915676178832834
 21
10.84638941072251
 31
0.0
  0
LINE
  5
57B3
330
17
100
AcDbEntity
  8
PART
  6
Continuous
 62
     4
100
AcDbLine
 10
7.583176172401282
 20
10.82138941285795
 30
0.0
 11
7.583176172401282
 21
10.95638940499319
 31
0.0
  0
LINE
  5
57B4
330
17
100
AcDbEntity
  8
PART
  6
Continuous
 62
     4
100
AcDbLine
 10
7.663176176567741
 20
10.82138941285795
 30
0.0
 11
7.663176176567741
 21
10.95638940499319
 31
0.0
  0
LINE
  5
57B5
330
17
100
AcDbEntity
  8
PART
  6
Continuous
 62
     4
100
AcDbLine
 10
7.688176174432298
 20
10.95638940499319
 30
0.0
 11
7.688176174432298
 21
10.82138941285795
 31
0.0
  0
LINE
  5
57B6
330
17
100
AcDbEntity
  8
PART
  6
Continuous
 62
     4
100
AcDbLine
 10
7.70317617865097
 20
10.82138941285795
 30
0.0
 11
7.70317617865097
 21
10.95638940499319
 31
0.0
  0
LINE
  5
57B7
330
17
100
AcDbEntity
  8
PART
  6
Continuous
 62
     4
100
AcDbLine
 10
7.648176172349069
 20
10.95638940499319
 30
0.0
 11
7.648176172349069
 21
10.82138941285795
 31
0.0
  0
LINE
  5
57B8
330
17
100
AcDbEntity
  8
PART
  6
Continuous
 62
     4
100
AcDbLine
 10
7.60817617026584
 20
10.95638940499319
 30
0.0
 11
7.60817617026584
 21
10.82138941285795
 31
0.0
  0
LINE
  5
57B9
330
17
100
AcDbEntity
  8
PART
  6
Continuous
 62
     4
100
AcDbLine
 10
7.568176177349171
 20
10.95638940499319
 30
0.0
 11
7.568176177349171
 21
10.82138941285795
 31
0.0
  0
LINE
  5
57BA
330
17
100
AcDbEntity
  8
PART
  6
Continuous
 62
     4
100
AcDbLine
 10
7.728176176515528
 20
10.95638940499319
 30
0.0
 11
7.728176176515528
 21
10.82138941285795
 31
0.0
  0
LINE
  5
57BB
330
17
100
AcDbEntity
  8
PART
  6
Continuous
 62
     4
100
AcDbLine
 10
7.623176174484511
 20
10.82138941285795
 30
0.0
 11
7.623176174484511
 21
10.95638940499319
 31
0.0
  0
LINE
  5
57BC
330
17
100
AcDbEntity
  8
PART
  6
Continuous
 62
     4
100
AcDbLine
 10
7.543176179484614
 20
10.82138941285795
 30
0.0
 11
7.543176179484614
 21
10.95638940499319
 31
0.0
  0
LINE
  5
57BD
330
17
100
AcDbEntity
  8
PART
  6
Continuous
 62
     4
100
AcDbLine
 10
7.60817617026584
 20
10.82138941285795
 30
0.0
 11
7.623176174484511
 21
10.82138941285795
 31
0.0
  0
LINE
  5
57BE
330
17
100
AcDbEntity
  8
PART
  6
Continuous
 62
     4
100
AcDbLine
 10
7.568176177349171
 20
10.82138941285795
 30
0.0
 11
7.583176172401282
 21
10.82138941285795
 31
0.0
  0
LINE
  5
57BF
330
17
100
AcDbEntity
  8
PART
  6
Continuous
 62
     4
100
AcDbLine
 10
7.648176172349069
 20
10.82138941285795
 30
0.0
 11
7.663176176567741
 21
10.82138941285795
 31
0.0
  0
LINE
  5
57C0
330
17
100
AcDbEntity
  8
PART
  6
Continuous
 62
     4
100
AcDbLine
 10
7.688176174432298
 20
10.82138941285795
 30
0.0
 11
7.70317617865097
 21
10.82138941285795
 31
0.0
  0
LINE
  5
57C1
330
17
100
AcDbEntity
  8
PART
  6
Continuous
 62
     4
100
AcDbLine
 10
7.728176176515528
 20
10.82138941285795
 30
0.0
 11
7.743176176150919
 21
10.82138941285795
 31
0.0
  0
LINE
  5
57C2
330
17
100
AcDbEntity
  8
PART
  6
Continuous
 62
     4
100
AcDbLine
 10
7.745676176854031
 20
10.55038941180642
 30
0.0
 11
7.745676176854031
 21
10.58638941093136
 31
0.0
  0
LINE
  5
57C3
330
17
100
AcDbEntity
  8
PART
  6
Continuous
 62
     4
100
AcDbLine
 10
7.850676178885047
 20
10.64638941405621
 30
0.0
 11
7.935676175291169
 21
10.64638941405621
 31
0.0
  0
LINE
  5
57C4
330
17
100
AcDbEntity
  8
PART
  6
Continuous
 62
     4
100
AcDbLine
 10
7.925676172478722
 20
10.65638941228537
 30
0.0
 11
7.850676178885047
 21
10.65638941228537
 31
0.0
  0
LINE
  5
57C5
330
17
100
AcDbEntity
  8
PART
  6
Continuous
 62
     4
100
AcDbLine
 10
7.935676175291169
 20
10.64638941405621
 30
0.0
 11
7.935676175291169
 21
10.746389414681
 31
0.0
  0
LINE
  5
57C6
330
17
100
AcDbEntity
  8
PART
  6
Continuous
 62
     4
100
AcDbLine
 10
7.935676175291169
 20
10.746389414681
 30
0.0
 11
7.955676180916064
 21
10.746389414681
 31
0.0
  0
LINE
  5
57C7
330
17
100
AcDbEntity
  8
PART
  6
Continuous
 62
     4
100
AcDbLine
 10
7.955676180916064
 20
10.746389414681
 30
0.0
 11
7.955676180916064
 21
10.76138941431639
 31
0.0
  0
LINE
  5
57C8
330
17
100
AcDbEntity
  8
PART
  6
Continuous
 62
     4
100
AcDbLine
 10
7.925676172478722
 20
10.76138941431639
 30
0.0
 11
7.955676180916064
 21
10.76138941431639
 31
0.0
  0
LINE
  5
57C9
330
17
100
AcDbEntity
  8
PART
  6
Continuous
 62
     4
100
AcDbLine
 10
7.908788681731122
 20
10.76138941431639
 30
0.0
 11
7.925676172478722
 21
10.76138941431639
 31
0.0
  0
LINE
  5
57CA
330
17
100
AcDbEntity
  8
PART
  6
Continuous
 62
     4
100
AcDbLine
 10
7.876312730229418
 20
10.76138941431639
 30
0.0
 11
7.908788681731122
 21
10.76138941431639
 31
0.0
  0
LINE
  5
57CB
330
17
100
AcDbEntity
  8
PART
  6
Continuous
 62
     4
100
AcDbLine
 10
7.940676167530831
 20
10.76138941431639
 30
0.0
 11
7.940676167530831
 21
10.75638941291017
 31
0.0
  0
LINE
  5
57CC
330
17
100
AcDbEntity
  8
PART
  6
Continuous
 62
     4
100
AcDbLine
 10
7.945676178103616
 20
10.75638941291017
 30
0.0
 11
7.945676178103616
 21
10.76138941431639
 31
0.0
  0
LINE
  5
57CD
330
17
100
AcDbEntity
  8
PART
  6
Continuous
 62
     4
100
AcDbLine
 10
7.925676172478722
 20
10.75638941291017
 30
0.0
 11
7.925676172478722
 21
10.65638941228537
 31
0.0
  0
LINE
  5
57CE
330
17
100
AcDbEntity
  8
PART
  6
Continuous
 62
     4
100
AcDbLine
 10
7.945676178103616
 20
10.75638941291017
 30
0.0
 11
7.925676172478722
 21
10.75638941291017
 31
0.0
  0
LINE
  5
57CF
330
17
100
AcDbEntity
  8
PART
  6
Continuous
 62
     4
100
AcDbLine
 10
7.915676178832834
 20
10.75638941291017
 30
0.0
 11
7.915676178832834
 21
10.76138941431639
 31
0.0
  0
LINE
  5
57D0
330
17
100
AcDbEntity
  8
PART
  6
Continuous
 62
     4
100
AcDbLine
 10
7.925676172478722
 20
10.75638941291017
 30
0.0
 11
7.915676178832834
 21
10.75638941291017
 31
0.0
  0
LINE
  5
57D1
330
17
100
AcDbEntity
  8
PART
  6
Continuous
 62
     4
100
AcDbLine
 10
7.605676174146008
 20
10.58638941093136
 30
0.0
 11
7.605676174146008
 21
10.55038941180642
 31
0.0
  0
LINE
  5
57D2
330
17
100
AcDbEntity
  8
PART
  6
Continuous
 62
     4
100
AcDbLine
 10
7.745676176854031
 20
10.55038941180642
 30
0.0
 11
7.605676174146008
 21
10.55038941180642
 31
0.0
  0
LINE
  5
57D3
330
17
100
AcDbEntity
  8
PART
  6
Continuous
 62
     4
100
AcDbLine
 10
7.925676172478722
 20
10.76138941431639
 30
0.0
 11
7.925676172478722
 21
10.84138941848285
 31
0.0
  0
LINE
  5
57D4
330
17
100
AcDbEntity
  8
PART
  6
Continuous
 62
     4
100
AcDbLine
 10
7.908788681731122
 20
10.84138941848285
 30
0.0
 11
7.908788681731122
 21
10.76138941431639
 31
0.0
  0
LINE
  5
57D5
330
17
100
AcDbEntity
  8
PART
  6
Continuous
 62
     4
100
AcDbLine
 10
7.876312730229418
 20
10.84138941848285
 30
0.0
 11
7.876312730229418
 21
10.76138941431639
 31
0.0
  0
LINE
  5
57D6
330
17
100
AcDbEntity
  8
PART
100
AcDbLine
 10
7.98767616791615
 20
10.94138941675431
 30
0.0
 11
8.28367619087661
 21
10.94138941675431
 31
0.0
  0
LINE
  5
57D7
330
17
100
AcDbEntity
  8
PART
100
AcDbLine
 10
7.98767616791615
 20
10.90638941675431
 30
0.0
 11
8.28367619087661
 21
10.90638941675431
 31
0.0
  0
LINE
  5
57D8
330
17
100
AcDbEntity
  8
PART
  6
Continuous
 62
     4
100
AcDbLine
 10
6.473676161585384
 20
11.10938941129509
 30
0.0
 11
8.10067616791615
 21
11.10938941129509
 31
0.0
  0
LINE
  5
57D9
330
17
100
AcDbEntity
  8
PART
  6
Continuous
 62
     4
100
AcDbLine
 10
8.10067616791615
 20
10.43738941675431
 30
0.0
 11
6.473676161585384
 21
10.43738941675431
 31
0.0
  0
LINE
  5
57DA
330
17
100
AcDbEntity
  8
PART
  6
Continuous
 62
     4
100
AcDbLine
 10
8.10067616791615
 20
11.10938941129509
 30
0.0
 11
8.10067616791615
 21
10.94138941675431
 31
0.0
  0
LINE
  5
57DB
330
17
100
AcDbEntity
  8
PART
  6
Continuous
 62
     4
100
AcDbLine
 10
6.473676161585384
 20
10.43738941675431
 30
0.0
 11
6.473676161585384
 21
10.90638941675431
 31
0.0
  0
LINE
  5
57DC
330
17
100
AcDbEntity
  8
PART
  6
Continuous
 62
     4
100
AcDbLine
 10
8.10067616791615
 20
10.90638941675431
 30
0.0
 11
8.10067616791615
 21
10.43738941675431
 31
0.0
  0
LINE
  5
57DD
330
17
100
AcDbEntity
  8
PART
  6
Continuous
 62
     4
100
AcDbLine
 10
6.473676161585384
 20
10.94138941675431
 30
0.0
 11
6.473676161585384
 21
11.10938941129509
 31
0.0
  0
LINE
  5
57DE
330
17
100
AcDbEntity
  8
PART
100
AcDbLine
 10
6.473676161585384
 20
11.52138941675431
 30
0.0
 11
6.473676161585384
 21
11.35138941675431
 31
0.0
  0
LINE
  5
57DF
330
17
100
AcDbEntity
  8
PART
100
AcDbLine
 10
6.636676161585384
 20
11.52138941675431
 30
0.0
 11
6.636676161585384
 21
11.35138941675431
 31
0.0
  0
LINE
  5
57E0
330
17
100
AcDbEntity
  8
PART
100
AcDbLine
 10
6.473676161585384
 20
11.35138941675431
 30
0.0
 11
6.636676161585384
 21
11.35138941675431
 31
0.0
  0
LINE
  5
57E1
330
17
100
AcDbEntity
  8
PART
100
AcDbLine
 10
6.407676161585383
 20
10.18738941675431
 30
0.0
 11
6.807676161585384
 21
10.18738941675431
 31
0.0
  0
LINE
  5
57E2
330
17
100
AcDbEntity
  8
PART
100
AcDbLine
 10
6.807676161585384
 20
10.38338941675431
 30
0.0
 11
6.807676161585384
 21
10.18738941675431
 31
0.0
  0
LINE
  5
57E3
330
17
100
AcDbEntity
  8
PART
100
AcDbLine
 10
6.407676161585383
 20
10.38338941675431
 30
0.0
 11
6.407676161585383
 21
10.18738941675431
 31
0.0
  0
LINE
  5
57E4
330
17
100
AcDbEntity
  8
PART
100
AcDbLine
 10
6.407676161585383
 20
10.33038941675431
 30
0.0
 11
6.460676161585384
 21
10.33038941675431
 31
0.0
  0
LINE
  5
57E5
330
17
100
AcDbEntity
  8
PART
100
AcDbLine
 10
6.807676161585384
 20
10.22138941675431
 30
0.0
 11
8.192536469919401
 21
10.22138941675431
 31
0.0
  0
LINE
  5
57E6
330
17
100
AcDbEntity
  8
PART
  6
Continuous
 62
     4
100
AcDbLine
 10
6.807676161585384
 20
10.38338941675431
 30
0.0
 11
6.754676161585384
 21
10.38338941675431
 31
0.0
  0
LINE
  5
57E7
330
17
100
AcDbEntity
  8
PART
100
AcDbLine
 10
6.754676161585384
 20
10.38338941675431
 30
0.0
 11
6.754676161585384
 21
10.33038941675431
 31
0.0
  0
LINE
  5
57E8
330
17
100
AcDbEntity
  8
PART
100
AcDbLine
 10
6.460676161585384
 20
10.38338941675431
 30
0.0
 11
6.460676161585384
 21
10.33038941675431
 31
0.0
  0
LINE
  5
57E9
330
17
100
AcDbEntity
  8
PART
100
AcDbLine
 10
6.754676161585384
 20
10.33038941675431
 30
0.0
 11
6.807676161585384
 21
10.33038941675431
 31
0.0
  0
LINE
  5
57EA
330
17
100
AcDbEntity
  8
PART
100
AcDbLine
 10
6.460676161585384
 20
10.33038941675431
 30
0.0
 11
6.755380478727373
 21
10.33038941675431
 31
0.0
  0
LINE
  5
57EB
330
17
100
AcDbEntity
  8
PART
  6
Continuous
 62
     4
100
AcDbLine
 10
6.460676161585384
 20
10.38338941675432
 30
0.0
 11
6.407676161585383
 21
10.38338941675431
 31
0.0
  0
LINE
  5
57EC
330
17
100
AcDbEntity
  8
PART
100
AcDbLine
 10
6.412676161585384
 20
10.17638941675431
 30
0.0
 11
6.548176161585384
 21
10.17638941675431
 31
0.0
  0
LINE
  5
57ED
330
17
100
AcDbEntity
  8
PART
100
AcDbLine
 10
6.407676161585383
 20
10.22138941675431
 30
0.0
 11
6.407676161585383
 21
10.18138941675431
 31
0.0
  0
LINE
  5
57EE
330
17
100
AcDbEntity
  8
PART
100
AcDbLine
 10
6.553176161585383
 20
10.18738941675431
 30
0.0
 11
6.553176161585383
 21
10.18138941675431
 31
0.0
  0
LINE
  5
57EF
330
17
100
AcDbEntity
  8
PART
100
AcDbLine
 10
7.97042619087661
 20
10.17638941675431
 30
0.0
 11
8.105926190876608
 21
10.17638941675431
 31
0.0
  0
LINE
  5
57F0
330
17
100
AcDbEntity
  8
PART
100
AcDbLine
 10
7.965426190876609
 20
10.22138941675431
 30
0.0
 11
7.965426190876609
 21
10.18138941675431
 31
0.0
  0
LINE
  5
57F1
330
17
100
AcDbEntity
  8
PART
100
AcDbLine
 10
8.110926190876609
 20
10.22138941675431
 30
0.0
 11
8.110926190876609
 21
10.18138941675431
 31
0.0
  0
ARC
  5
57F2
330
17
100
AcDbEntity
  8
PART
100
AcDbCircle
 10
7.97042619087661
 20
10.18138941675431
 30
0.0
 40
0.005
100
AcDbArc
 50
180.0000000000002
 51
270.0000000000002
  0
ARC
  5
57F3
330
17
100
AcDbEntity
  8
PART
100
AcDbCircle
 10
8.105926190876608
 20
10.18138941675431
 30
0.0
 40
0.005
100
AcDbArc
 50
270.0
 51
0.0
  0
ARC
  5
57F4
330
17
100
AcDbEntity
  8
PART
100
AcDbCircle
 10
6.412676161585384
 20
10.18138941675431
 30
0.0
 40
0.005
100
AcDbArc
 50
180.0
 51
270.0000000000002
  0
ARC
  5
57F5
330
17
100
AcDbEntity
  8
PART
100
AcDbCircle
 10
6.548176161585384
 20
10.18138941675431
 30
0.0
 40
0.005
100
AcDbArc
 50
270.0000000000002
 51
0.0000000000006107
  0
TEXT
  5
57F8
330
17
100
AcDbEntity
  8
PART
100
AcDbText
 10
6.509438965602667
 20
11.0332613138637
 30
0.0
 40
0.05
  1
PORT
  7
ARIAL
100
AcDbText
  0
TEXT
  5
57F9
330
17
100
AcDbEntity
  8
PART
100
AcDbText
 10
6.515594021024041
 20
10.96831749160393
 30
0.0
 40
0.05
  1
  ON
  7
ARIAL
100
AcDbText
  0
TEXT
  5
57FA
330
17
100
AcDbEntity
  8
PART
100
AcDbText
 10
6.785826650078531
 20
11.30445623791648
 30
0.0
 40
0.05
  1
DATA & POWER
  7
ARIAL
100
AcDbText
  0
TEXT
  5
57FB
330
17
100
AcDbEntity
  8
PART
100
AcDbText
 10
6.815128353325702
 20
11.22413563764363
 30
0.0
 40
0.05
  1
        OUT
  7
ARIAL
100
AcDbText
  0
TEXT
  5
57FC
330
17
100
AcDbEntity
  8
PART
100
AcDbText
 10
7.579371369633603
 20
11.30380587727412
 30
0.0
 40
0.05
  1
DATA
  7
ARIAL
100
AcDbText
  0
TEXT
  5
57FD
330
17
100
AcDbEntity
  8
PART
100
AcDbText
 10
7.607130909547135
 20
11.22502640592335
 30
0.0
 40
0.05
  1
  IN
  7
ARIAL
100
AcDbText
  0
LINE
  5
5804
330
17
100
AcDbEntity
  8
PART
100
AcDbLine
 10
23.47931247116565
 20
10.87884824082842
 30
0.0
 11
23.10931247116566
 21
10.87884824082842
 31
0.0
  0
LINE
  5
5805
330
17
100
AcDbEntity
  8
PART
100
AcDbLine
 10
23.47931247116565
 20
10.84384824082842
 30
0.0
 11
23.10931247116566
 21
10.84384824082842
 31
0.0
  0
LINE
  5
5807
330
17
100
AcDbEntity
  8
PART
100
AcDbLine
 10
23.38859124398445
 20
11.45884824082842
 30
0.0
 11
21.52303369834687
 21
11.45884824082842
 31
0.0
  0
LINE
  5
5808
330
17
100
AcDbEntity
  8
PART
100
AcDbLine
 10
23.47931247116565
 20
10.84384824082842
 30
0.0
 11
23.45813159360954
 21
10.22644819291612
 31
0.0
  0
ARC
  5
5809
330
17
100
AcDbEntity
  8
PART
100
AcDbCircle
 10
23.38817275020845
 20
10.22884824082842
 30
0.0
 40
0.07
100
AcDbArc
 50
270.0
 51
358.0351489630087
  0
LINE
  5
580A
330
17
100
AcDbEntity
  8
PART
100
AcDbLine
 10
23.45853385699195
 20
11.39168212256235
 30
0.0
 11
23.47931247116565
 21
10.87884824082842
 31
0.0
  0
LINE
  5
580B
330
17
100
AcDbEntity
  8
PART
100
AcDbLine
 10
23.44431247116566
 20
10.87884824082842
 30
0.0
 11
23.44431247116566
 21
10.84384824082842
 31
0.0
  0
ARC
  5
580C
330
17
100
AcDbEntity
  8
PART
100
AcDbCircle
 10
23.38859124398445
 20
11.38884824082842
 30
0.0
 40
0.07
100
AcDbArc
 50
2.320197835398518
 51
90.0
  0
LINE
  5
583F
330
17
100
AcDbEntity
  8
PART
100
AcDbLine
 10
21.43231247116565
 20
10.84384824082842
 30
0.0
 11
21.45349334872177
 21
10.22644819291612
 31
0.0
  0
LINE
  5
5843
330
17
100
AcDbEntity
  8
PART
100
AcDbLine
 10
23.38817275020845
 20
10.15884824082842
 30
0.0
 11
22.00331244187443
 21
10.15884824082842
 31
0.0
  0
ARC
  5
5849
330
17
100
AcDbEntity
  8
PART
100
AcDbCircle
 10
23.16781250045688
 20
10.11884824082842
 30
0.0
 40
0.005
100
AcDbArc
 50
179.9999999999993
 51
269.9999999999997
  0
ARC
  5
584A
330
17
100
AcDbEntity
  8
PART
100
AcDbCircle
 10
23.30331250045688
 20
10.11884824082842
 30
0.0
 40
0.005
100
AcDbArc
 50
269.9999999999997
 51
0.000000000000007
  0
LINE
  5
584B
330
17
100
AcDbEntity
  8
PART
100
AcDbLine
 10
23.16281250045689
 20
10.15884824082842
 30
0.0
 11
23.16281250045688
 21
10.11884824082842
 31
0.0
  0
LINE
  5
584C
330
17
100
AcDbEntity
  8
PART
100
AcDbLine
 10
23.30831250045688
 20
10.15884824082842
 30
0.0
 11
23.30831250045688
 21
10.11884824082842
 31
0.0
  0
LINE
  5
584D
330
17
100
AcDbEntity
  8
PART
100
AcDbLine
 10
23.30331250045688
 20
10.11384824082842
 30
0.0
 11
23.16781250045688
 21
10.11384824082842
 31
0.0
  0
LINE
  5
5897
330
17
100
AcDbEntity
  8
PART
100
AcDbLine
 10
21.74556247116565
 20
10.11384824082842
 30
0.0
 11
21.61006247116566
 21
10.11384824082842
 31
0.0
  0
ARC
  5
5898
330
17
100
AcDbEntity
  8
PART
100
AcDbCircle
 10
21.74556247116565
 20
10.11884824082842
 30
0.0
 40
0.005
100
AcDbArc
 50
269.9999999999997
 51
359.9999999999997
  0
LINE
  5
5899
330
17
100
AcDbEntity
  8
PART
100
AcDbLine
 10
21.75056247116565
 20
10.12484824082843
 30
0.0
 11
21.75056247116565
 21
10.11884824082842
 31
0.0
  0
ARC
  5
589C
330
17
100
AcDbEntity
  8
PART
100
AcDbCircle
 10
21.52345219212286
 20
10.22884824082842
 30
0.0
 40
0.07
100
AcDbArc
 50
181.9648510369913
 51
270.0
  0
LINE
  5
58E8
330
17
100
AcDbEntity
  8
PART
100
AcDbLine
 10
21.45309108533936
 20
11.39168212256235
 30
0.0
 11
21.43231247116565
 21
10.87884824082842
 31
0.0
  0
LINE
  5
58E9
330
17
100
AcDbEntity
  8
PART
100
AcDbLine
 10
21.88931247116566
 20
10.84384824082842
 30
0.0
 11
21.43231247116565
 21
10.84384824082842
 31
0.0
  0
LINE
  5
58EA
330
17
100
AcDbEntity
  8
PART
100
AcDbLine
 10
21.88931247116566
 20
10.87884824082843
 30
0.0
 11
21.43231247116565
 21
10.87884824082842
 31
0.0
  0
LINE
  5
58F8
330
17
100
AcDbEntity
  8
PART
100
AcDbLine
 10
21.46731247116565
 20
10.87884824082842
 30
0.0
 11
21.46731247116565
 21
10.84384824082842
 31
0.0
  0
ARC
  5
58F9
330
17
100
AcDbEntity
  8
PART
100
AcDbCircle
 10
21.52303369834687
 20
11.38884824082842
 30
0.0
 40
0.07
100
AcDbArc
 50
90.0
 51
177.6798021646014
  0
LINE
  5
58FA
330
17
100
AcDbEntity
  8
PART
100
AcDbLine
 10
21.60331244187443
 20
10.12484824082842
 30
0.0
 11
22.00331244187443
 21
10.12484824082842
 31
0.0
  0
LINE
  5
58FB
330
17
100
AcDbEntity
  8
PART
100
AcDbLine
 10
21.65631244187443
 20
10.26784824082842
 30
0.0
 11
21.95101675901642
 21
10.26784824082842
 31
0.0
  0
LINE
  5
58FC
330
17
100
AcDbEntity
  8
PART
100
AcDbLine
 10
22.00331244187443
 20
10.32084824082842
 30
0.0
 11
22.00331244187443
 21
10.12484824082842
 31
0.0
  0
LINE
  5
58FD
330
17
100
AcDbEntity
  8
PART
100
AcDbLine
 10
21.95031244187443
 20
10.32084824082842
 30
0.0
 11
21.95031244187443
 21
10.26784824082842
 31
0.0
  0
LINE
  5
58FE
330
17
100
AcDbEntity
  8
PART
100
AcDbLine
 10
21.95101675901642
 20
10.26784824082842
 30
0.0
 11
22.00401675901642
 21
10.26784824082842
 31
0.0
  0
LINE
  5
58FF
330
17
100
AcDbEntity
  8
PART
  6
Continuous
 62
     4
100
AcDbLine
 10
22.00331244187443
 20
10.32084824082842
 30
0.0
 11
21.95031244187443
 21
10.32084824082842
 31
0.0
  0
LINE
  5
5900
330
17
100
AcDbEntity
  8
PART
100
AcDbLine
 10
21.60331244187443
 20
10.26784824082842
 30
0.0
 11
21.65631244187443
 21
10.26784824082842
 31
0.0
  0
LINE
  5
5901
330
17
100
AcDbEntity
  8
PART
100
AcDbLine
 10
21.60831244187443
 20
10.11384824082842
 30
0.0
 11
21.74381244187443
 21
10.11384824082842
 31
0.0
  0
LINE
  5
5902
330
17
100
AcDbEntity
  8
PART
  6
Continuous
 62
     4
100
AcDbLine
 10
21.65631244187443
 20
10.32084824082843
 30
0.0
 11
21.60331244187443
 21
10.32084824082842
 31
0.0
  0
LINE
  5
5903
330
17
100
AcDbEntity
  8
PART
100
AcDbLine
 10
21.65631244187443
 20
10.32084824082842
 30
0.0
 11
21.65631244187443
 21
10.26784824082842
 31
0.0
  0
LINE
  5
5904
330
17
100
AcDbEntity
  8
PART
100
AcDbLine
 10
21.74881244187443
 20
10.12484824082842
 30
0.0
 11
21.74881244187443
 21
10.11884824082842
 31
0.0
  0
ARC
  5
5905
330
17
100
AcDbEntity
  8
PART
100
AcDbCircle
 10
21.74381244187443
 20
10.11884824082842
 30
0.0
 40
0.005
100
AcDbArc
 50
270.0000000000002
 51
0.0000000000006177
  0
LINE
  5
5906
330
17
100
AcDbEntity
  8
PART
100
AcDbLine
 10
21.60331244187443
 20
10.32084824082842
 30
0.0
 11
21.60331244187443
 21
10.12484824082842
 31
0.0
  0
LINE
  5
5907
330
17
100
AcDbEntity
  8
PART
100
AcDbLine
 10
21.60331244187443
 20
10.15884824082842
 30
0.0
 11
21.60331244187443
 21
10.11884824082842
 31
0.0
  0
ARC
  5
5908
330
17
100
AcDbEntity
  8
PART
100
AcDbCircle
 10
21.60831244187443
 20
10.11884824082842
 30
0.0
 40
0.005
100
AcDbArc
 50
180.0
 51
270.0000000000002
  0
LINE
  5
5909
330
17
100
AcDbEntity
  8
PART
100
AcDbLine
 10
21.52345219212287
 20
10.15884824082842
 30
0.0
 11
21.60331244187443
 21
10.15884824082842
 31
0.0
  0
LINE
  5
590A
330
17
100
AcDbEntity
  8
PART
100
AcDbLine
 10
21.60331244187443
 20
10.15884824082842
 30
0.0
 11
21.52345219212286
 21
10.15884824082842
 31
0.0
  0
LINE
  5
5DA5
330
17
100
AcDbEntity
  8
PART
  6
Continuous
 62
     4
100
AcDbLine
 10
22.87556247116566
 20
10.53884824082841
 30
0.0
 11
22.12306247116566
 21
10.53884824082842
 31
0.0
  0
LINE
  5
5DA6
330
17
100
AcDbEntity
  8
PART
  6
Continuous
 62
     4
100
AcDbLine
 10
22.97556247116566
 20
10.63884824082841
 30
0.0
 11
22.97556247116566
 21
10.99534824082841
 31
0.0
  0
LINE
  5
5DA7
330
17
100
AcDbEntity
  8
PART
  6
Continuous
 62
     4
100
AcDbLine
 10
22.97556247116566
 20
10.99534824082841
 30
0.0
 11
22.78556247116566
 21
11.1853482408284
 31
0.0
  0
LINE
  5
5DA8
330
17
100
AcDbEntity
  8
PART
  6
Continuous
 62
     4
100
AcDbLine
 10
22.78556247116566
 20
11.1853482408284
 30
0.0
 11
22.21306247116566
 21
11.18534824082841
 31
0.0
  0
LINE
  5
5DA9
330
17
100
AcDbEntity
  8
PART
  6
Continuous
 62
     4
100
AcDbLine
 10
22.02306247116566
 20
10.99534824082841
 30
0.0
 11
22.21306247116566
 21
11.18534824082841
 31
0.0
  0
LINE
  5
5DAA
330
17
100
AcDbEntity
  8
PART
  6
Continuous
 62
     4
100
AcDbLine
 10
22.02306247116566
 20
10.63884824082841
 30
0.0
 11
22.02306247116566
 21
10.99534824082841
 31
0.0
  0
ARC
  5
5DAB
330
17
100
AcDbEntity
  8
PART
  6
Continuous
 62
     4
100
AcDbCircle
 10
22.12306247116566
 20
10.63884824082841
 30
0.0
 40
0.0999999999999997
100
AcDbArc
 50
180.0000000000007
 51
270.0
  0
LINE
  5
5DAC
330
17
100
AcDbEntity
  8
PART
  6
Continuous
 62
     4
100
AcDbLine
 10
23.10931247116566
 20
10.38884824082842
 30
0.0
 11
23.10931247116566
 21
11.33284824082841
 31
0.0
  0
LINE
  5
5DAD
330
17
100
AcDbEntity
  8
PART
  6
Continuous
 62
     4
100
AcDbLine
 10
21.88931247116566
 20
10.38884824082842
 30
0.0
 11
23.10931247116566
 21
10.38884824082842
 31
0.0
  0
LINE
  5
5DAE
330
17
100
AcDbEntity
  8
PART
  6
Continuous
 62
     4
100
AcDbLine
 10
21.88931247116566
 20
11.33284824082841
 30
0.0
 11
21.88931247116566
 21
10.38884824082842
 31
0.0
  0
LINE
  5
5DAF
330
17
100
AcDbEntity
  8
PART
  6
Continuous
 62
     4
100
AcDbLine
 10
23.10931247116566
 20
11.33284824082841
 30
0.0
 11
21.88931247116566
 21
11.33284824082841
 31
0.0
  0
ARC
  5
5DB0
330
17
100
AcDbEntity
  8
PART
  6
Continuous
 62
     4
100
AcDbCircle
 10
22.87556247116565
 20
10.63884824082841
 30
0.0
 40
0.0999999999999997
100
AcDbArc
 50
270.0
 51
0.0
  0
LINE
  5
5DB1
330
17
100
AcDbEntity
  8
PART
  6
Continuous
 62
     4
100
AcDbLine
 10
22.48131247116565
 20
10.88084824082841
 30
0.0
 11
22.51731247116566
 21
10.88084824082841
 31
0.0
  0
LINE
  5
5DB2
330
17
100
AcDbEntity
  8
PART
  6
Continuous
 62
     4
100
AcDbLine
 10
22.53731247116566
 20
10.86084824082842
 30
0.0
 11
22.51731247116566
 21
10.88084824082841
 31
0.0
  0
LINE
  5
5DB3
330
17
100
AcDbEntity
  8
PART
  6
Continuous
 62
     4
100
AcDbLine
 10
22.53731247116566
 20
10.86084824082842
 30
0.0
 11
22.46131247116566
 21
10.86084824082842
 31
0.0
  0
LINE
  5
5DB4
330
17
100
AcDbEntity
  8
PART
  6
Continuous
 62
     4
100
AcDbLine
 10
22.48131247116565
 20
10.88084824082841
 30
0.0
 11
22.46131247116566
 21
10.86084824082842
 31
0.0
  0
LINE
  5
5DB5
330
17
100
AcDbEntity
  8
PART
  6
Continuous
 62
     4
100
AcDbLine
 10
22.48131247116565
 20
10.9978482408284
 30
0.0
 11
22.48131247116565
 21
10.88084824082841
 31
0.0
  0
LINE
  5
5DB6
330
17
100
AcDbEntity
  8
PART
  6
Continuous
 62
     4
100
AcDbLine
 10
22.46131247116566
 20
10.86084824082842
 30
0.0
 11
22.46131247116566
 21
11.01784824082841
 31
0.0
  0
LINE
  5
5DB7
330
17
100
AcDbEntity
  8
PART
  6
Continuous
 62
     4
100
AcDbLine
 10
22.48131247116565
 20
10.9978482408284
 30
0.0
 11
22.46131247116566
 21
11.01784824082841
 31
0.0
  0
LINE
  5
5DB8
330
17
100
AcDbEntity
  8
PART
  6
Continuous
 62
     4
100
AcDbLine
 10
22.51731247116566
 20
10.9978482408284
 30
0.0
 11
22.48131247116565
 21
10.9978482408284
 31
0.0
  0
LINE
  5
5DB9
330
17
100
AcDbEntity
  8
PART
  6
Continuous
 62
     4
100
AcDbLine
 10
22.51731247116566
 20
10.88084824082841
 30
0.0
 11
22.51731247116566
 21
10.9978482408284
 31
0.0
  0
LINE
  5
5DBA
330
17
100
AcDbEntity
  8
PART
  6
Continuous
 62
     4
100
AcDbLine
 10
22.46131247116566
 20
11.01784824082841
 30
0.0
 11
22.53731247116566
 21
11.01784824082841
 31
0.0
  0
LINE
  5
5DBB
330
17
100
AcDbEntity
  8
PART
  6
Continuous
 62
     4
100
AcDbLine
 10
22.53731247116566
 20
11.01784824082841
 30
0.0
 11
22.51731247116566
 21
10.9978482408284
 31
0.0
  0
LINE
  5
5DBC
330
17
100
AcDbEntity
  8
PART
  6
Continuous
 62
     4
100
AcDbLine
 10
22.53731247116566
 20
11.01784824082841
 30
0.0
 11
22.53731247116566
 21
10.86084824082842
 31
0.0
  0
LINE
  5
5DBD
330
17
100
AcDbEntity
  8
PART
  6
Continuous
 62
     4
100
AcDbLine
 10
22.20981247116566
 20
10.72334824082842
 30
0.0
 11
22.24581247116566
 21
10.72334824082842
 31
0.0
  0
LINE
  5
5DBE
330
17
100
AcDbEntity
  8
PART
  6
Continuous
 62
     4
100
AcDbLine
 10
22.26581247116566
 20
10.70334824082841
 30
0.0
 11
22.24581247116566
 21
10.72334824082842
 31
0.0
  0
LINE
  5
5DBF
330
17
100
AcDbEntity
  8
PART
  6
Continuous
 62
     4
100
AcDbLine
 10
22.26581247116566
 20
10.70334824082841
 30
0.0
 11
22.18981247116566
 21
10.70334824082841
 31
0.0
  0
LINE
  5
5DC0
330
17
100
AcDbEntity
  8
PART
  6
Continuous
 62
     4
100
AcDbLine
 10
22.20981247116566
 20
10.72334824082842
 30
0.0
 11
22.18981247116566
 21
10.70334824082841
 31
0.0
  0
LINE
  5
5DC1
330
17
100
AcDbEntity
  8
PART
  6
Continuous
 62
     4
100
AcDbLine
 10
22.75281247116566
 20
10.72334824082841
 30
0.0
 11
22.78881247116566
 21
10.72334824082841
 31
0.0
  0
LINE
  5
5DC2
330
17
100
AcDbEntity
  8
PART
  6
Continuous
 62
     4
100
AcDbLine
 10
22.80881247116566
 20
10.7033482408284
 30
0.0
 11
22.78881247116566
 21
10.72334824082841
 31
0.0
  0
LINE
  5
5DC3
330
17
100
AcDbEntity
  8
PART
  6
Continuous
 62
     4
100
AcDbLine
 10
22.80881247116566
 20
10.7033482408284
 30
0.0
 11
22.73281247116566
 21
10.7033482408284
 31
0.0
  0
LINE
  5
5DC4
330
17
100
AcDbEntity
  8
PART
  6
Continuous
 62
     4
100
AcDbLine
 10
22.75281247116566
 20
10.72334824082841
 30
0.0
 11
22.73281247116566
 21
10.7033482408284
 31
0.0
  0
LINE
  5
5DC5
330
17
100
AcDbEntity
  8
PART
  6
Continuous
 62
     4
100
AcDbLine
 10
22.75281247116566
 20
10.84034824082842
 30
0.0
 11
22.75281247116566
 21
10.72334824082841
 31
0.0
  0
LINE
  5
5DC6
330
17
100
AcDbEntity
  8
PART
  6
Continuous
 62
     4
100
AcDbLine
 10
22.73281247116566
 20
10.7033482408284
 30
0.0
 11
22.73281247116566
 21
10.86034824082841
 31
0.0
  0
LINE
  5
5DC7
330
17
100
AcDbEntity
  8
PART
  6
Continuous
 62
     4
100
AcDbLine
 10
22.75281247116566
 20
10.84034824082842
 30
0.0
 11
22.73281247116566
 21
10.86034824082841
 31
0.0
  0
LINE
  5
5DC8
330
17
100
AcDbEntity
  8
PART
  6
Continuous
 62
     4
100
AcDbLine
 10
22.78881247116566
 20
10.84034824082842
 30
0.0
 11
22.75281247116566
 21
10.84034824082842
 31
0.0
  0
LINE
  5
5DC9
330
17
100
AcDbEntity
  8
PART
  6
Continuous
 62
     4
100
AcDbLine
 10
22.78881247116566
 20
10.72334824082841
 30
0.0
 11
22.78881247116566
 21
10.84034824082842
 31
0.0
  0
LINE
  5
5DCA
330
17
100
AcDbEntity
  8
PART
  6
Continuous
 62
     4
100
AcDbLine
 10
22.24581247116566
 20
10.84034824082842
 30
0.0
 11
22.20981247116566
 21
10.84034824082842
 31
0.0
  0
LINE
  5
5DCB
330
17
100
AcDbEntity
  8
PART
  6
Continuous
 62
     4
100
AcDbLine
 10
22.24581247116566
 20
10.72334824082842
 30
0.0
 11
22.24581247116566
 21
10.84034824082842
 31
0.0
  0
LINE
  5
5DCC
330
17
100
AcDbEntity
  8
PART
  6
Continuous
 62
     4
100
AcDbLine
 10
22.20981247116566
 20
10.84034824082842
 30
0.0
 11
22.20981247116566
 21
10.72334824082842
 31
0.0
  0
LINE
  5
5DCD
330
17
100
AcDbEntity
  8
PART
  6
Continuous
 62
     4
100
AcDbLine
 10
22.73281247116566
 20
10.86034824082841
 30
0.0
 11
22.80881247116566
 21
10.86034824082841
 31
0.0
  0
LINE
  5
5DCE
330
17
100
AcDbEntity
  8
PART
  6
Continuous
 62
     4
100
AcDbLine
 10
22.80881247116566
 20
10.86034824082841
 30
0.0
 11
22.78881247116566
 21
10.84034824082842
 31
0.0
  0
LINE
  5
5DCF
330
17
100
AcDbEntity
  8
PART
  6
Continuous
 62
     4
100
AcDbLine
 10
22.26581247116566
 20
10.86034824082842
 30
0.0
 11
22.26581247116566
 21
10.70334824082841
 31
0.0
  0
LINE
  5
5DD0
330
17
100
AcDbEntity
  8
PART
  6
Continuous
 62
     4
100
AcDbLine
 10
22.26581247116566
 20
10.86034824082842
 30
0.0
 11
22.24581247116566
 21
10.84034824082842
 31
0.0
  0
LINE
  5
5DD1
330
17
100
AcDbEntity
  8
PART
  6
Continuous
 62
     4
100
AcDbLine
 10
22.18981247116566
 20
10.70334824082841
 30
0.0
 11
22.18981247116566
 21
10.86034824082842
 31
0.0
  0
LINE
  5
5DD2
330
17
100
AcDbEntity
  8
PART
  6
Continuous
 62
     4
100
AcDbLine
 10
22.20981247116566
 20
10.84034824082842
 30
0.0
 11
22.18981247116566
 21
10.86034824082842
 31
0.0
  0
LINE
  5
5DD3
330
17
100
AcDbEntity
  8
PART
  6
Continuous
 62
     4
100
AcDbLine
 10
22.80881247116566
 20
10.86034824082841
 30
0.0
 11
22.80881247116566
 21
10.7033482408284
 31
0.0
  0
LINE
  5
5DD4
330
17
100
AcDbEntity
  8
PART
  6
Continuous
 62
     4
100
AcDbLine
 10
22.18981247116566
 20
10.86034824082842
 30
0.0
 11
22.26581247116566
 21
10.86034824082842
 31
0.0
  0
LINE
  5
5DE4
330
17
100
AcDbEntity
  8
PART
100
AcDbLine
 10
18.24767457711167
 20
11.39246409680839
 30
0.0
 11
18.27424091448995
 21
10.87884824082842
 31
0.0
  0
LINE
  5
5DE5
330
17
100
AcDbEntity
  8
PART
100
AcDbLine
 10
18.27424091448995
 20
10.84384824082842
 30
0.0
 11
18.24717247255271
 21
10.22578548326148
 31
0.0
  0
ARC
  5
5DE6
330
17
100
AcDbEntity
  8
PART
100
AcDbCircle
 10
18.17776802816572
 20
11.38884824082842
 30
0.0
 40
0.07
100
AcDbArc
 50
2.960936134163842
 51
90.0
  0
ARC
  5
5DE7
330
17
100
AcDbEntity
  8
PART
100
AcDbCircle
 10
18.17723950810757
 20
10.22884824082842
 30
0.0
 40
0.07
100
AcDbArc
 50
270.0
 51
357.4922982729339
  0
LINE
  5
5DEA
330
17
100
AcDbEntity
  8
PART
100
AcDbLine
 10
12.81424091448995
 20
10.84384824082842
 30
0.0
 11
12.84130935642719
 21
10.22578548326148
 31
0.0
  0
LINE
  5
5DEB
330
17
100
AcDbEntity
  8
PART
100
AcDbLine
 10
12.81424091448995
 20
10.87884824082842
 30
0.0
 11
12.84080725186822
 21
11.39246409680839
 31
0.0
  0
ARC
  5
5DEC
330
17
100
AcDbEntity
  8
PART
100
AcDbCircle
 10
12.91071380081417
 20
11.38884824082842
 30
0.0
 40
0.07
100
AcDbArc
 50
90.00000000000003
 51
177.0390638658363
  0
ARC
  5
5DED
330
17
100
AcDbEntity
  8
PART
100
AcDbCircle
 10
12.91124232087233
 20
10.22884824082842
 30
0.0
 40
0.07
100
AcDbArc
 50
182.5077017270661
 51
270.0
  0
LINE
  5
5DEF
330
17
100
AcDbEntity
  8
PART
100
AcDbLine
 10
13.16424091448995
 20
10.99134824082842
 30
0.0
 11
13.16424091448995
 21
11.45884824082842
 31
0.0
  0
LINE
  5
5DF0
330
17
100
AcDbEntity
  8
PART
100
AcDbLine
 10
13.25924091448995
 20
10.99134824082842
 30
0.0
 11
13.25924091448995
 21
11.45884824082842
 31
0.0
  0
LINE
  5
5DF1
330
17
100
AcDbEntity
  8
PART
100
AcDbLine
 10
13.16424091448995
 20
10.99134824082842
 30
0.0
 11
13.25924091448995
 21
10.99134824082842
 31
0.0
  0
LINE
  5
5DF2
330
17
100
AcDbEntity
  8
PART
100
AcDbLine
 10
13.16424091448995
 20
11.44134824082842
 30
0.0
 11
13.25924091448994
 21
11.44134824082843
 31
0.0
  0
LINE
  5
5E4F
330
17
100
AcDbEntity
  8
PART
100
AcDbLine
 10
13.45424091448995
 20
10.99134824082842
 30
0.0
 11
13.45424091448995
 21
11.45884824082842
 31
0.0
  0
LINE
  5
5E50
330
17
100
AcDbEntity
  8
PART
100
AcDbLine
 10
13.35924091448995
 20
10.99134824082842
 30
0.0
 11
13.35924091448995
 21
11.45884824082842
 31
0.0
  0
LINE
  5
5E51
330
17
100
AcDbEntity
  8
PART
100
AcDbLine
 10
13.35924091448995
 20
10.99134824082842
 30
0.0
 11
13.45424091448995
 21
10.99134824082842
 31
0.0
  0
LINE
  5
5E52
330
17
100
AcDbEntity
  8
PART
100
AcDbLine
 10
13.35924091448995
 20
11.44134824082842
 30
0.0
 11
13.45424091448994
 21
11.44134824082843
 31
0.0
  0
LINE
  5
5E53
330
17
100
AcDbEntity
  8
PART
100
AcDbLine
 10
13.64924091448995
 20
10.99134824082842
 30
0.0
 11
13.64924091448995
 21
11.45884824082842
 31
0.0
  0
LINE
  5
5E54
330
17
100
AcDbEntity
  8
PART
100
AcDbLine
 10
13.55424091448995
 20
10.99134824082842
 30
0.0
 11
13.55424091448995
 21
11.45884824082842
 31
0.0
  0
LINE
  5
5E55
330
17
100
AcDbEntity
  8
PART
100
AcDbLine
 10
13.55424091448995
 20
10.99134824082842
 30
0.0
 11
13.64924091448995
 21
10.99134824082842
 31
0.0
  0
LINE
  5
5E56
330
17
100
AcDbEntity
  8
PART
100
AcDbLine
 10
13.55424091448995
 20
11.44134824082842
 30
0.0
 11
13.64924091448995
 21
11.44134824082843
 31
0.0
  0
LINE
  5
5E57
330
17
100
AcDbEntity
  8
PART
100
AcDbLine
 10
13.84424091448995
 20
10.99134824082842
 30
0.0
 11
13.84424091448995
 21
11.45884824082842
 31
0.0
  0
LINE
  5
5E58
330
17
100
AcDbEntity
  8
PART
100
AcDbLine
 10
13.74924091448995
 20
10.99134824082842
 30
0.0
 11
13.74924091448995
 21
11.45884824082842
 31
0.0
  0
LINE
  5
5E59
330
17
100
AcDbEntity
  8
PART
100
AcDbLine
 10
13.74924091448995
 20
10.99134824082842
 30
0.0
 11
13.84424091448995
 21
10.99134824082842
 31
0.0
  0
LINE
  5
5E5A
330
17
100
AcDbEntity
  8
PART
100
AcDbLine
 10
13.74924091448995
 20
11.44134824082842
 30
0.0
 11
13.84424091448994
 21
11.44134824082843
 31
0.0
  0
LINE
  5
5E5B
330
17
100
AcDbEntity
  8
PART
100
AcDbLine
 10
14.03924091448994
 20
10.99134824082842
 30
0.0
 11
14.03924091448994
 21
11.45884824082842
 31
0.0
  0
LINE
  5
5E5C
330
17
100
AcDbEntity
  8
PART
100
AcDbLine
 10
13.94424091448994
 20
10.99134824082842
 30
0.0
 11
13.94424091448994
 21
11.45884824082842
 31
0.0
  0
LINE
  5
5E5D
330
17
100
AcDbEntity
  8
PART
100
AcDbLine
 10
13.94424091448994
 20
10.99134824082842
 30
0.0
 11
14.03924091448995
 21
10.99134824082842
 31
0.0
  0
LINE
  5
5E5E
330
17
100
AcDbEntity
  8
PART
100
AcDbLine
 10
13.94424091448994
 20
11.44134824082842
 30
0.0
 11
14.03924091448994
 21
11.44134824082843
 31
0.0
  0
LINE
  5
5E5F
330
17
100
AcDbEntity
  8
PART
100
AcDbLine
 10
14.23424091448995
 20
10.99134824082842
 30
0.0
 11
14.23424091448995
 21
11.45884824082842
 31
0.0
  0
LINE
  5
5E60
330
17
100
AcDbEntity
  8
PART
100
AcDbLine
 10
14.13924091448994
 20
10.99134824082842
 30
0.0
 11
14.13924091448994
 21
11.45884824082842
 31
0.0
  0
LINE
  5
5E61
330
17
100
AcDbEntity
  8
PART
100
AcDbLine
 10
14.13924091448994
 20
10.99134824082842
 30
0.0
 11
14.23424091448995
 21
10.99134824082842
 31
0.0
  0
LINE
  5
5E62
330
17
100
AcDbEntity
  8
PART
100
AcDbLine
 10
14.13924091448994
 20
11.44134824082842
 30
0.0
 11
14.23424091448994
 21
11.44134824082843
 31
0.0
  0
LINE
  5
5E63
330
17
100
AcDbEntity
  8
PART
100
AcDbLine
 10
14.42924091448995
 20
10.99134824082842
 30
0.0
 11
14.42924091448995
 21
11.45884824082842
 31
0.0
  0
LINE
  5
5E64
330
17
100
AcDbEntity
  8
PART
100
AcDbLine
 10
14.33424091448995
 20
10.99134824082842
 30
0.0
 11
14.33424091448995
 21
11.45884824082842
 31
0.0
  0
LINE
  5
5E65
330
17
100
AcDbEntity
  8
PART
100
AcDbLine
 10
14.33424091448995
 20
10.99134824082842
 30
0.0
 11
14.42924091448995
 21
10.99134824082842
 31
0.0
  0
LINE
  5
5E66
330
17
100
AcDbEntity
  8
PART
100
AcDbLine
 10
14.33424091448995
 20
11.44134824082842
 30
0.0
 11
14.42924091448994
 21
11.44134824082843
 31
0.0
  0
LINE
  5
5E67
330
17
100
AcDbEntity
  8
PART
100
AcDbLine
 10
14.62424091448995
 20
10.99134824082842
 30
0.0
 11
14.62424091448995
 21
11.45884824082842
 31
0.0
  0
LINE
  5
5E68
330
17
100
AcDbEntity
  8
PART
100
AcDbLine
 10
14.52924091448995
 20
10.99134824082842
 30
0.0
 11
14.52924091448995
 21
11.45884824082842
 31
0.0
  0
LINE
  5
5E69
330
17
100
AcDbEntity
  8
PART
100
AcDbLine
 10
14.52924091448995
 20
10.99134824082842
 30
0.0
 11
14.62424091448995
 21
10.99134824082842
 31
0.0
  0
LINE
  5
5E6A
330
17
100
AcDbEntity
  8
PART
100
AcDbLine
 10
14.52924091448995
 20
11.44134824082842
 30
0.0
 11
14.62424091448994
 21
11.44134824082843
 31
0.0
  0
LINE
  5
5E6B
330
17
100
AcDbEntity
  8
PART
100
AcDbLine
 10
14.81924091448995
 20
10.99134824082842
 30
0.0
 11
14.81924091448995
 21
11.45884824082842
 31
0.0
  0
LINE
  5
5E6C
330
17
100
AcDbEntity
  8
PART
100
AcDbLine
 10
14.72424091448995
 20
10.99134824082842
 30
0.0
 11
14.72424091448995
 21
11.45884824082842
 31
0.0
  0
LINE
  5
5E6D
330
17
100
AcDbEntity
  8
PART
100
AcDbLine
 10
14.72424091448995
 20
10.99134824082842
 30
0.0
 11
14.81924091448995
 21
10.99134824082842
 31
0.0
  0
LINE
  5
5E6E
330
17
100
AcDbEntity
  8
PART
100
AcDbLine
 10
14.72424091448995
 20
11.44134824082842
 30
0.0
 11
14.81924091448995
 21
11.44134824082843
 31
0.0
  0
LINE
  5
5E6F
330
17
100
AcDbEntity
  8
PART
100
AcDbLine
 10
15.01424091448995
 20
10.99134824082842
 30
0.0
 11
15.01424091448995
 21
11.45884824082842
 31
0.0
  0
LINE
  5
5E70
330
17
100
AcDbEntity
  8
PART
100
AcDbLine
 10
14.91924091448995
 20
10.99134824082842
 30
0.0
 11
14.91924091448995
 21
11.45884824082842
 31
0.0
  0
LINE
  5
5E71
330
17
100
AcDbEntity
  8
PART
100
AcDbLine
 10
14.91924091448995
 20
10.99134824082842
 30
0.0
 11
15.01424091448995
 21
10.99134824082842
 31
0.0
  0
LINE
  5
5E72
330
17
100
AcDbEntity
  8
PART
100
AcDbLine
 10
14.91924091448995
 20
11.44134824082842
 30
0.0
 11
15.01424091448995
 21
11.44134824082843
 31
0.0
  0
LINE
  5
5E73
330
17
100
AcDbEntity
  8
PART
100
AcDbLine
 10
15.20924091448994
 20
10.99134824082842
 30
0.0
 11
15.20924091448994
 21
11.45884824082842
 31
0.0
  0
LINE
  5
5E74
330
17
100
AcDbEntity
  8
PART
100
AcDbLine
 10
15.11424091448995
 20
10.99134824082842
 30
0.0
 11
15.11424091448995
 21
11.45884824082842
 31
0.0
  0
LINE
  5
5E75
330
17
100
AcDbEntity
  8
PART
100
AcDbLine
 10
15.11424091448995
 20
10.99134824082842
 30
0.0
 11
15.20924091448995
 21
10.99134824082842
 31
0.0
  0
LINE
  5
5E76
330
17
100
AcDbEntity
  8
PART
100
AcDbLine
 10
15.11424091448995
 20
11.44134824082842
 30
0.0
 11
15.20924091448994
 21
11.44134824082843
 31
0.0
  0
LINE
  5
5E77
330
17
100
AcDbEntity
  8
PART
100
AcDbLine
 10
15.40424091448995
 20
10.99134824082842
 30
0.0
 11
15.40424091448995
 21
11.45884824082842
 31
0.0
  0
LINE
  5
5E78
330
17
100
AcDbEntity
  8
PART
100
AcDbLine
 10
15.30924091448994
 20
10.99134824082842
 30
0.0
 11
15.30924091448994
 21
11.45884824082842
 31
0.0
  0
LINE
  5
5E79
330
17
100
AcDbEntity
  8
PART
100
AcDbLine
 10
15.30924091448994
 20
10.99134824082842
 30
0.0
 11
15.40424091448995
 21
10.99134824082842
 31
0.0
  0
LINE
  5
5E7A
330
17
100
AcDbEntity
  8
PART
100
AcDbLine
 10
15.30924091448994
 20
11.44134824082842
 30
0.0
 11
15.40424091448994
 21
11.44134824082843
 31
0.0
  0
LINE
  5
5E7B
330
17
100
AcDbEntity
  8
PART
100
AcDbLine
 10
15.59924091448995
 20
10.99134824082842
 30
0.0
 11
15.59924091448995
 21
11.45884824082842
 31
0.0
  0
LINE
  5
5E7C
330
17
100
AcDbEntity
  8
PART
100
AcDbLine
 10
15.50424091448995
 20
10.99134824082842
 30
0.0
 11
15.50424091448995
 21
11.45884824082842
 31
0.0
  0
LINE
  5
5E7D
330
17
100
AcDbEntity
  8
PART
100
AcDbLine
 10
15.50424091448995
 20
10.99134824082842
 30
0.0
 11
15.59924091448995
 21
10.99134824082842
 31
0.0
  0
LINE
  5
5E7E
330
17
100
AcDbEntity
  8
PART
100
AcDbLine
 10
15.50424091448995
 20
11.44134824082842
 30
0.0
 11
15.59924091448994
 21
11.44134824082843
 31
0.0
  0
LINE
  5
5E7F
330
17
100
AcDbEntity
  8
PART
100
AcDbLine
 10
15.79424091448995
 20
10.99134824082842
 30
0.0
 11
15.79424091448995
 21
11.45884824082842
 31
0.0
  0
LINE
  5
5E80
330
17
100
AcDbEntity
  8
PART
100
AcDbLine
 10
15.69924091448995
 20
10.99134824082842
 30
0.0
 11
15.69924091448995
 21
11.45884824082842
 31
0.0
  0
LINE
  5
5E81
330
17
100
AcDbEntity
  8
PART
100
AcDbLine
 10
15.69924091448995
 20
10.99134824082842
 30
0.0
 11
15.79424091448995
 21
10.99134824082842
 31
0.0
  0
LINE
  5
5E82
330
17
100
AcDbEntity
  8
PART
100
AcDbLine
 10
15.69924091448995
 20
11.44134824082842
 30
0.0
 11
15.79424091448994
 21
11.44134824082843
 31
0.0
  0
LINE
  5
5E83
330
17
100
AcDbEntity
  8
PART
100
AcDbLine
 10
15.98924091448995
 20
10.99134824082842
 30
0.0
 11
15.98924091448995
 21
11.45884824082842
 31
0.0
  0
LINE
  5
5E84
330
17
100
AcDbEntity
  8
PART
100
AcDbLine
 10
15.89424091448995
 20
10.99134824082842
 30
0.0
 11
15.89424091448995
 21
11.45884824082842
 31
0.0
  0
LINE
  5
5E85
330
17
100
AcDbEntity
  8
PART
100
AcDbLine
 10
15.89424091448995
 20
10.99134824082842
 30
0.0
 11
15.98924091448995
 21
10.99134824082842
 31
0.0
  0
LINE
  5
5E86
330
17
100
AcDbEntity
  8
PART
100
AcDbLine
 10
15.89424091448995
 20
11.44134824082842
 30
0.0
 11
15.98924091448995
 21
11.44134824082843
 31
0.0
  0
LINE
  5
5E87
330
17
100
AcDbEntity
  8
PART
100
AcDbLine
 10
16.18424091448995
 20
10.99134824082842
 30
0.0
 11
16.18424091448995
 21
11.45884824082842
 31
0.0
  0
LINE
  5
5E88
330
17
100
AcDbEntity
  8
PART
100
AcDbLine
 10
16.08924091448995
 20
10.99134824082842
 30
0.0
 11
16.08924091448995
 21
11.45884824082842
 31
0.0
  0
LINE
  5
5E89
330
17
100
AcDbEntity
  8
PART
100
AcDbLine
 10
16.08924091448995
 20
10.99134824082842
 30
0.0
 11
16.18424091448995
 21
10.99134824082842
 31
0.0
  0
LINE
  5
5E8A
330
17
100
AcDbEntity
  8
PART
100
AcDbLine
 10
16.08924091448995
 20
11.44134824082842
 30
0.0
 11
16.18424091448994
 21
11.44134824082843
 31
0.0
  0
LINE
  5
5E8B
330
17
100
AcDbEntity
  8
PART
100
AcDbLine
 10
16.37924091448995
 20
10.99134824082842
 30
0.0
 11
16.37924091448995
 21
11.45884824082842
 31
0.0
  0
LINE
  5
5E8C
330
17
100
AcDbEntity
  8
PART
100
AcDbLine
 10
16.28424091448994
 20
10.99134824082842
 30
0.0
 11
16.28424091448994
 21
11.45884824082842
 31
0.0
  0
LINE
  5
5E8D
330
17
100
AcDbEntity
  8
PART
100
AcDbLine
 10
16.28424091448994
 20
10.99134824082842
 30
0.0
 11
16.37924091448995
 21
10.99134824082842
 31
0.0
  0
LINE
  5
5E8E
330
17
100
AcDbEntity
  8
PART
100
AcDbLine
 10
16.28424091448994
 20
11.44134824082842
 30
0.0
 11
16.37924091448994
 21
11.44134824082843
 31
0.0
  0
LINE
  5
5E8F
330
17
100
AcDbEntity
  8
PART
100
AcDbLine
 10
16.57424091448995
 20
10.99134824082842
 30
0.0
 11
16.57424091448995
 21
11.45884824082842
 31
0.0
  0
LINE
  5
5E90
330
17
100
AcDbEntity
  8
PART
100
AcDbLine
 10
16.47924091448994
 20
10.99134824082842
 30
0.0
 11
16.47924091448994
 21
11.45884824082842
 31
0.0
  0
LINE
  5
5E91
330
17
100
AcDbEntity
  8
PART
100
AcDbLine
 10
16.47924091448994
 20
10.99134824082842
 30
0.0
 11
16.57424091448995
 21
10.99134824082842
 31
0.0
  0
LINE
  5
5E92
330
17
100
AcDbEntity
  8
PART
100
AcDbLine
 10
16.47924091448994
 20
11.44134824082842
 30
0.0
 11
16.57424091448994
 21
11.44134824082843
 31
0.0
  0
LINE
  5
5E93
330
17
100
AcDbEntity
  8
PART
100
AcDbLine
 10
16.76924091448995
 20
10.99134824082842
 30
0.0
 11
16.76924091448995
 21
11.45884824082842
 31
0.0
  0
LINE
  5
5E94
330
17
100
AcDbEntity
  8
PART
100
AcDbLine
 10
16.67424091448995
 20
10.99134824082842
 30
0.0
 11
16.67424091448995
 21
11.45884824082842
 31
0.0
  0
LINE
  5
5E95
330
17
100
AcDbEntity
  8
PART
100
AcDbLine
 10
16.67424091448995
 20
10.99134824082842
 30
0.0
 11
16.76924091448995
 21
10.99134824082842
 31
0.0
  0
LINE
  5
5E96
330
17
100
AcDbEntity
  8
PART
100
AcDbLine
 10
16.67424091448995
 20
11.44134824082842
 30
0.0
 11
16.76924091448994
 21
11.44134824082843
 31
0.0
  0
LINE
  5
5E97
330
17
100
AcDbEntity
  8
PART
100
AcDbLine
 10
16.96424091448994
 20
10.99134824082842
 30
0.0
 11
16.96424091448994
 21
11.45884824082842
 31
0.0
  0
LINE
  5
5E98
330
17
100
AcDbEntity
  8
PART
100
AcDbLine
 10
16.86924091448995
 20
10.99134824082842
 30
0.0
 11
16.86924091448995
 21
11.45884824082842
 31
0.0
  0
LINE
  5
5E99
330
17
100
AcDbEntity
  8
PART
100
AcDbLine
 10
16.86924091448995
 20
10.99134824082842
 30
0.0
 11
16.96424091448995
 21
10.99134824082842
 31
0.0
  0
LINE
  5
5E9A
330
17
100
AcDbEntity
  8
PART
100
AcDbLine
 10
16.86924091448995
 20
11.44134824082842
 30
0.0
 11
16.96424091448994
 21
11.44134824082843
 31
0.0
  0
LINE
  5
5E9B
330
17
100
AcDbEntity
  8
PART
100
AcDbLine
 10
17.15924091448995
 20
10.99134824082842
 30
0.0
 11
17.15924091448995
 21
11.45884824082842
 31
0.0
  0
LINE
  5
5E9C
330
17
100
AcDbEntity
  8
PART
100
AcDbLine
 10
17.06424091448995
 20
10.99134824082842
 30
0.0
 11
17.06424091448995
 21
11.45884824082842
 31
0.0
  0
LINE
  5
5E9D
330
17
100
AcDbEntity
  8
PART
100
AcDbLine
 10
17.06424091448995
 20
10.99134824082842
 30
0.0
 11
17.15924091448995
 21
10.99134824082842
 31
0.0
  0
LINE
  5
5E9E
330
17
100
AcDbEntity
  8
PART
100
AcDbLine
 10
17.06424091448995
 20
11.44134824082842
 30
0.0
 11
17.15924091448995
 21
11.44134824082843
 31
0.0
  0
LINE
  5
5E9F
330
17
100
AcDbEntity
  8
PART
100
AcDbLine
 10
17.35424091448995
 20
10.99134824082842
 30
0.0
 11
17.35424091448995
 21
11.45884824082842
 31
0.0
  0
LINE
  5
5EA0
330
17
100
AcDbEntity
  8
PART
100
AcDbLine
 10
17.25924091448995
 20
10.99134824082842
 30
0.0
 11
17.25924091448995
 21
11.45884824082842
 31
0.0
  0
LINE
  5
5EA1
330
17
100
AcDbEntity
  8
PART
100
AcDbLine
 10
17.25924091448995
 20
10.99134824082842
 30
0.0
 11
17.35424091448995
 21
10.99134824082842
 31
0.0
  0
LINE
  5
5EA2
330
17
100
AcDbEntity
  8
PART
100
AcDbLine
 10
17.25924091448995
 20
11.44134824082842
 30
0.0
 11
17.35424091448995
 21
11.44134824082843
 31
0.0
  0
LINE
  5
5EA3
330
17
100
AcDbEntity
  8
PART
100
AcDbLine
 10
17.54924091448994
 20
10.99134824082842
 30
0.0
 11
17.54924091448994
 21
11.45884824082842
 31
0.0
  0
LINE
  5
5EA4
330
17
100
AcDbEntity
  8
PART
100
AcDbLine
 10
17.45424091448995
 20
10.99134824082842
 30
0.0
 11
17.45424091448995
 21
11.45884824082842
 31
0.0
  0
LINE
  5
5EA5
330
17
100
AcDbEntity
  8
PART
100
AcDbLine
 10
17.45424091448995
 20
10.99134824082842
 30
0.0
 11
17.54924091448995
 21
10.99134824082842
 31
0.0
  0
LINE
  5
5EA6
330
17
100
AcDbEntity
  8
PART
100
AcDbLine
 10
17.45424091448995
 20
11.44134824082842
 30
0.0
 11
17.54924091448994
 21
11.44134824082843
 31
0.0
  0
LINE
  5
5EA7
330
17
100
AcDbEntity
  8
PART
100
AcDbLine
 10
17.74424091448995
 20
10.99134824082842
 30
0.0
 11
17.74424091448995
 21
11.45884824082842
 31
0.0
  0
LINE
  5
5EA8
330
17
100
AcDbEntity
  8
PART
100
AcDbLine
 10
17.64924091448995
 20
10.99134824082842
 30
0.0
 11
17.64924091448995
 21
11.45884824082842
 31
0.0
  0
LINE
  5
5EA9
330
17
100
AcDbEntity
  8
PART
100
AcDbLine
 10
17.64924091448995
 20
10.99134824082842
 30
0.0
 11
17.74424091448995
 21
10.99134824082842
 31
0.0
  0
LINE
  5
5EAA
330
17
100
AcDbEntity
  8
PART
100
AcDbLine
 10
17.64924091448995
 20
11.44134824082842
 30
0.0
 11
17.74424091448995
 21
11.44134824082843
 31
0.0
  0
LINE
  5
5EAC
330
17
100
AcDbEntity
  8
PART
100
AcDbLine
 10
18.13601463711768
 20
10.12484824082842
 30
0.0
 11
18.64901463711768
 21
10.12484824082842
 31
0.0
  0
LINE
  5
5EAD
330
17
100
AcDbEntity
  8
PART
100
AcDbLine
 10
18.39451463711769
 20
10.26784824082842
 30
0.0
 11
18.64901463711768
 21
10.26784824082842
 31
0.0
  0
LINE
  5
5EB7
330
17
100
AcDbEntity
  8
PART
100
AcDbLine
 10
18.64901463711768
 20
10.26784824082842
 30
0.0
 11
18.64901463711768
 21
10.12484824082842
 31
0.0
  0
LINE
  5
5EB8
330
17
100
AcDbEntity
  8
PART
100
AcDbLine
 10
18.13601463711768
 20
10.15884824082842
 30
0.0
 11
18.13601463711768
 21
10.12484824082842
 31
0.0
  0
LINE
  5
5EBD
330
17
100
AcDbEntity
  8
PART
100
AcDbLine
 10
18.25229930865053
 20
10.34284824082843
 30
0.0
 11
18.39451463711768
 21
10.26784824082842
 31
0.0
  0
LINE
  5
5EBE
330
17
100
AcDbEntity
  8
PART
100
AcDbLine
 10
12.83618252032936
 20
10.34284824082843
 30
0.0
 11
12.69396719186221
 21
10.26784824082842
 31
0.0
  0
LINE
  5
5EBF
330
17
100
AcDbEntity
  8
PART
100
AcDbLine
 10
12.95246719186221
 20
10.12484824082842
 30
0.0
 11
12.43946719186221
 21
10.12484824082842
 31
0.0
  0
LINE
  5
5EC0
330
17
100
AcDbEntity
  8
PART
100
AcDbLine
 10
12.95246719186221
 20
10.15884824082842
 30
0.0
 11
12.95246719186221
 21
10.12484824082842
 31
0.0
  0
ARC
  5
5EC1
330
17
100
AcDbEntity
  8
PART
100
AcDbCircle
 10
12.91124232087233
 20
10.22884824082842
 30
0.0
 40
0.07
100
AcDbArc
 50
182.507701727066
 51
270.0
  0
LINE
  5
5EC2
330
17
100
AcDbEntity
  8
PART
100
AcDbLine
 10
12.69396719186221
 20
10.26784824082842
 30
0.0
 11
12.43946719186221
 21
10.26784824082842
 31
0.0
  0
LINE
  5
5EC3
330
17
100
AcDbEntity
  8
PART
100
AcDbLine
 10
12.43946719186221
 20
10.26784824082842
 30
0.0
 11
12.43946719186221
 21
10.12484824082842
 31
0.0
  0
LINE
  5
5EC4
330
17
100
AcDbEntity
  8
PART
100
AcDbLine
 10
13.07546719186222
 20
10.11384824082842
 30
0.0
 11
13.20846719186221
 21
10.11384824082842
 31
0.0
  0
LINE
  5
5ECA
330
17
100
AcDbEntity
  8
PART
100
AcDbLine
 10
17.87501463711768
 20
10.15884824082842
 30
0.0
 11
17.87501463711768
 21
10.11884824082842
 31
0.0
  0
LINE
  5
5ECB
330
17
100
AcDbEntity
  8
PART
100
AcDbLine
 10
13.21346719186221
 20
10.15884824082842
 30
0.0
 11
13.21346719186221
 21
10.11884824082842
 31
0.0
  0
LINE
  5
5ECE
330
17
100
AcDbEntity
  8
PART
100
AcDbLine
 10
13.07046719186222
 20
10.15884824082842
 30
0.0
 11
13.07046719186222
 21
10.11884824082842
 31
0.0
  0
LINE
  5
5ECF
330
17
100
AcDbEntity
  8
PART
100
AcDbLine
 10
18.01801463711768
 20
10.15884824082842
 30
0.0
 11
18.01801463711768
 21
10.11884824082842
 31
0.0
  0
LINE
  5
5ED0
330
17
100
AcDbEntity
  8
PART
100
AcDbLine
 10
17.88001463711768
 20
10.11384824082842
 30
0.0
 11
18.01301463711769
 21
10.11384824082842
 31
0.0
  0
ARC
  5
5ED1
330
17
100
AcDbEntity
  8
PART
100
AcDbCircle
 10
13.07546719186222
 20
10.11884824082842
 30
0.0
 40
0.005
100
AcDbArc
 50
180.0
 51
270.0
  0
ARC
  5
5ED2
330
17
100
AcDbEntity
  8
PART
100
AcDbCircle
 10
13.20846719186221
 20
10.11884824082842
 30
0.0
 40
0.005
100
AcDbArc
 50
270.0000000000001
 51
0.0
  0
ARC
  5
5ED3
330
17
100
AcDbEntity
  8
PART
100
AcDbCircle
 10
17.88001463711768
 20
10.11884824082842
 30
0.0
 40
0.005
100
AcDbArc
 50
180.0
 51
270.0
  0
ARC
  5
5ED4
330
17
100
AcDbEntity
  8
PART
100
AcDbCircle
 10
18.01301463711769
 20
10.11884824082842
 30
0.0
 40
0.005
100
AcDbArc
 50
269.9999999999998
 51
0.0
  0
LINE
  5
5ED5
330
17
100
AcDbEntity
  8
PART
100
AcDbLine
 10
12.81424091448995
 20
13.27247247439707
 30
0.0
 11
12.81424091448995
 21
15.17247247439707
 31
0.0
  0
LINE
  5
5ED6
330
17
100
AcDbEntity
  8
PART
100
AcDbLine
 10
18.27424091448995
 20
13.27247247439707
 30
0.0
 11
18.27424091448995
 21
15.17247247439707
 31
0.0
  0
LINE
  5
5ED7
330
17
100
AcDbEntity
  8
PART
100
AcDbLine
 10
18.20424091448995
 20
15.24247247439707
 30
0.0
 11
12.88424091448995
 21
15.24247247439707
 31
0.0
  0
ARC
  5
5ED8
330
17
100
AcDbEntity
  8
PART
100
AcDbCircle
 10
12.88424091448995
 20
15.17247247439707
 30
0.0
 40
0.07
100
AcDbArc
 50
90.0
 51
180.0
  0
ARC
  5
5ED9
330
17
100
AcDbEntity
  8
PART
100
AcDbCircle
 10
18.20424091448995
 20
15.17247247439707
 30
0.0
 40
0.07
100
AcDbArc
 50
0.0
 51
90.0
  0
LINE
  5
5EDA
330
17
100
AcDbEntity
  8
PART
100
AcDbLine
 10
18.20424091448995
 20
13.20247247439707
 30
0.0
 11
12.88424091448995
 21
13.20247247439707
 31
0.0
  0
ARC
  5
5EDB
330
17
100
AcDbEntity
  8
PART
100
AcDbCircle
 10
12.88424091448995
 20
13.27247247439707
 30
0.0
 40
0.07
100
AcDbArc
 50
180.0
 51
270.0
  0
ARC
  5
5EDC
330
17
100
AcDbEntity
  8
PART
100
AcDbCircle
 10
18.20424091448995
 20
13.27247247439707
 30
0.0
 40
0.07
100
AcDbArc
 50
270.0
 51
0.0
  0
LINE
  5
5EDD
330
17
100
AcDbEntity
  8
PART
100
AcDbLine
 10
12.90496214167116
 20
13.30149009406798
 30
0.0
 11
12.90496214167116
 21
14.84597250368829
 31
0.0
  0
LINE
  5
5EE0
330
17
100
AcDbEntity
  8
PART
100
AcDbLine
 10
12.92496214167116
 20
15.14749009406798
 30
0.0
 11
13.16424091448995
 21
15.14749009406798
 31
0.0
  0
LINE
  5
5EE1
330
17
100
AcDbEntity
  8
PART
100
AcDbLine
 10
12.92496214167116
 20
13.28149009406798
 30
0.0
 11
13.16424091448994
 21
13.28149009406798
 31
0.0
  0
LINE
  5
5EE4
330
17
100
AcDbEntity
  8
PART
100
AcDbLine
 10
18.18351968730873
 20
13.30149009406798
 30
0.0
 11
18.18351968730874
 21
15.12749009406799
 31
0.0
  0
ARC
  5
5EEA
330
17
100
AcDbEntity
  8
PART
100
AcDbCircle
 10
12.92496214167116
 20
15.12749009406798
 30
0.0
 40
0.02
100
AcDbArc
 50
90.00000000000003
 51
180.0
  0
ARC
  5
5EEB
330
17
100
AcDbEntity
  8
PART
100
AcDbCircle
 10
12.92496214167116
 20
13.30149009406798
 30
0.0
 40
0.02
100
AcDbArc
 50
180.0
 51
269.9999999999999
  0
ARC
  5
5EED
330
17
100
AcDbEntity
  8
PART
100
AcDbCircle
 10
18.16351968730873
 20
13.30149009406798
 30
0.0
 40
0.02
100
AcDbArc
 50
269.9999999999999
 51
359.9999999999997
  0
ARC
  5
5EEE
330
17
100
AcDbEntity
  8
PART
100
AcDbCircle
 10
18.16351968730874
 20
15.12749009406799
 30
0.0
 40
0.02
100
AcDbArc
 50
359.9999999999997
 51
90.00000000000005
  0
LINE
  5
5EEF
330
17
100
AcDbEntity
  8
PART
100
AcDbLine
 10
13.84424091448995
 20
13.24978948185295
 30
0.0
 11
13.84424091448995
 21
13.40149009406798
 31
0.0
  0
LINE
  5
5EF0
330
17
100
AcDbEntity
  8
PART
100
AcDbLine
 10
13.74924091448995
 20
13.24978948185295
 30
0.0
 11
13.74924091448995
 21
13.40149009406798
 31
0.0
  0
LINE
  5
5EF1
330
17
100
AcDbEntity
  8
PART
100
AcDbLine
 10
14.03924091448994
 20
13.24978948185295
 30
0.0
 11
14.03924091448994
 21
13.40149009406798
 31
0.0
  0
LINE
  5
5EF2
330
17
100
AcDbEntity
  8
PART
100
AcDbLine
 10
13.94424091448994
 20
13.24978948185295
 30
0.0
 11
13.94424091448994
 21
13.40149009406798
 31
0.0
  0
LINE
  5
5EF3
330
17
100
AcDbEntity
  8
PART
100
AcDbLine
 10
14.23424091448995
 20
13.24978948185295
 30
0.0
 11
14.23424091448995
 21
13.40149009406798
 31
0.0
  0
LINE
  5
5EF4
330
17
100
AcDbEntity
  8
PART
100
AcDbLine
 10
14.13924091448994
 20
13.24978948185295
 30
0.0
 11
14.13924091448994
 21
13.40149009406798
 31
0.0
  0
LINE
  5
5EF5
330
17
100
AcDbEntity
  8
PART
100
AcDbLine
 10
14.33424091448995
 20
13.24978948185295
 30
0.0
 11
14.33424091448995
 21
13.40149009406798
 31
0.0
  0
LINE
  5
5EF6
330
17
100
AcDbEntity
  8
PART
100
AcDbLine
 10
13.16424091448995
 20
13.24978948185295
 30
0.0
 11
13.16424091448994
 21
13.40149009406798
 31
0.0
  0
LINE
  5
5EF7
330
17
100
AcDbEntity
  8
PART
100
AcDbLine
 10
13.25924091448995
 20
13.24978948185295
 30
0.0
 11
13.25924091448995
 21
13.40149009406798
 31
0.0
  0
LINE
  5
5EF8
330
17
100
AcDbEntity
  8
PART
100
AcDbLine
 10
13.45424091448995
 20
13.24978948185295
 30
0.0
 11
13.45424091448994
 21
13.40149009406798
 31
0.0
  0
LINE
  5
5EF9
330
17
100
AcDbEntity
  8
PART
100
AcDbLine
 10
13.35924091448995
 20
13.24978948185295
 30
0.0
 11
13.35924091448994
 21
13.40149009406798
 31
0.0
  0
LINE
  5
5EFA
330
17
100
AcDbEntity
  8
PART
100
AcDbLine
 10
13.64924091448995
 20
13.24978948185295
 30
0.0
 11
13.64924091448995
 21
13.40149009406798
 31
0.0
  0
LINE
  5
5EFB
330
17
100
AcDbEntity
  8
PART
100
AcDbLine
 10
13.55424091448995
 20
13.24978948185295
 30
0.0
 11
13.55424091448995
 21
13.40149009406798
 31
0.0
  0
LINE
  5
5EFC
330
17
100
AcDbEntity
  8
PART
100
AcDbLine
 10
16.37924091448995
 20
13.24978948185295
 30
0.0
 11
16.37924091448995
 21
13.40149009406798
 31
0.0
  0
LINE
  5
5EFD
330
17
100
AcDbEntity
  8
PART
100
AcDbLine
 10
16.57424091448995
 20
13.24978948185295
 30
0.0
 11
16.57424091448995
 21
13.40149009406798
 31
0.0
  0
LINE
  5
5EFE
330
17
100
AcDbEntity
  8
PART
100
AcDbLine
 10
16.47924091448994
 20
13.24978948185295
 30
0.0
 11
16.47924091448994
 21
13.40149009406798
 31
0.0
  0
LINE
  5
5EFF
330
17
100
AcDbEntity
  8
PART
100
AcDbLine
 10
16.76924091448995
 20
13.24978948185295
 30
0.0
 11
16.76924091448994
 21
13.40149009406798
 31
0.0
  0
LINE
  5
5F00
330
17
100
AcDbEntity
  8
PART
100
AcDbLine
 10
16.67424091448995
 20
13.24978948185295
 30
0.0
 11
16.67424091448995
 21
13.40149009406798
 31
0.0
  0
LINE
  5
5F01
330
17
100
AcDbEntity
  8
PART
100
AcDbLine
 10
16.96424091448994
 20
13.24978948185295
 30
0.0
 11
16.96424091448994
 21
13.40149009406798
 31
0.0
  0
LINE
  5
5F02
330
17
100
AcDbEntity
  8
PART
100
AcDbLine
 10
16.86924091448995
 20
13.24978948185295
 30
0.0
 11
16.86924091448995
 21
13.40149009406798
 31
0.0
  0
LINE
  5
5F03
330
17
100
AcDbEntity
  8
PART
100
AcDbLine
 10
15.79424091448995
 20
13.24978948185295
 30
0.0
 11
15.79424091448995
 21
13.40149009406798
 31
0.0
  0
LINE
  5
5F04
330
17
100
AcDbEntity
  8
PART
100
AcDbLine
 10
15.69924091448995
 20
13.24978948185295
 30
0.0
 11
15.69924091448994
 21
13.40149009406798
 31
0.0
  0
LINE
  5
5F05
330
17
100
AcDbEntity
  8
PART
100
AcDbLine
 10
15.98924091448995
 20
13.24978948185295
 30
0.0
 11
15.98924091448995
 21
13.40149009406798
 31
0.0
  0
LINE
  5
5F06
330
17
100
AcDbEntity
  8
PART
100
AcDbLine
 10
15.89424091448995
 20
13.24978948185295
 30
0.0
 11
15.89424091448995
 21
13.40149009406798
 31
0.0
  0
LINE
  5
5F07
330
17
100
AcDbEntity
  8
PART
100
AcDbLine
 10
16.18424091448995
 20
13.24978948185295
 30
0.0
 11
16.18424091448995
 21
13.40149009406798
 31
0.0
  0
LINE
  5
5F08
330
17
100
AcDbEntity
  8
PART
100
AcDbLine
 10
16.08924091448995
 20
13.24978948185295
 30
0.0
 11
16.08924091448995
 21
13.40149009406798
 31
0.0
  0
LINE
  5
5F09
330
17
100
AcDbEntity
  8
PART
100
AcDbLine
 10
16.28424091448994
 20
13.24978948185295
 30
0.0
 11
16.28424091448994
 21
13.40149009406798
 31
0.0
  0
LINE
  5
5F0A
330
17
100
AcDbEntity
  8
PART
100
AcDbLine
 10
15.01424091448995
 20
13.24978948185295
 30
0.0
 11
15.01424091448995
 21
13.40149009406798
 31
0.0
  0
LINE
  5
5F0B
330
17
100
AcDbEntity
  8
PART
100
AcDbLine
 10
15.20924091448994
 20
13.24978948185295
 30
0.0
 11
15.20924091448994
 21
13.40149009406798
 31
0.0
  0
LINE
  5
5F0C
330
17
100
AcDbEntity
  8
PART
100
AcDbLine
 10
15.11424091448995
 20
13.24978948185295
 30
0.0
 11
15.11424091448995
 21
13.40149009406798
 31
0.0
  0
LINE
  5
5F0D
330
17
100
AcDbEntity
  8
PART
100
AcDbLine
 10
15.40424091448995
 20
13.24978948185295
 30
0.0
 11
15.40424091448994
 21
13.40149009406798
 31
0.0
  0
LINE
  5
5F0E
330
17
100
AcDbEntity
  8
PART
100
AcDbLine
 10
15.30924091448994
 20
13.24978948185295
 30
0.0
 11
15.30924091448994
 21
13.40149009406798
 31
0.0
  0
LINE
  5
5F0F
330
17
100
AcDbEntity
  8
PART
100
AcDbLine
 10
15.59924091448995
 20
13.24978948185295
 30
0.0
 11
15.59924091448995
 21
13.40149009406798
 31
0.0
  0
LINE
  5
5F10
330
17
100
AcDbEntity
  8
PART
100
AcDbLine
 10
15.50424091448995
 20
13.24978948185295
 30
0.0
 11
15.50424091448995
 21
13.40149009406798
 31
0.0
  0
LINE
  5
5F11
330
17
100
AcDbEntity
  8
PART
100
AcDbLine
 10
14.42924091448995
 20
13.24978948185295
 30
0.0
 11
14.42924091448995
 21
13.40149009406798
 31
0.0
  0
LINE
  5
5F12
330
17
100
AcDbEntity
  8
PART
100
AcDbLine
 10
14.62424091448995
 20
13.24978948185295
 30
0.0
 11
14.62424091448995
 21
13.40149009406798
 31
0.0
  0
LINE
  5
5F13
330
17
100
AcDbEntity
  8
PART
100
AcDbLine
 10
14.52924091448995
 20
13.24978948185295
 30
0.0
 11
14.52924091448994
 21
13.40149009406798
 31
0.0
  0
LINE
  5
5F14
330
17
100
AcDbEntity
  8
PART
100
AcDbLine
 10
14.81924091448995
 20
13.24978948185295
 30
0.0
 11
14.81924091448995
 21
13.40149009406798
 31
0.0
  0
LINE
  5
5F15
330
17
100
AcDbEntity
  8
PART
100
AcDbLine
 10
14.72424091448995
 20
13.24978948185295
 30
0.0
 11
14.72424091448995
 21
13.40149009406798
 31
0.0
  0
LINE
  5
5F16
330
17
100
AcDbEntity
  8
PART
100
AcDbLine
 10
14.91924091448995
 20
13.24978948185295
 30
0.0
 11
14.91924091448995
 21
13.40149009406798
 31
0.0
  0
LINE
  5
5F17
330
17
100
AcDbEntity
  8
PART
100
AcDbLine
 10
17.74424091448995
 20
13.24978948185295
 30
0.0
 11
17.74424091448995
 21
13.40149009406798
 31
0.0
  0
LINE
  5
5F18
330
17
100
AcDbEntity
  8
PART
100
AcDbLine
 10
17.15924091448995
 20
13.24978948185295
 30
0.0
 11
17.15924091448995
 21
13.40149009406798
 31
0.0
  0
LINE
  5
5F19
330
17
100
AcDbEntity
  8
PART
100
AcDbLine
 10
17.06424091448995
 20
13.24978948185295
 30
0.0
 11
17.06424091448995
 21
13.40149009406798
 31
0.0
  0
LINE
  5
5F1A
330
17
100
AcDbEntity
  8
PART
100
AcDbLine
 10
17.35424091448995
 20
13.24978948185295
 30
0.0
 11
17.35424091448995
 21
13.40149009406798
 31
0.0
  0
LINE
  5
5F1B
330
17
100
AcDbEntity
  8
PART
100
AcDbLine
 10
17.25924091448995
 20
13.24978948185295
 30
0.0
 11
17.25924091448995
 21
13.40149009406798
 31
0.0
  0
LINE
  5
5F1C
330
17
100
AcDbEntity
  8
PART
100
AcDbLine
 10
17.54924091448994
 20
13.24978948185295
 30
0.0
 11
17.54924091448994
 21
13.40149009406798
 31
0.0
  0
LINE
  5
5F1D
330
17
100
AcDbEntity
  8
PART
100
AcDbLine
 10
17.45424091448995
 20
13.24978948185295
 30
0.0
 11
17.45424091448995
 21
13.40149009406798
 31
0.0
  0
LINE
  5
5F1E
330
17
100
AcDbEntity
  8
PART
100
AcDbLine
 10
17.64924091448995
 20
13.24978948185295
 30
0.0
 11
17.64924091448995
 21
13.40149009406798
 31
0.0
  0
LINE
  5
5F1F
330
17
100
AcDbEntity
  8
PART
100
AcDbLine
 10
13.16424091448994
 20
13.40149009406798
 30
0.0
 11
13.25924091448995
 21
13.40149009406798
 31
0.0
  0
LINE
  5
5F20
330
17
100
AcDbEntity
  8
PART
100
AcDbLine
 10
13.35924091448995
 20
13.40149009406798
 30
0.0
 11
13.45424091448995
 21
13.40149009406799
 31
0.0
  0
LINE
  5
5F21
330
17
100
AcDbEntity
  8
PART
100
AcDbLine
 10
13.55424091448995
 20
13.40149009406798
 30
0.0
 11
13.64924091448995
 21
13.40149009406798
 31
0.0
  0
LINE
  5
5F22
330
17
100
AcDbEntity
  8
PART
100
AcDbLine
 10
13.74924091448994
 20
13.40149009406798
 30
0.0
 11
13.84424091448995
 21
13.40149009406798
 31
0.0
  0
LINE
  5
5F23
330
17
100
AcDbEntity
  8
PART
100
AcDbLine
 10
13.25924091448995
 20
13.28149009406798
 30
0.0
 11
13.35924091448995
 21
13.28149009406799
 31
0.0
  0
LINE
  5
5F24
330
17
100
AcDbEntity
  8
PART
100
AcDbLine
 10
13.45424091448995
 20
13.28149009406799
 30
0.0
 11
13.55424091448995
 21
13.28149009406798
 31
0.0
  0
LINE
  5
5F25
330
17
100
AcDbEntity
  8
PART
100
AcDbLine
 10
13.64924091448995
 20
13.28149009406798
 30
0.0
 11
13.74924091448994
 21
13.28149009406798
 31
0.0
  0
LINE
  5
5F26
330
17
100
AcDbEntity
  8
PART
100
AcDbLine
 10
13.94424091448994
 20
13.40149009406798
 30
0.0
 11
14.03924091448994
 21
13.40149009406798
 31
0.0
  0
LINE
  5
5F27
330
17
100
AcDbEntity
  8
PART
100
AcDbLine
 10
14.13924091448994
 20
13.40149009406798
 30
0.0
 11
14.23424091448995
 21
13.40149009406798
 31
0.0
  0
LINE
  5
5F28
330
17
100
AcDbEntity
  8
PART
100
AcDbLine
 10
14.33424091448995
 20
13.40149009406798
 30
0.0
 11
14.42924091448995
 21
13.40149009406798
 31
0.0
  0
LINE
  5
5F29
330
17
100
AcDbEntity
  8
PART
100
AcDbLine
 10
14.52924091448995
 20
13.40149009406798
 30
0.0
 11
14.62424091448995
 21
13.40149009406798
 31
0.0
  0
LINE
  5
5F2A
330
17
100
AcDbEntity
  8
PART
100
AcDbLine
 10
14.72424091448995
 20
13.40149009406798
 30
0.0
 11
14.81924091448995
 21
13.40149009406798
 31
0.0
  0
LINE
  5
5F2B
330
17
100
AcDbEntity
  8
PART
100
AcDbLine
 10
14.91924091448995
 20
13.40149009406798
 30
0.0
 11
15.01424091448995
 21
13.40149009406798
 31
0.0
  0
LINE
  5
5F2C
330
17
100
AcDbEntity
  8
PART
100
AcDbLine
 10
15.11424091448995
 20
13.40149009406798
 30
0.0
 11
15.20924091448994
 21
13.40149009406798
 31
0.0
  0
LINE
  5
5F2D
330
17
100
AcDbEntity
  8
PART
100
AcDbLine
 10
15.30924091448994
 20
13.40149009406798
 30
0.0
 11
15.40424091448994
 21
13.40149009406798
 31
0.0
  0
LINE
  5
5F2E
330
17
100
AcDbEntity
  8
PART
100
AcDbLine
 10
15.50424091448994
 20
13.40149009406798
 30
0.0
 11
15.59924091448994
 21
13.40149009406798
 31
0.0
  0
LINE
  5
5F2F
330
17
100
AcDbEntity
  8
PART
100
AcDbLine
 10
15.69924091448994
 20
13.40149009406798
 30
0.0
 11
15.79424091448995
 21
13.40149009406799
 31
0.0
  0
LINE
  5
5F30
330
17
100
AcDbEntity
  8
PART
100
AcDbLine
 10
15.89424091448995
 20
13.40149009406799
 30
0.0
 11
15.98924091448995
 21
13.40149009406798
 31
0.0
  0
LINE
  5
5F31
330
17
100
AcDbEntity
  8
PART
100
AcDbLine
 10
16.08924091448994
 20
13.40149009406798
 30
0.0
 11
16.18424091448995
 21
13.40149009406798
 31
0.0
  0
LINE
  5
5F32
330
17
100
AcDbEntity
  8
PART
100
AcDbLine
 10
16.28424091448994
 20
13.40149009406798
 30
0.0
 11
16.37924091448995
 21
13.40149009406798
 31
0.0
  0
LINE
  5
5F33
330
17
100
AcDbEntity
  8
PART
100
AcDbLine
 10
16.47924091448994
 20
13.40149009406798
 30
0.0
 11
16.57424091448995
 21
13.40149009406799
 31
0.0
  0
LINE
  5
5F34
330
17
100
AcDbEntity
  8
PART
100
AcDbLine
 10
16.67424091448995
 20
13.40149009406799
 30
0.0
 11
16.76924091448995
 21
13.40149009406799
 31
0.0
  0
LINE
  5
5F35
330
17
100
AcDbEntity
  8
PART
100
AcDbLine
 10
16.86924091448995
 20
13.40149009406799
 30
0.0
 11
16.96424091448994
 21
13.40149009406799
 31
0.0
  0
LINE
  5
5F36
330
17
100
AcDbEntity
  8
PART
100
AcDbLine
 10
17.06424091448995
 20
13.40149009406799
 30
0.0
 11
17.15924091448995
 21
13.40149009406799
 31
0.0
  0
LINE
  5
5F37
330
17
100
AcDbEntity
  8
PART
100
AcDbLine
 10
17.25924091448995
 20
13.40149009406799
 30
0.0
 11
17.35424091448995
 21
13.40149009406798
 31
0.0
  0
LINE
  5
5F38
330
17
100
AcDbEntity
  8
PART
100
AcDbLine
 10
17.45424091448995
 20
13.40149009406798
 30
0.0
 11
17.54924091448994
 21
13.40149009406798
 31
0.0
  0
LINE
  5
5F39
330
17
100
AcDbEntity
  8
PART
100
AcDbLine
 10
17.64924091448995
 20
13.40149009406798
 30
0.0
 11
17.74424091448995
 21
13.40149009406798
 31
0.0
  0
LINE
  5
5F3A
330
17
100
AcDbEntity
  8
PART
100
AcDbLine
 10
13.84424091448995
 20
13.28149009406798
 30
0.0
 11
13.94424091448994
 21
13.28149009406798
 31
0.0
  0
LINE
  5
5F3B
330
17
100
AcDbEntity
  8
PART
100
AcDbLine
 10
14.03924091448994
 20
13.28149009406798
 30
0.0
 11
14.13924091448995
 21
13.28149009406798
 31
0.0
  0
LINE
  5
5F3C
330
17
100
AcDbEntity
  8
PART
100
AcDbLine
 10
14.23424091448995
 20
13.28149009406798
 30
0.0
 11
14.33424091448995
 21
13.28149009406798
 31
0.0
  0
LINE
  5
5F3D
330
17
100
AcDbEntity
  8
PART
100
AcDbLine
 10
14.42924091448995
 20
13.28149009406798
 30
0.0
 11
14.52924091448995
 21
13.28149009406798
 31
0.0
  0
LINE
  5
5F3E
330
17
100
AcDbEntity
  8
PART
100
AcDbLine
 10
14.62424091448995
 20
13.28149009406798
 30
0.0
 11
14.72424091448995
 21
13.28149009406798
 31
0.0
  0
LINE
  5
5F3F
330
17
100
AcDbEntity
  8
PART
100
AcDbLine
 10
14.81924091448995
 20
13.28149009406798
 30
0.0
 11
14.91924091448995
 21
13.28149009406799
 31
0.0
  0
LINE
  5
5F40
330
17
100
AcDbEntity
  8
PART
100
AcDbLine
 10
15.01424091448995
 20
13.28149009406798
 30
0.0
 11
15.11424091448995
 21
13.28149009406798
 31
0.0
  0
LINE
  5
5F41
330
17
100
AcDbEntity
  8
PART
100
AcDbLine
 10
15.20924091448994
 20
13.28149009406798
 30
0.0
 11
15.30924091448994
 21
13.28149009406798
 31
0.0
  0
LINE
  5
5F42
330
17
100
AcDbEntity
  8
PART
100
AcDbLine
 10
15.40424091448994
 20
13.28149009406798
 30
0.0
 11
15.50424091448995
 21
13.28149009406798
 31
0.0
  0
LINE
  5
5F43
330
17
100
AcDbEntity
  8
PART
100
AcDbLine
 10
15.59924091448995
 20
13.28149009406798
 30
0.0
 11
15.69924091448995
 21
13.28149009406798
 31
0.0
  0
LINE
  5
5F44
330
17
100
AcDbEntity
  8
PART
100
AcDbLine
 10
15.79424091448994
 20
13.28149009406798
 30
0.0
 11
15.89424091448995
 21
13.28149009406798
 31
0.0
  0
LINE
  5
5F45
330
17
100
AcDbEntity
  8
PART
100
AcDbLine
 10
15.98924091448995
 20
13.28149009406798
 30
0.0
 11
16.08924091448995
 21
13.28149009406798
 31
0.0
  0
LINE
  5
5F46
330
17
100
AcDbEntity
  8
PART
100
AcDbLine
 10
16.18424091448995
 20
13.28149009406798
 30
0.0
 11
16.28424091448994
 21
13.28149009406798
 31
0.0
  0
LINE
  5
5F47
330
17
100
AcDbEntity
  8
PART
100
AcDbLine
 10
16.37924091448995
 20
13.28149009406798
 30
0.0
 11
16.47924091448994
 21
13.28149009406798
 31
0.0
  0
LINE
  5
5F48
330
17
100
AcDbEntity
  8
PART
100
AcDbLine
 10
16.57424091448995
 20
13.28149009406798
 30
0.0
 11
16.67424091448995
 21
13.28149009406798
 31
0.0
  0
LINE
  5
5F49
330
17
100
AcDbEntity
  8
PART
100
AcDbLine
 10
16.76924091448995
 20
13.28149009406798
 30
0.0
 11
16.86924091448995
 21
13.28149009406798
 31
0.0
  0
LINE
  5
5F4A
330
17
100
AcDbEntity
  8
PART
100
AcDbLine
 10
16.96424091448994
 20
13.28149009406798
 30
0.0
 11
17.06424091448994
 21
13.28149009406798
 31
0.0
  0
LINE
  5
5F4B
330
17
100
AcDbEntity
  8
PART
100
AcDbLine
 10
17.15924091448995
 20
13.28149009406798
 30
0.0
 11
17.25924091448995
 21
13.28149009406798
 31
0.0
  0
LINE
  5
5F4C
330
17
100
AcDbEntity
  8
PART
100
AcDbLine
 10
17.35424091448995
 20
13.28149009406798
 30
0.0
 11
17.45424091448995
 21
13.28149009406798
 31
0.0
  0
LINE
  5
5F4D
330
17
100
AcDbEntity
  8
PART
100
AcDbLine
 10
17.54924091448994
 20
13.28149009406798
 30
0.0
 11
17.64924091448995
 21
13.28149009406798
 31
0.0
  0
LINE
  5
5F4E
330
17
100
AcDbEntity
  8
PART
100
AcDbLine
 10
17.74424091448995
 20
13.28149009406798
 30
0.0
 11
18.16351968730873
 21
13.28149009406798
 31
0.0
  0
LINE
  5
5F4F
330
17
100
AcDbEntity
  8
PART
100
AcDbLine
 10
13.16424091448995
 20
13.24978948185295
 30
0.0
 11
13.25924091448995
 21
13.24978948185295
 31
0.0
  0
LINE
  5
5F50
330
17
100
AcDbEntity
  8
PART
100
AcDbLine
 10
13.35924091448994
 20
13.24978948185295
 30
0.0
 11
13.45424091448995
 21
13.24978948185295
 31
0.0
  0
LINE
  5
5F51
330
17
100
AcDbEntity
  8
PART
100
AcDbLine
 10
13.55424091448995
 20
13.24978948185295
 30
0.0
 11
13.64924091448995
 21
13.24978948185295
 31
0.0
  0
LINE
  5
5F52
330
17
100
AcDbEntity
  8
PART
100
AcDbLine
 10
13.74924091448995
 20
13.24978948185295
 30
0.0
 11
13.84424091448995
 21
13.24978948185295
 31
0.0
  0
LINE
  5
5F53
330
17
100
AcDbEntity
  8
PART
100
AcDbLine
 10
13.94424091448995
 20
13.24978948185295
 30
0.0
 11
14.03924091448994
 21
13.24978948185295
 31
0.0
  0
LINE
  5
5F54
330
17
100
AcDbEntity
  8
PART
100
AcDbLine
 10
14.13924091448994
 20
13.24978948185295
 30
0.0
 11
14.23424091448995
 21
13.24978948185295
 31
0.0
  0
LINE
  5
5F55
330
17
100
AcDbEntity
  8
PART
100
AcDbLine
 10
14.33424091448995
 20
13.24978948185295
 30
0.0
 11
14.42924091448995
 21
13.24978948185295
 31
0.0
  0
LINE
  5
5F56
330
17
100
AcDbEntity
  8
PART
100
AcDbLine
 10
14.52924091448995
 20
13.24978948185295
 30
0.0
 11
14.62424091448994
 21
13.24978948185295
 31
0.0
  0
LINE
  5
5F57
330
17
100
AcDbEntity
  8
PART
100
AcDbLine
 10
14.72424091448995
 20
13.24978948185295
 30
0.0
 11
14.81924091448995
 21
13.24978948185295
 31
0.0
  0
LINE
  5
5F58
330
17
100
AcDbEntity
  8
PART
100
AcDbLine
 10
14.91924091448995
 20
13.24978948185295
 30
0.0
 11
15.01424091448995
 21
13.24978948185295
 31
0.0
  0
LINE
  5
5F59
330
17
100
AcDbEntity
  8
PART
100
AcDbLine
 10
15.11424091448994
 20
13.24978948185295
 30
0.0
 11
15.20924091448994
 21
13.24978948185295
 31
0.0
  0
LINE
  5
5F5A
330
17
100
AcDbEntity
  8
PART
100
AcDbLine
 10
15.30924091448995
 20
13.24978948185295
 30
0.0
 11
15.40424091448994
 21
13.24978948185295
 31
0.0
  0
LINE
  5
5F5B
330
17
100
AcDbEntity
  8
PART
100
AcDbLine
 10
15.50424091448994
 20
13.24978948185295
 30
0.0
 11
15.59924091448995
 21
13.24978948185295
 31
0.0
  0
LINE
  5
5F5C
330
17
100
AcDbEntity
  8
PART
100
AcDbLine
 10
15.69924091448995
 20
13.24978948185295
 30
0.0
 11
15.79424091448995
 21
13.24978948185295
 31
0.0
  0
LINE
  5
5F5D
330
17
100
AcDbEntity
  8
PART
100
AcDbLine
 10
15.89424091448995
 20
13.24978948185295
 30
0.0
 11
15.98924091448995
 21
13.24978948185296
 31
0.0
  0
LINE
  5
5F5E
330
17
100
AcDbEntity
  8
PART
100
AcDbLine
 10
16.08924091448995
 20
13.24978948185296
 30
0.0
 11
16.18424091448994
 21
13.24978948185295
 31
0.0
  0
LINE
  5
5F5F
330
17
100
AcDbEntity
  8
PART
100
AcDbLine
 10
16.28424091448994
 20
13.24978948185295
 30
0.0
 11
16.37924091448995
 21
13.24978948185295
 31
0.0
  0
LINE
  5
5F60
330
17
100
AcDbEntity
  8
PART
100
AcDbLine
 10
16.47924091448994
 20
13.24978948185295
 30
0.0
 11
16.57424091448995
 21
13.24978948185295
 31
0.0
  0
LINE
  5
5F61
330
17
100
AcDbEntity
  8
PART
100
AcDbLine
 10
16.67424091448995
 20
13.24978948185295
 30
0.0
 11
16.76924091448995
 21
13.24978948185295
 31
0.0
  0
LINE
  5
5F62
330
17
100
AcDbEntity
  8
PART
100
AcDbLine
 10
16.86924091448995
 20
13.24978948185295
 30
0.0
 11
16.96424091448994
 21
13.24978948185295
 31
0.0
  0
LINE
  5
5F63
330
17
100
AcDbEntity
  8
PART
100
AcDbLine
 10
17.06424091448995
 20
13.24978948185295
 30
0.0
 11
17.15924091448995
 21
13.24978948185295
 31
0.0
  0
LINE
  5
5F64
330
17
100
AcDbEntity
  8
PART
100
AcDbLine
 10
17.25924091448995
 20
13.24978948185295
 30
0.0
 11
17.35424091448995
 21
13.24978948185295
 31
0.0
  0
LINE
  5
5F65
330
17
100
AcDbEntity
  8
PART
100
AcDbLine
 10
17.45424091448995
 20
13.24978948185295
 30
0.0
 11
17.54924091448994
 21
13.24978948185295
 31
0.0
  0
LINE
  5
5F66
330
17
100
AcDbEntity
  8
PART
100
AcDbLine
 10
17.64924091448995
 20
13.24978948185295
 30
0.0
 11
17.74424091448995
 21
13.24978948185295
 31
0.0
  0
LINE
  5
5F67
330
17
100
AcDbEntity
  8
PART
100
AcDbLine
 10
16.96424091448994
 20
15.14749009406799
 30
0.0
 11
17.06424091448994
 21
15.14749009406799
 31
0.0
  0
LINE
  5
5F68
330
17
100
AcDbEntity
  8
PART
100
AcDbLine
 10
14.33424091448995
 20
15.17919070628302
 30
0.0
 11
14.42924091448995
 21
15.17919070628302
 31
0.0
  0
LINE
  5
5F69
330
17
100
AcDbEntity
  8
PART
100
AcDbLine
 10
14.33424091448995
 20
15.02749009406798
 30
0.0
 11
14.42924091448995
 21
15.02749009406799
 31
0.0
  0
LINE
  5
5F6A
330
17
100
AcDbEntity
  8
PART
100
AcDbLine
 10
13.64924091448995
 20
15.14749009406798
 30
0.0
 11
13.74924091448994
 21
15.14749009406798
 31
0.0
  0
LINE
  5
5F6B
330
17
100
AcDbEntity
  8
PART
100
AcDbLine
 10
13.25924091448995
 20
15.14749009406798
 30
0.0
 11
13.35924091448995
 21
15.14749009406798
 31
0.0
  0
LINE
  5
5F6C
330
17
100
AcDbEntity
  8
PART
100
AcDbLine
 10
13.16424091448995
 20
15.17919070628302
 30
0.0
 11
13.25924091448995
 21
15.17919070628302
 31
0.0
  0
LINE
  5
5F6D
330
17
100
AcDbEntity
  8
PART
100
AcDbLine
 10
13.16424091448994
 20
15.02749009406798
 30
0.0
 11
13.25924091448995
 21
15.02749009406798
 31
0.0
  0
LINE
  5
5F6E
330
17
100
AcDbEntity
  8
PART
100
AcDbLine
 10
13.25924091448995
 20
15.17919070628302
 30
0.0
 11
13.25924091448995
 21
15.02749009406798
 31
0.0
  0
LINE
  5
5F6F
330
17
100
AcDbEntity
  8
PART
100
AcDbLine
 10
13.16424091448995
 20
15.17919070628302
 30
0.0
 11
13.16424091448994
 21
15.02749009406798
 31
0.0
  0
LINE
  5
5F70
330
17
100
AcDbEntity
  8
PART
100
AcDbLine
 10
13.55424091448995
 20
15.17919070628302
 30
0.0
 11
13.64924091448995
 21
15.17919070628302
 31
0.0
  0
LINE
  5
5F71
330
17
100
AcDbEntity
  8
PART
100
AcDbLine
 10
13.35924091448994
 20
15.17919070628302
 30
0.0
 11
13.45424091448995
 21
15.17919070628302
 31
0.0
  0
LINE
  5
5F72
330
17
100
AcDbEntity
  8
PART
100
AcDbLine
 10
13.45424091448995
 20
15.14749009406798
 30
0.0
 11
13.55424091448995
 21
15.14749009406798
 31
0.0
  0
LINE
  5
5F73
330
17
100
AcDbEntity
  8
PART
100
AcDbLine
 10
13.55424091448995
 20
15.02749009406798
 30
0.0
 11
13.64924091448995
 21
15.02749009406798
 31
0.0
  0
LINE
  5
5F74
330
17
100
AcDbEntity
  8
PART
100
AcDbLine
 10
13.55424091448995
 20
15.17919070628302
 30
0.0
 11
13.55424091448995
 21
15.02749009406798
 31
0.0
  0
LINE
  5
5F75
330
17
100
AcDbEntity
  8
PART
100
AcDbLine
 10
13.64924091448995
 20
15.17919070628302
 30
0.0
 11
13.64924091448995
 21
15.02749009406798
 31
0.0
  0
LINE
  5
5F76
330
17
100
AcDbEntity
  8
PART
100
AcDbLine
 10
13.35924091448995
 20
15.02749009406798
 30
0.0
 11
13.45424091448995
 21
15.02749009406798
 31
0.0
  0
LINE
  5
5F77
330
17
100
AcDbEntity
  8
PART
100
AcDbLine
 10
13.45424091448995
 20
15.17919070628302
 30
0.0
 11
13.45424091448994
 21
15.02749009406798
 31
0.0
  0
LINE
  5
5F78
330
17
100
AcDbEntity
  8
PART
100
AcDbLine
 10
13.35924091448995
 20
15.17919070628302
 30
0.0
 11
13.35924091448994
 21
15.02749009406798
 31
0.0
  0
LINE
  5
5F79
330
17
100
AcDbEntity
  8
PART
100
AcDbLine
 10
13.94424091448995
 20
15.17919070628302
 30
0.0
 11
14.03924091448994
 21
15.17919070628302
 31
0.0
  0
LINE
  5
5F7A
330
17
100
AcDbEntity
  8
PART
100
AcDbLine
 10
13.94424091448994
 20
15.02749009406799
 30
0.0
 11
14.03924091448994
 21
15.02749009406799
 31
0.0
  0
LINE
  5
5F7B
330
17
100
AcDbEntity
  8
PART
100
AcDbLine
 10
13.74924091448995
 20
15.17919070628302
 30
0.0
 11
13.84424091448995
 21
15.17919070628302
 31
0.0
  0
LINE
  5
5F7C
330
17
100
AcDbEntity
  8
PART
100
AcDbLine
 10
13.84424091448995
 20
15.14749009406798
 30
0.0
 11
13.94424091448994
 21
15.14749009406798
 31
0.0
  0
LINE
  5
5F7D
330
17
100
AcDbEntity
  8
PART
100
AcDbLine
 10
13.94424091448994
 20
15.17919070628302
 30
0.0
 11
13.94424091448994
 21
15.02749009406798
 31
0.0
  0
LINE
  5
5F7E
330
17
100
AcDbEntity
  8
PART
100
AcDbLine
 10
13.74924091448994
 20
15.02749009406798
 30
0.0
 11
13.84424091448995
 21
15.02749009406798
 31
0.0
  0
LINE
  5
5F7F
330
17
100
AcDbEntity
  8
PART
100
AcDbLine
 10
13.84424091448995
 20
15.17919070628302
 30
0.0
 11
13.84424091448995
 21
15.02749009406798
 31
0.0
  0
LINE
  5
5F80
330
17
100
AcDbEntity
  8
PART
100
AcDbLine
 10
13.74924091448995
 20
15.17919070628302
 30
0.0
 11
13.74924091448995
 21
15.02749009406798
 31
0.0
  0
LINE
  5
5F81
330
17
100
AcDbEntity
  8
PART
100
AcDbLine
 10
14.13924091448994
 20
15.17919070628302
 30
0.0
 11
14.23424091448995
 21
15.17919070628302
 31
0.0
  0
LINE
  5
5F82
330
17
100
AcDbEntity
  8
PART
100
AcDbLine
 10
14.23424091448995
 20
15.14749009406798
 30
0.0
 11
14.33424091448995
 21
15.14749009406799
 31
0.0
  0
LINE
  5
5F83
330
17
100
AcDbEntity
  8
PART
100
AcDbLine
 10
14.03924091448994
 20
15.14749009406798
 30
0.0
 11
14.13924091448995
 21
15.14749009406798
 31
0.0
  0
LINE
  5
5F84
330
17
100
AcDbEntity
  8
PART
100
AcDbLine
 10
14.33424091448995
 20
15.17919070628302
 30
0.0
 11
14.33424091448995
 21
15.02749009406798
 31
0.0
  0
LINE
  5
5F85
330
17
100
AcDbEntity
  8
PART
100
AcDbLine
 10
14.13924091448994
 20
15.02749009406799
 30
0.0
 11
14.23424091448995
 21
15.02749009406798
 31
0.0
  0
LINE
  5
5F86
330
17
100
AcDbEntity
  8
PART
100
AcDbLine
 10
14.23424091448995
 20
15.17919070628302
 30
0.0
 11
14.23424091448995
 21
15.02749009406798
 31
0.0
  0
LINE
  5
5F87
330
17
100
AcDbEntity
  8
PART
100
AcDbLine
 10
14.13924091448994
 20
15.17919070628302
 30
0.0
 11
14.13924091448994
 21
15.02749009406798
 31
0.0
  0
LINE
  5
5F88
330
17
100
AcDbEntity
  8
PART
100
AcDbLine
 10
14.03924091448994
 20
15.17919070628302
 30
0.0
 11
14.03924091448994
 21
15.02749009406798
 31
0.0
  0
LINE
  5
5F89
330
17
100
AcDbEntity
  8
PART
100
AcDbLine
 10
15.59924091448995
 20
15.14749009406798
 30
0.0
 11
15.69924091448995
 21
15.14749009406798
 31
0.0
  0
LINE
  5
5F8A
330
17
100
AcDbEntity
  8
PART
100
AcDbLine
 10
14.91924091448995
 20
15.17919070628301
 30
0.0
 11
15.01424091448995
 21
15.17919070628301
 31
0.0
  0
LINE
  5
5F8B
330
17
100
AcDbEntity
  8
PART
100
AcDbLine
 10
14.91924091448995
 20
15.02749009406798
 30
0.0
 11
15.01424091448995
 21
15.02749009406798
 31
0.0
  0
LINE
  5
5F8C
330
17
100
AcDbEntity
  8
PART
100
AcDbLine
 10
14.62424091448995
 20
15.14749009406799
 30
0.0
 11
14.72424091448995
 21
15.14749009406798
 31
0.0
  0
LINE
  5
5F8D
330
17
100
AcDbEntity
  8
PART
100
AcDbLine
 10
14.52924091448995
 20
15.17919070628302
 30
0.0
 11
14.62424091448994
 21
15.17919070628301
 31
0.0
  0
LINE
  5
5F8E
330
17
100
AcDbEntity
  8
PART
100
AcDbLine
 10
14.42924091448995
 20
15.14749009406799
 30
0.0
 11
14.52924091448995
 21
15.14749009406799
 31
0.0
  0
LINE
  5
5F8F
330
17
100
AcDbEntity
  8
PART
100
AcDbLine
 10
14.52924091448995
 20
15.02749009406799
 30
0.0
 11
14.62424091448995
 21
15.02749009406798
 31
0.0
  0
LINE
  5
5F90
330
17
100
AcDbEntity
  8
PART
100
AcDbLine
 10
14.62424091448995
 20
15.17919070628302
 30
0.0
 11
14.62424091448995
 21
15.02749009406798
 31
0.0
  0
LINE
  5
5F91
330
17
100
AcDbEntity
  8
PART
100
AcDbLine
 10
14.52924091448995
 20
15.17919070628302
 30
0.0
 11
14.52924091448994
 21
15.02749009406798
 31
0.0
  0
LINE
  5
5F92
330
17
100
AcDbEntity
  8
PART
100
AcDbLine
 10
14.42924091448995
 20
15.17919070628302
 30
0.0
 11
14.42924091448995
 21
15.02749009406798
 31
0.0
  0
LINE
  5
5F93
330
17
100
AcDbEntity
  8
PART
100
AcDbLine
 10
14.72424091448995
 20
15.17919070628301
 30
0.0
 11
14.81924091448995
 21
15.17919070628301
 31
0.0
  0
LINE
  5
5F94
330
17
100
AcDbEntity
  8
PART
100
AcDbLine
 10
14.81924091448995
 20
15.14749009406798
 30
0.0
 11
14.91924091448995
 21
15.14749009406798
 31
0.0
  0
LINE
  5
5F95
330
17
100
AcDbEntity
  8
PART
100
AcDbLine
 10
14.91924091448995
 20
15.17919070628302
 30
0.0
 11
14.91924091448995
 21
15.02749009406798
 31
0.0
  0
LINE
  5
5F96
330
17
100
AcDbEntity
  8
PART
100
AcDbLine
 10
14.72424091448995
 20
15.02749009406798
 30
0.0
 11
14.81924091448995
 21
15.02749009406798
 31
0.0
  0
LINE
  5
5F97
330
17
100
AcDbEntity
  8
PART
100
AcDbLine
 10
14.81924091448995
 20
15.17919070628302
 30
0.0
 11
14.81924091448995
 21
15.02749009406798
 31
0.0
  0
LINE
  5
5F98
330
17
100
AcDbEntity
  8
PART
100
AcDbLine
 10
14.72424091448995
 20
15.17919070628302
 30
0.0
 11
14.72424091448995
 21
15.02749009406798
 31
0.0
  0
LINE
  5
5F99
330
17
100
AcDbEntity
  8
PART
100
AcDbLine
 10
15.30924091448995
 20
15.17919070628301
 30
0.0
 11
15.40424091448994
 21
15.17919070628301
 31
0.0
  0
LINE
  5
5F9A
330
17
100
AcDbEntity
  8
PART
100
AcDbLine
 10
15.30924091448994
 20
15.02749009406798
 30
0.0
 11
15.40424091448994
 21
15.02749009406798
 31
0.0
  0
LINE
  5
5F9B
330
17
100
AcDbEntity
  8
PART
100
AcDbLine
 10
15.11424091448994
 20
15.17919070628301
 30
0.0
 11
15.20924091448994
 21
15.17919070628301
 31
0.0
  0
LINE
  5
5F9C
330
17
100
AcDbEntity
  8
PART
100
AcDbLine
 10
15.20924091448994
 20
15.14749009406798
 30
0.0
 11
15.30924091448994
 21
15.14749009406798
 31
0.0
  0
LINE
  5
5F9D
330
17
100
AcDbEntity
  8
PART
100
AcDbLine
 10
15.01424091448995
 20
15.14749009406798
 30
0.0
 11
15.11424091448995
 21
15.14749009406798
 31
0.0
  0
LINE
  5
5F9E
330
17
100
AcDbEntity
  8
PART
100
AcDbLine
 10
15.30924091448994
 20
15.17919070628302
 30
0.0
 11
15.30924091448994
 21
15.02749009406799
 31
0.0
  0
LINE
  5
5F9F
330
17
100
AcDbEntity
  8
PART
100
AcDbLine
 10
15.11424091448995
 20
15.02749009406798
 30
0.0
 11
15.20924091448994
 21
15.02749009406798
 31
0.0
  0
LINE
  5
5FA0
330
17
100
AcDbEntity
  8
PART
100
AcDbLine
 10
15.20924091448994
 20
15.17919070628302
 30
0.0
 11
15.20924091448994
 21
15.02749009406799
 31
0.0
  0
LINE
  5
5FA1
330
17
100
AcDbEntity
  8
PART
100
AcDbLine
 10
15.11424091448995
 20
15.17919070628302
 30
0.0
 11
15.11424091448995
 21
15.02749009406799
 31
0.0
  0
LINE
  5
5FA2
330
17
100
AcDbEntity
  8
PART
100
AcDbLine
 10
15.01424091448995
 20
15.17919070628302
 30
0.0
 11
15.01424091448995
 21
15.02749009406799
 31
0.0
  0
LINE
  5
5FA3
330
17
100
AcDbEntity
  8
PART
100
AcDbLine
 10
15.50424091448994
 20
15.17919070628301
 30
0.0
 11
15.59924091448995
 21
15.17919070628301
 31
0.0
  0
LINE
  5
5FA4
330
17
100
AcDbEntity
  8
PART
100
AcDbLine
 10
15.40424091448994
 20
15.14749009406798
 30
0.0
 11
15.50424091448995
 21
15.14749009406798
 31
0.0
  0
LINE
  5
5FA5
330
17
100
AcDbEntity
  8
PART
100
AcDbLine
 10
15.50424091448994
 20
15.02749009406798
 30
0.0
 11
15.59924091448994
 21
15.02749009406798
 31
0.0
  0
LINE
  5
5FA6
330
17
100
AcDbEntity
  8
PART
100
AcDbLine
 10
15.59924091448995
 20
15.17919070628302
 30
0.0
 11
15.59924091448995
 21
15.02749009406799
 31
0.0
  0
LINE
  5
5FA7
330
17
100
AcDbEntity
  8
PART
100
AcDbLine
 10
15.50424091448995
 20
15.17919070628302
 30
0.0
 11
15.50424091448995
 21
15.02749009406799
 31
0.0
  0
LINE
  5
5FA8
330
17
100
AcDbEntity
  8
PART
100
AcDbLine
 10
15.40424091448995
 20
15.17919070628302
 30
0.0
 11
15.40424091448994
 21
15.02749009406799
 31
0.0
  0
LINE
  5
5FA9
330
17
100
AcDbEntity
  8
PART
100
AcDbLine
 10
16.28424091448994
 20
15.17919070628301
 30
0.0
 11
16.37924091448995
 21
15.17919070628301
 31
0.0
  0
LINE
  5
5FAA
330
17
100
AcDbEntity
  8
PART
100
AcDbLine
 10
16.28424091448994
 20
15.02749009406798
 30
0.0
 11
16.37924091448995
 21
15.02749009406798
 31
0.0
  0
LINE
  5
5FAB
330
17
100
AcDbEntity
  8
PART
100
AcDbLine
 10
15.98924091448995
 20
15.14749009406798
 30
0.0
 11
16.08924091448995
 21
15.14749009406798
 31
0.0
  0
LINE
  5
5FAC
330
17
100
AcDbEntity
  8
PART
100
AcDbLine
 10
15.89424091448995
 20
15.17919070628301
 30
0.0
 11
15.98924091448995
 21
15.17919070628301
 31
0.0
  0
LINE
  5
5FAD
330
17
100
AcDbEntity
  8
PART
100
AcDbLine
 10
15.69924091448995
 20
15.17919070628301
 30
0.0
 11
15.79424091448995
 21
15.17919070628301
 31
0.0
  0
LINE
  5
5FAE
330
17
100
AcDbEntity
  8
PART
100
AcDbLine
 10
15.79424091448994
 20
15.14749009406798
 30
0.0
 11
15.89424091448995
 21
15.14749009406798
 31
0.0
  0
LINE
  5
5FAF
330
17
100
AcDbEntity
  8
PART
100
AcDbLine
 10
15.89424091448995
 20
15.02749009406798
 30
0.0
 11
15.98924091448995
 21
15.02749009406798
 31
0.0
  0
LINE
  5
5FB0
330
17
100
AcDbEntity
  8
PART
100
AcDbLine
 10
15.98924091448995
 20
15.17919070628302
 30
0.0
 11
15.98924091448995
 21
15.02749009406799
 31
0.0
  0
LINE
  5
5FB1
330
17
100
AcDbEntity
  8
PART
100
AcDbLine
 10
15.89424091448995
 20
15.17919070628302
 30
0.0
 11
15.89424091448995
 21
15.02749009406799
 31
0.0
  0
LINE
  5
5FB2
330
17
100
AcDbEntity
  8
PART
100
AcDbLine
 10
15.69924091448994
 20
15.02749009406798
 30
0.0
 11
15.79424091448995
 21
15.02749009406798
 31
0.0
  0
LINE
  5
5FB3
330
17
100
AcDbEntity
  8
PART
100
AcDbLine
 10
15.79424091448995
 20
15.17919070628302
 30
0.0
 11
15.79424091448995
 21
15.02749009406799
 31
0.0
  0
LINE
  5
5FB4
330
17
100
AcDbEntity
  8
PART
100
AcDbLine
 10
15.69924091448995
 20
15.17919070628302
 30
0.0
 11
15.69924091448994
 21
15.02749009406799
 31
0.0
  0
LINE
  5
5FB5
330
17
100
AcDbEntity
  8
PART
100
AcDbLine
 10
16.08924091448995
 20
15.17919070628301
 30
0.0
 11
16.18424091448994
 21
15.17919070628301
 31
0.0
  0
LINE
  5
5FB6
330
17
100
AcDbEntity
  8
PART
100
AcDbLine
 10
16.18424091448995
 20
15.14749009406798
 30
0.0
 11
16.28424091448994
 21
15.14749009406798
 31
0.0
  0
LINE
  5
5FB7
330
17
100
AcDbEntity
  8
PART
100
AcDbLine
 10
16.28424091448994
 20
15.17919070628302
 30
0.0
 11
16.28424091448994
 21
15.02749009406799
 31
0.0
  0
LINE
  5
5FB8
330
17
100
AcDbEntity
  8
PART
100
AcDbLine
 10
16.08924091448994
 20
15.02749009406798
 30
0.0
 11
16.18424091448995
 21
15.02749009406798
 31
0.0
  0
LINE
  5
5FB9
330
17
100
AcDbEntity
  8
PART
100
AcDbLine
 10
16.18424091448995
 20
15.17919070628302
 30
0.0
 11
16.18424091448995
 21
15.02749009406799
 31
0.0
  0
LINE
  5
5FBA
330
17
100
AcDbEntity
  8
PART
100
AcDbLine
 10
16.08924091448995
 20
15.17919070628302
 30
0.0
 11
16.08924091448995
 21
15.02749009406799
 31
0.0
  0
LINE
  5
5FBB
330
17
100
AcDbEntity
  8
PART
100
AcDbLine
 10
16.57424091448995
 20
15.14749009406798
 30
0.0
 11
16.67424091448995
 21
15.14749009406798
 31
0.0
  0
LINE
  5
5FBC
330
17
100
AcDbEntity
  8
PART
100
AcDbLine
 10
16.47924091448994
 20
15.17919070628301
 30
0.0
 11
16.57424091448995
 21
15.17919070628302
 31
0.0
  0
LINE
  5
5FBD
330
17
100
AcDbEntity
  8
PART
100
AcDbLine
 10
16.37924091448995
 20
15.14749009406798
 30
0.0
 11
16.47924091448994
 21
15.14749009406798
 31
0.0
  0
LINE
  5
5FBE
330
17
100
AcDbEntity
  8
PART
100
AcDbLine
 10
16.47924091448994
 20
15.02749009406798
 30
0.0
 11
16.57424091448995
 21
15.02749009406798
 31
0.0
  0
LINE
  5
5FBF
330
17
100
AcDbEntity
  8
PART
100
AcDbLine
 10
16.57424091448995
 20
15.17919070628302
 30
0.0
 11
16.57424091448995
 21
15.02749009406799
 31
0.0
  0
LINE
  5
5FC0
330
17
100
AcDbEntity
  8
PART
100
AcDbLine
 10
16.47924091448994
 20
15.17919070628302
 30
0.0
 11
16.47924091448994
 21
15.02749009406799
 31
0.0
  0
LINE
  5
5FC1
330
17
100
AcDbEntity
  8
PART
100
AcDbLine
 10
16.37924091448995
 20
15.17919070628302
 30
0.0
 11
16.37924091448995
 21
15.02749009406799
 31
0.0
  0
LINE
  5
5FC2
330
17
100
AcDbEntity
  8
PART
100
AcDbLine
 10
16.86924091448995
 20
15.17919070628301
 30
0.0
 11
16.96424091448994
 21
15.17919070628301
 31
0.0
  0
LINE
  5
5FC3
330
17
100
AcDbEntity
  8
PART
100
AcDbLine
 10
16.67424091448995
 20
15.17919070628302
 30
0.0
 11
16.76924091448995
 21
15.17919070628301
 31
0.0
  0
LINE
  5
5FC4
330
17
100
AcDbEntity
  8
PART
100
AcDbLine
 10
16.76924091448995
 20
15.14749009406798
 30
0.0
 11
16.86924091448995
 21
15.14749009406799
 31
0.0
  0
LINE
  5
5FC5
330
17
100
AcDbEntity
  8
PART
100
AcDbLine
 10
16.86924091448995
 20
15.02749009406798
 30
0.0
 11
16.96424091448994
 21
15.02749009406798
 31
0.0
  0
LINE
  5
5FC6
330
17
100
AcDbEntity
  8
PART
100
AcDbLine
 10
16.96424091448994
 20
15.17919070628302
 30
0.0
 11
16.96424091448994
 21
15.02749009406799
 31
0.0
  0
LINE
  5
5FC7
330
17
100
AcDbEntity
  8
PART
100
AcDbLine
 10
16.86924091448995
 20
15.17919070628302
 30
0.0
 11
16.86924091448995
 21
15.02749009406799
 31
0.0
  0
LINE
  5
5FC8
330
17
100
AcDbEntity
  8
PART
100
AcDbLine
 10
16.67424091448995
 20
15.02749009406798
 30
0.0
 11
16.76924091448995
 21
15.02749009406798
 31
0.0
  0
LINE
  5
5FC9
330
17
100
AcDbEntity
  8
PART
100
AcDbLine
 10
16.76924091448995
 20
15.17919070628302
 30
0.0
 11
16.76924091448994
 21
15.02749009406799
 31
0.0
  0
LINE
  5
5FCA
330
17
100
AcDbEntity
  8
PART
100
AcDbLine
 10
16.67424091448995
 20
15.17919070628302
 30
0.0
 11
16.67424091448995
 21
15.02749009406799
 31
0.0
  0
LINE
  5
5FCB
330
17
100
AcDbEntity
  8
PART
100
AcDbLine
 10
17.64924091448995
 20
15.17919070628302
 30
0.0
 11
17.74424091448995
 21
15.17919070628302
 31
0.0
  0
LINE
  5
5FCC
330
17
100
AcDbEntity
  8
PART
100
AcDbLine
 10
17.64924091448995
 20
15.02749009406799
 30
0.0
 11
17.74424091448995
 21
15.02749009406799
 31
0.0
  0
LINE
  5
5FCD
330
17
100
AcDbEntity
  8
PART
100
AcDbLine
 10
17.25924091448995
 20
15.17919070628302
 30
0.0
 11
17.35424091448995
 21
15.17919070628302
 31
0.0
  0
LINE
  5
5FCE
330
17
100
AcDbEntity
  8
PART
100
AcDbLine
 10
17.25924091448995
 20
15.02749009406798
 30
0.0
 11
17.35424091448995
 21
15.02749009406798
 31
0.0
  0
LINE
  5
5FCF
330
17
100
AcDbEntity
  8
PART
100
AcDbLine
 10
17.06424091448995
 20
15.17919070628301
 30
0.0
 11
17.15924091448995
 21
15.17919070628302
 31
0.0
  0
LINE
  5
5FD0
330
17
100
AcDbEntity
  8
PART
100
AcDbLine
 10
17.15924091448995
 20
15.14749009406799
 30
0.0
 11
17.25924091448995
 21
15.14749009406799
 31
0.0
  0
LINE
  5
5FD1
330
17
100
AcDbEntity
  8
PART
100
AcDbLine
 10
17.25924091448995
 20
15.17919070628302
 30
0.0
 11
17.25924091448995
 21
15.02749009406799
 31
0.0
  0
LINE
  5
5FD2
330
17
100
AcDbEntity
  8
PART
100
AcDbLine
 10
17.06424091448995
 20
15.02749009406798
 30
0.0
 11
17.15924091448995
 21
15.02749009406798
 31
0.0
  0
LINE
  5
5FD3
330
17
100
AcDbEntity
  8
PART
100
AcDbLine
 10
17.15924091448995
 20
15.17919070628302
 30
0.0
 11
17.15924091448995
 21
15.02749009406799
 31
0.0
  0
LINE
  5
5FD4
330
17
100
AcDbEntity
  8
PART
100
AcDbLine
 10
17.06424091448995
 20
15.17919070628302
 30
0.0
 11
17.06424091448995
 21
15.02749009406799
 31
0.0
  0
LINE
  5
5FD5
330
17
100
AcDbEntity
  8
PART
100
AcDbLine
 10
17.45424091448995
 20
15.17919070628302
 30
0.0
 11
17.54924091448994
 21
15.17919070628302
 31
0.0
  0
LINE
  5
5FD6
330
17
100
AcDbEntity
  8
PART
100
AcDbLine
 10
17.54924091448994
 20
15.14749009406799
 30
0.0
 11
17.64924091448995
 21
15.14749009406799
 31
0.0
  0
LINE
  5
5FD7
330
17
100
AcDbEntity
  8
PART
100
AcDbLine
 10
17.35424091448995
 20
15.14749009406799
 30
0.0
 11
17.45424091448995
 21
15.14749009406799
 31
0.0
  0
LINE
  5
5FD8
330
17
100
AcDbEntity
  8
PART
100
AcDbLine
 10
17.64924091448995
 20
15.17919070628302
 30
0.0
 11
17.64924091448995
 21
15.02749009406799
 31
0.0
  0
LINE
  5
5FD9
330
17
100
AcDbEntity
  8
PART
100
AcDbLine
 10
17.45424091448995
 20
15.02749009406798
 30
0.0
 11
17.54924091448994
 21
15.02749009406798
 31
0.0
  0
LINE
  5
5FDA
330
17
100
AcDbEntity
  8
PART
100
AcDbLine
 10
17.54924091448994
 20
15.17919070628302
 30
0.0
 11
17.54924091448994
 21
15.02749009406799
 31
0.0
  0
LINE
  5
5FDB
330
17
100
AcDbEntity
  8
PART
100
AcDbLine
 10
17.45424091448995
 20
15.17919070628302
 30
0.0
 11
17.45424091448995
 21
15.02749009406799
 31
0.0
  0
LINE
  5
5FDC
330
17
100
AcDbEntity
  8
PART
100
AcDbLine
 10
17.35424091448995
 20
15.17919070628302
 30
0.0
 11
17.35424091448995
 21
15.02749009406799
 31
0.0
  0
LINE
  5
5FDD
330
17
100
AcDbEntity
  8
PART
100
AcDbLine
 10
17.74424091448995
 20
15.17919070628302
 30
0.0
 11
17.74424091448995
 21
15.02749009406799
 31
0.0
  0
LINE
  5
5FDE
330
17
100
AcDbEntity
  8
PART
100
AcDbLine
 10
13.25924091448995
 20
15.14749009406798
 30
0.0
 11
13.35924091448994
 21
15.14749009406798
 31
0.0
  0
LINE
  5
5FDF
330
17
100
AcDbEntity
  8
PART
100
AcDbLine
 10
13.45424091448994
 20
15.14749009406798
 30
0.0
 11
13.55424091448995
 21
15.14749009406798
 31
0.0
  0
LINE
  5
5FE0
330
17
100
AcDbEntity
  8
PART
100
AcDbLine
 10
13.64924091448995
 20
15.14749009406798
 30
0.0
 11
13.74924091448995
 21
15.14749009406798
 31
0.0
  0
LINE
  5
5FE1
330
17
100
AcDbEntity
  8
PART
100
AcDbLine
 10
13.84424091448995
 20
15.14749009406798
 30
0.0
 11
13.94424091448994
 21
15.14749009406798
 31
0.0
  0
LINE
  5
5FE2
330
17
100
AcDbEntity
  8
PART
100
AcDbLine
 10
14.03924091448994
 20
15.14749009406798
 30
0.0
 11
14.13924091448994
 21
15.14749009406798
 31
0.0
  0
LINE
  5
5FE3
330
17
100
AcDbEntity
  8
PART
100
AcDbLine
 10
14.23424091448995
 20
15.14749009406798
 30
0.0
 11
14.33424091448994
 21
15.14749009406798
 31
0.0
  0
LINE
  5
5FE4
330
17
100
AcDbEntity
  8
PART
100
AcDbLine
 10
14.42924091448995
 20
15.14749009406798
 30
0.0
 11
14.52924091448995
 21
15.14749009406798
 31
0.0
  0
LINE
  5
5FE5
330
17
100
AcDbEntity
  8
PART
100
AcDbLine
 10
14.62424091448994
 20
15.14749009406798
 30
0.0
 11
14.72424091448994
 21
15.14749009406798
 31
0.0
  0
LINE
  5
5FE6
330
17
100
AcDbEntity
  8
PART
100
AcDbLine
 10
14.81924091448995
 20
15.14749009406798
 30
0.0
 11
14.91924091448995
 21
15.14749009406798
 31
0.0
  0
LINE
  5
5FE7
330
17
100
AcDbEntity
  8
PART
100
AcDbLine
 10
15.01424091448995
 20
15.14749009406798
 30
0.0
 11
15.11424091448995
 21
15.14749009406798
 31
0.0
  0
LINE
  5
5FE8
330
17
100
AcDbEntity
  8
PART
100
AcDbLine
 10
15.20924091448994
 20
15.14749009406798
 30
0.0
 11
15.30924091448995
 21
15.14749009406798
 31
0.0
  0
LINE
  5
5FE9
330
17
100
AcDbEntity
  8
PART
100
AcDbLine
 10
15.40424091448995
 20
15.14749009406798
 30
0.0
 11
15.50424091448995
 21
15.14749009406798
 31
0.0
  0
LINE
  5
5FEA
330
17
100
AcDbEntity
  8
PART
100
AcDbLine
 10
15.59924091448995
 20
15.14749009406798
 30
0.0
 11
15.69924091448995
 21
15.14749009406798
 31
0.0
  0
LINE
  5
5FEB
330
17
100
AcDbEntity
  8
PART
100
AcDbLine
 10
15.79424091448994
 20
15.14749009406798
 30
0.0
 11
15.89424091448995
 21
15.14749009406798
 31
0.0
  0
LINE
  5
5FEC
330
17
100
AcDbEntity
  8
PART
100
AcDbLine
 10
15.98924091448995
 20
15.14749009406798
 30
0.0
 11
16.08924091448995
 21
15.14749009406798
 31
0.0
  0
LINE
  5
5FED
330
17
100
AcDbEntity
  8
PART
100
AcDbLine
 10
16.18424091448995
 20
15.14749009406798
 30
0.0
 11
16.28424091448994
 21
15.14749009406798
 31
0.0
  0
LINE
  5
5FEE
330
17
100
AcDbEntity
  8
PART
100
AcDbLine
 10
16.37924091448995
 20
15.14749009406798
 30
0.0
 11
16.47924091448994
 21
15.14749009406798
 31
0.0
  0
LINE
  5
5FEF
330
17
100
AcDbEntity
  8
PART
100
AcDbLine
 10
16.57424091448995
 20
15.14749009406798
 30
0.0
 11
16.67424091448995
 21
15.14749009406798
 31
0.0
  0
LINE
  5
5FF0
330
17
100
AcDbEntity
  8
PART
100
AcDbLine
 10
16.76924091448995
 20
15.14749009406798
 30
0.0
 11
16.86924091448995
 21
15.14749009406799
 31
0.0
  0
LINE
  5
5FF1
330
17
100
AcDbEntity
  8
PART
100
AcDbLine
 10
16.96424091448994
 20
15.14749009406799
 30
0.0
 11
17.06424091448995
 21
15.14749009406799
 31
0.0
  0
LINE
  5
5FF2
330
17
100
AcDbEntity
  8
PART
100
AcDbLine
 10
17.15924091448995
 20
15.14749009406799
 30
0.0
 11
17.25924091448995
 21
15.14749009406799
 31
0.0
  0
LINE
  5
5FF3
330
17
100
AcDbEntity
  8
PART
100
AcDbLine
 10
17.35424091448994
 20
15.14749009406799
 30
0.0
 11
17.45424091448995
 21
15.14749009406799
 31
0.0
  0
LINE
  5
5FF4
330
17
100
AcDbEntity
  8
PART
100
AcDbLine
 10
17.54924091448994
 20
15.14749009406799
 30
0.0
 11
17.64924091448995
 21
15.14749009406798
 31
0.0
  0
LINE
  5
5FF5
330
17
100
AcDbEntity
  8
PART
100
AcDbLine
 10
17.74424091448994
 20
15.14749009406799
 30
0.0
 11
18.16351968730874
 21
15.14749009406799
 31
0.0
  0
LINE
  5
5FF7
330
17
100
AcDbEntity
  8
PART
100
AcDbLine
 10
14.04924091448995
 20
14.80997247439707
 30
0.0
 11
14.04924091448995
 21
13.63497247439707
 31
0.0
  0
LINE
  5
5FF8
330
17
100
AcDbEntity
  8
PART
100
AcDbLine
 10
17.03924091448995
 20
14.80997247439707
 30
0.0
 11
17.03924091448995
 21
13.63497247439707
 31
0.0
  0
LINE
  5
5FFA
330
17
100
AcDbEntity
  8
PART
100
AcDbLine
 10
14.04924091448995
 20
14.80997247439707
 30
0.0
 11
17.03924091448995
 21
14.80997247439707
 31
0.0
  0
LINE
  5
5FFB
330
17
100
AcDbEntity
  8
PART
100
AcDbLine
 10
14.04924091448995
 20
13.63497247439707
 30
0.0
 11
17.03924091448995
 21
13.63497247439707
 31
0.0
  0
LINE
  5
5FFE
330
17
100
AcDbEntity
  8
PART
100
AcDbLine
 10
18.64901463711768
 20
13.37497244510585
 30
0.0
 11
18.64901463711768
 21
13.76997244510584
 31
0.0
  0
LINE
  5
60F6
330
17
100
AcDbEntity
  8
PART
100
AcDbLine
 10
18.27424091448995
 20
13.76997244510584
 30
0.0
 11
18.64901463711768
 21
13.76997244510584
 31
0.0
  0
LINE
  5
60F7
330
17
100
AcDbEntity
  8
PART
100
AcDbLine
 10
18.27424091448995
 20
13.37497244510585
 30
0.0
 11
18.64901463711768
 21
13.37497244510585
 31
0.0
  0
LINE
  5
60F8
330
17
100
AcDbEntity
  8
PART
100
AcDbLine
 10
18.27424091448994
 20
13.70797244510584
 30
0.0
 11
18.39451463711768
 21
13.70797244510584
 31
0.0
  0
LINE
  5
60F9
330
17
100
AcDbEntity
  8
PART
100
AcDbLine
 10
18.27424091448994
 20
13.43697244510584
 30
0.0
 11
18.39451463711768
 21
13.43697244510584
 31
0.0
  0
LINE
  5
60FA
330
17
100
AcDbEntity
  8
PART
100
AcDbLine
 10
18.39451463711768
 20
13.37497244510585
 30
0.0
 11
18.39451463711768
 21
13.43697244510584
 31
0.0
  0
LINE
  5
60FB
330
17
100
AcDbEntity
  8
PART
100
AcDbLine
 10
18.39451463711768
 20
13.70797244510584
 30
0.0
 11
18.39451463711768
 21
13.76997244510584
 31
0.0
  0
LINE
  5
60FC
330
17
100
AcDbEntity
  8
PART
100
AcDbLine
 10
18.56901463711768
 20
13.50534744510584
 30
0.0
 11
18.56901463711768
 21
13.64784744510584
 31
0.0
  0
LINE
  5
60FD
330
17
100
AcDbEntity
  8
PART
100
AcDbLine
 10
18.43251463711768
 20
13.50534744510584
 30
0.0
 11
18.43251463711768
 21
13.64784744510584
 31
0.0
  0
LINE
  5
6107
330
17
100
AcDbEntity
  8
PART
100
AcDbLine
 10
12.81424091448995
 20
15.0699725036883
 30
0.0
 11
12.43946719186221
 21
15.0699725036883
 31
0.0
  0
LINE
  5
6108
330
17
100
AcDbEntity
  8
PART
100
AcDbLine
 10
12.78424091448995
 20
14.6749725036883
 30
0.0
 11
12.43946719186221
 21
14.6749725036883
 31
0.0
  0
LINE
  5
6109
330
17
100
AcDbEntity
  8
PART
100
AcDbLine
 10
12.51946719186222
 20
14.9437225036883
 30
0.0
 11
12.51946719186221
 21
14.7929725036883
 31
0.0
  0
LINE
  5
610A
330
17
100
AcDbEntity
  8
PART
100
AcDbLine
 10
12.43946719186221
 20
15.0699725036883
 30
0.0
 11
12.43946719186221
 21
14.6749725036883
 31
0.0
  0
LINE
  5
6111
330
17
100
AcDbEntity
  8
PART
100
AcDbLine
 10
12.78424091448995
 20
15.0079725036883
 30
0.0
 11
12.69396719186221
 21
15.0079725036883
 31
0.0
  0
LINE
  5
6112
330
17
100
AcDbEntity
  8
PART
100
AcDbLine
 10
12.78424091448995
 20
14.7369725036883
 30
0.0
 11
12.69396719186221
 21
14.7369725036883
 31
0.0
  0
ARC
  5
6113
330
17
100
AcDbEntity
  8
PART
100
AcDbCircle
 10
12.92496214167116
 20
13.30149009406798
 30
0.0
 40
0.02
100
AcDbArc
 50
180.0000000000002
 51
270.0
  0
LINE
  5
6114
330
17
100
AcDbEntity
  8
PART
100
AcDbLine
 10
12.65596719186221
 20
14.9437225036883
 30
0.0
 11
12.65596719186222
 21
14.7929725036883
 31
0.0
  0
LINE
  5
6115
330
17
100
AcDbEntity
  8
PART
100
AcDbLine
 10
12.69396719186222
 20
15.0699725036883
 30
0.0
 11
12.69396719186221
 21
15.0079725036883
 31
0.0
  0
LINE
  5
6116
330
17
100
AcDbEntity
  8
PART
100
AcDbLine
 10
12.69396719186221
 20
14.7369725036883
 30
0.0
 11
12.69396719186221
 21
14.6749725036883
 31
0.0
  0
LINE
  5
6118
330
17
100
AcDbEntity
  8
PART
100
AcDbLine
 10
12.87004276946436
 20
15.00897250368829
 30
0.0
 11
13.05496214167116
 21
15.00897250368829
 31
0.0
  0
LINE
  5
6119
330
17
100
AcDbEntity
  8
PART
100
AcDbLine
 10
12.87004276946436
 20
14.84597250368829
 30
0.0
 11
13.05496214167116
 21
14.84597250368829
 31
0.0
  0
LINE
  5
611A
330
17
100
AcDbEntity
  8
PART
100
AcDbLine
 10
13.05496214167116
 20
14.84597250368829
 30
0.0
 11
13.05496214167116
 21
15.00897250368829
 31
0.0
  0
LINE
  5
611C
330
17
100
AcDbEntity
  8
PART
100
AcDbLine
 10
12.87004276946436
 20
15.00897250368829
 30
0.0
 11
12.87004276946436
 21
14.84597250368829
 31
0.0
  0
LINE
  5
611D
330
17
100
AcDbEntity
  8
PART
100
AcDbLine
 10
12.90496214167116
 20
15.0089725036883
 30
0.0
 11
12.90496214167116
 21
15.12749009406798
 31
0.0
  0
LINE
  5
611E
330
17
100
AcDbEntity
  8
PART
100
AcDbLine
 10
12.78424091448995
 20
13.38197249735753
 30
0.0
 11
12.78424091448995
 21
15.00897250368829
 31
0.0
  0
LINE
  5
611F
330
17
100
AcDbEntity
  8
PART
100
AcDbLine
 10
12.78424091448995
 20
15.00897250368829
 30
0.0
 11
12.81424091448995
 21
15.00897250368829
 31
0.0
  0
LINE
  5
6122
330
17
100
AcDbEntity
  8
PART
100
AcDbLine
 10
12.78424091448995
 20
13.38197249735753
 30
0.0
 11
12.81424091448995
 21
13.38197249735753
 31
0.0
  0
TEXT
  5
6124
330
17
100
AcDbEntity
  8
PART
100
AcDbText
 10
13.0894914540172
 20
15.07636986204969
 30
0.0
 40
0.05
  1
PORT ON
 50
270.0
  7
ARIAL
100
AcDbText
  0
TEXT
  5
6125
330
17
100
AcDbEntity
  8
PART
100
AcDbText
 10
13.08769412737857
 20
14.61337661811777
 30
0.0
 40
0.05
  1
DATA & POWER
 50
270.0
  7
ARIAL
100
AcDbText
  0
TEXT
  5
6126
330
17
100
AcDbEntity
  8
PART
100
AcDbText
 10
13.00737352710571
 20
14.6245612316279
 30
0.0
 40
0.05
  1
         OUT
 50
270.0
  7
ARIAL
100
AcDbText
  0
TEXT
  5
6127
330
17
100
AcDbEntity
  8
PART
100
AcDbText
 10
13.08847316262924
 20
13.83883939169189
 30
0.0
 40
0.05
  1
DATA 
 50
270.0
  7
ARIAL
100
AcDbText
  0
TEXT
  5
6128
330
17
100
AcDbEntity
  8
PART
100
AcDbText
 10
13.00815256235639
 20
13.83883939169189
 30
0.0
 40
0.05
  1
   IN
 50
270.0
  7
ARIAL
100
AcDbText
  0
LINE
  5
613A
330
17
100
AcDbEntity
  8
DIM
100
AcDbLine
 10
6.236676190876609
 20
11.04138941675431
 30
0.0
 11
6.236676190876609
 21
12.42594375151587
 31
0.0
  0
LINE
  5
613B
330
17
100
AcDbEntity
  8
DIM
100
AcDbLine
 10
8.28367619087661
 20
11.04138941675431
 30
0.0
 11
8.28367619087661
 21
12.42594375151587
 31
0.0
  0
LINE
  5
613C
330
17
100
AcDbEntity
  8
DIM
100
AcDbLine
 10
6.356676190876608
 20
12.32594375151587
 30
0.0
 11
6.55101247378707
 21
12.32594375151587
 31
0.0
  0
LINE
  5
613D
330
17
100
AcDbEntity
  8
DIM
100
AcDbLine
 10
8.163676190876611
 20
12.32594375151587
 30
0.0
 11
7.993869616644213
 21
12.32594375151587
 31
0.0
  0
SOLID
  5
613E
330
17
100
AcDbEntity
  8
DIM
100
AcDbTrace
 10
6.356676190876608
 20
12.34594375151587
 30
0.0
 11
6.356676190876608
 21
12.30594375151587
 31
0.0
 12
6.236676190876609
 22
12.32594375151587
 32
0.0
 13
6.236676190876609
 23
12.32594375151587
 33
0.0
  0
SOLID
  5
613F
330
17
100
AcDbEntity
  8
DIM
100
AcDbTrace
 10
8.163676190876611
 20
12.34594375151587
 30
0.0
 11
8.163676190876611
 21
12.30594375151587
 31
0.0
 12
8.28367619087661
 22
12.32594375151587
 32
0.0
 13
8.28367619087661
 23
12.32594375151587
 33
0.0
  0
MTEXT
  5
6140
330
17
100
AcDbEntity
  8
DIM
100
AcDbMText
 10
7.272441045215641
 20
12.32594375151587
 30
0.0
 40
0.12
 41
0.0
 71
     5
 72
     1
  1
\A1;2.047 [51.99]
  7
ROMANS
 73
     1
 44
1.0
  0
LINE
  5
6141
330
17
100
AcDbEntity
  8
DIM
100
AcDbLine
 10
6.227397418057821
 20
11.52138941675431
 30
0.0
 11
3.925022059570387
 21
11.52138941675431
 31
0.0
  0
LINE
  5
6142
330
17
100
AcDbEntity
  8
DIM
100
AcDbLine
 10
6.227815911833818
 20
10.22138941675431
 30
0.0
 11
3.925022059570387
 21
10.22138941675431
 31
0.0
  0
LINE
  5
6143
330
17
100
AcDbEntity
  8
DIM
100
AcDbLine
 10
4.025022059570388
 20
11.40138941675431
 30
0.0
 11
4.025022059570388
 21
11.09108957853086
 31
0.0
  0
LINE
  5
6144
330
17
100
AcDbEntity
  8
DIM
100
AcDbLine
 10
4.025022059570388
 20
10.34138941675431
 30
0.0
 11
4.025022059570388
 21
10.72823243567372
 31
0.0
  0
SOLID
  5
6145
330
17
100
AcDbEntity
  8
DIM
100
AcDbTrace
 10
4.005022059570388
 20
11.40138941675431
 30
0.0
 11
4.045022059570388
 21
11.40138941675431
 31
0.0
 12
4.025022059570388
 22
11.52138941675431
 32
0.0
 13
4.025022059570388
 23
11.52138941675431
 33
0.0
  0
SOLID
  5
6146
330
17
100
AcDbEntity
  8
DIM
100
AcDbTrace
 10
4.005022059570388
 20
10.34138941675431
 30
0.0
 11
4.045022059570388
 21
10.34138941675431
 31
0.0
 12
4.025022059570388
 22
10.22138941675431
 32
0.0
 13
4.025022059570388
 23
10.22138941675431
 33
0.0
  0
MTEXT
  5
6147
330
17
100
AcDbEntity
  8
DIM
100
AcDbMText
 10
4.025022059570387
 20
10.90966100710229
 30
0.0
 40
0.12
 41
0.0
 71
     5
 72
     1
  1
\A1;1.300 [33.02]
  7
ROMANS
 73
     1
 44
1.0
  0
LINE
  5
6148
330
17
100
AcDbEntity
  8
DIM
100
AcDbLine
 10
8.292954963695398
 20
11.52138941675431
 30
0.0
 11
9.689313880331161
 21
11.52138941675431
 31
0.0
  0
LINE
  5
6149
330
17
100
AcDbEntity
  8
DIM
100
AcDbLine
 10
8.205926190876608
 20
10.17638941675431
 30
0.0
 11
9.689313880331161
 21
10.17638941675431
 31
0.0
  0
LINE
  5
614A
330
17
100
AcDbEntity
  8
DIM
100
AcDbLine
 10
9.589313880331161
 20
11.40138941675431
 30
0.0
 11
9.589313880331161
 21
11.02151779675184
 31
0.0
  0
LINE
  5
614B
330
17
100
AcDbEntity
  8
DIM
100
AcDbLine
 10
9.589313880331161
 20
10.29638941675431
 30
0.0
 11
9.589313880331161
 21
10.6586606538947
 31
0.0
  0
SOLID
  5
614C
330
17
100
AcDbEntity
  8
DIM
100
AcDbTrace
 10
9.569313880331161
 20
11.40138941675431
 30
0.0
 11
9.609313880331161
 21
11.40138941675431
 31
0.0
 12
9.589313880331161
 22
11.52138941675431
 32
0.0
 13
9.589313880331161
 23
11.52138941675431
 33
0.0
  0
SOLID
  5
614D
330
17
100
AcDbEntity
  8
DIM
100
AcDbTrace
 10
9.569313880331161
 20
10.29638941675431
 30
0.0
 11
9.609313880331161
 21
10.29638941675431
 31
0.0
 12
9.589313880331161
 22
10.17638941675431
 32
0.0
 13
9.589313880331161
 23
10.17638941675431
 33
0.0
  0
MTEXT
  5
614E
330
17
100
AcDbEntity
  8
DIM
100
AcDbMText
 10
9.589313880331159
 20
10.84008922532327
 30
0.0
 40
0.12
 41
0.0
 71
     5
 72
     1
  1
\A1;1.345 [34.16]
  7
ROMANS
 73
     1
 44
1.0
  0
LINE
  5
614F
330
17
100
AcDbEntity
  8
DIM
100
AcDbLine
 10
6.236676190876609
 20
10.84138941675431
 30
0.0
 11
6.236676190876609
 21
9.300396800250334
 31
0.0
  0
LINE
  5
6150
330
17
100
AcDbEntity
  8
DIM
100
AcDbLine
 10
7.051676163168075
 20
10.91138941129509
 30
0.0
 11
7.051676163168075
 21
10.67429373522961
 31
0.0
  0
LINE
  5
6151
330
17
100
AcDbEntity
  8
DIM
100
AcDbLine
 10
6.931676163168074
 20
9.400396800250334
 30
0.0
 11
6.356676190876609
 21
9.400396800250334
 31
0.0
  0
LINE
  5
6152
330
17
100
AcDbEntity
  8
DIM
100
AcDbLine
 10
6.236676190876609
 20
9.400396800250334
 30
0.0
 11
6.116676190876609
 21
9.400396800250334
 31
0.0
  0
SOLID
  5
6153
330
17
100
AcDbEntity
  8
DIM
100
AcDbTrace
 10
6.931676163168074
 20
9.420396800250333
 30
0.0
 11
6.931676163168074
 21
9.380396800250334
 31
0.0
 12
7.051676163168075
 22
9.400396800250334
 32
0.0
 13
7.051676163168075
 23
9.400396800250334
 33
0.0
  0
SOLID
  5
6154
330
17
100
AcDbEntity
  8
DIM
100
AcDbTrace
 10
6.356676190876609
 20
9.420396800250333
 30
0.0
 11
6.356676190876609
 21
9.380396800250334
 31
0.0
 12
6.236676190876609
 22
9.400396800250334
 32
0.0
 13
6.236676190876609
 23
9.400396800250334
 33
0.0
  0
MTEXT
  5
6155
330
17
100
AcDbEntity
  8
DIM
100
AcDbMText
 10
5.395247619448038
 20
9.400396800250334
 30
0.0
 40
0.12
 41
0.0
 71
     5
 72
     1
  1
\A1;0.815 [20.70]
  7
ROMANS
 73
     1
 44
1.0
  0
LINE
  5
6156
330
17
100
AcDbEntity
  8
DIM
100
AcDbLine
 10
6.236676190876609
 20
10.84138941675431
 30
0.0
 11
6.236676190876609
 21
8.929307166607893
 31
0.0
  0
LINE
  5
6157
330
17
100
AcDbEntity
  8
DIM
100
AcDbLine
 10
7.67567616633346
 20
10.91138941129509
 30
0.0
 11
7.67567616633346
 21
10.66511496261561
 31
0.0
  0
LINE
  5
6158
330
17
100
AcDbEntity
  8
DIM
100
AcDbLine
 10
6.116676190876609
 20
9.029307166607893
 30
0.0
 11
5.996676190876609
 21
9.029307166607893
 31
0.0
  0
LINE
  5
6159
330
17
100
AcDbEntity
  8
DIM
100
AcDbLine
 10
7.795676166333459
 20
9.029307166607893
 30
0.0
 11
7.91567616633346
 21
9.029307166607893
 31
0.0
  0
SOLID
  5
615A
330
17
100
AcDbEntity
  8
DIM
100
AcDbTrace
 10
6.116676190876609
 20
9.049307166607892
 30
0.0
 11
6.116676190876609
 21
9.009307166607893
 31
0.0
 12
6.236676190876609
 22
9.029307166607893
 32
0.0
 13
6.236676190876609
 23
9.029307166607893
 33
0.0
  0
SOLID
  5
615B
330
17
100
AcDbEntity
  8
DIM
100
AcDbTrace
 10
7.795676166333459
 20
9.049307166607892
 30
0.0
 11
7.795676166333459
 21
9.009307166607893
 31
0.0
 12
7.67567616633346
 22
9.029307166607893
 32
0.0
 13
7.67567616633346
 23
9.029307166607893
 33
0.0
  0
MTEXT
  5
615C
330
17
100
AcDbEntity
  8
DIM
100
AcDbMText
 10
6.938688948053211
 20
9.029307166607893
 30
0.0
 40
0.12
 41
0.0
 71
     5
 72
     1
  1
\A1;1.439 [36.55]
  7
ROMANS
 73
     1
 44
1.0
  0
LINE
  5
615D
330
17
100
AcDbEntity
  8
DIM
100
AcDbLine
 10
6.227815911833818
 20
10.22138941675431
 30
0.0
 11
5.09958157953728
 21
10.22138941675431
 31
0.0
  0
LINE
  5
615E
330
17
100
AcDbEntity
  8
DIM
100
AcDbLine
 10
7.76615009274667
 20
10.7733894140247
 30
0.0
 11
7.565432603273507
 21
10.7733894140247
 31
0.0
  0
LINE
  5
615F
330
17
100
AcDbEntity
  8
DIM
100
AcDbLine
 10
5.199581579537281
 20
10.10138941675431
 30
0.0
 11
5.199581579537281
 21
9.981389416754314
 31
0.0
  0
LINE
  5
6160
330
17
100
AcDbEntity
  8
DIM
100
AcDbLine
 10
5.199581579537281
 20
10.8933894140247
 30
0.0
 11
5.199581579537281
 21
11.0133894140247
 31
0.0
  0
SOLID
  5
6161
330
17
100
AcDbEntity
  8
DIM
100
AcDbTrace
 10
5.179581579537281
 20
10.10138941675431
 30
0.0
 11
5.219581579537281
 21
10.10138941675431
 31
0.0
 12
5.199581579537281
 22
10.22138941675431
 32
0.0
 13
5.199581579537281
 23
10.22138941675431
 33
0.0
  0
SOLID
  5
6162
330
17
100
AcDbEntity
  8
DIM
100
AcDbTrace
 10
5.179581579537281
 20
10.8933894140247
 30
0.0
 11
5.219581579537281
 21
10.8933894140247
 31
0.0
 12
5.199581579537281
 22
10.7733894140247
 32
0.0
 13
5.199581579537281
 23
10.7733894140247
 33
0.0
  0
MTEXT
  5
6163
330
17
100
AcDbEntity
  8
DIM
100
AcDbMText
 10
5.19958157953728
 20
10.48436909183335
 30
0.0
 40
0.12
 41
0.0
 71
     5
 72
     1
  1
\A1;0.552 [14.02]
  7
ROMANS
 73
     1
 44
1.0
  0
LINE
  5
6164
330
17
100
AcDbEntity
  8
DIM
100
AcDbLine
 10
7.158310225773817
 20
10.7733894140247
 30
0.0
 11
6.947096368869666
 21
10.7733894140247
 31
0.0
  0
LINE
  5
6165
330
17
100
AcDbEntity
  8
DIM
100
AcDbLine
 10
6.827714612834611
 20
10.7733894140247
 30
0.0
 11
5.09958157953728
 21
10.7733894140247
 31
0.0
  0
LINE
  5
6166
330
17
100
AcDbEntity
  8
DIM
100
AcDbLine
 10
7.051676163168075
 20
10.5855658219613
 30
0.0
 11
7.051676163168075
 21
9.300396800250334
 31
0.0
  0
LINE
  5
6167
330
17
100
AcDbEntity
  8
DIM
100
AcDbLine
 10
7.67567616633346
 20
10.60086375924101
 30
0.0
 11
7.67567616633346
 21
8.929307166607893
 31
0.0
  0
LINE
  5
6168
330
17
100
AcDbEntity
  8
DIM
100
AcDbLine
 10
21.43231247116565
 20
10.12772281390628
 30
0.0
 11
21.43231247116565
 21
9.077518229405557
 31
0.0
  0
LINE
  5
6169
330
17
100
AcDbEntity
  8
DIM
100
AcDbLine
 10
22.49931247116566
 20
11.23284824082841
 30
0.0
 11
22.49931247116566
 21
10.4817206113387
 31
0.0
  0
LINE
  5
616A
330
17
100
AcDbEntity
  8
DIM
100
AcDbLine
 10
21.55231247116565
 20
9.177518229405556
 30
0.0
 11
22.37931247116565
 21
9.177518229405556
 31
0.0
  0
LINE
  5
616B
330
17
100
AcDbEntity
  8
DIM
100
AcDbLine
 10
22.49931247116566
 20
9.177518229405556
 30
0.0
 11
22.67222994494128
 21
9.177518229405556
 31
0.0
  0
SOLID
  5
616C
330
17
100
AcDbEntity
  8
DIM
100
AcDbTrace
 10
21.55231247116565
 20
9.197518229405556
 30
0.0
 11
21.55231247116565
 21
9.157518229405557
 31
0.0
 12
21.43231247116565
 22
9.177518229405556
 32
0.0
 13
21.43231247116565
 23
9.177518229405556
 33
0.0
  0
SOLID
  5
616D
330
17
100
AcDbEntity
  8
DIM
100
AcDbTrace
 10
22.37931247116565
 20
9.197518229405556
 30
0.0
 11
22.37931247116565
 21
9.157518229405557
 31
0.0
 12
22.49931247116566
 22
9.177518229405556
 32
0.0
 13
22.49931247116566
 23
9.177518229405556
 33
0.0
  0
MTEXT
  5
616E
330
17
100
AcDbEntity
  8
DIM
100
AcDbMText
 10
23.38508708779842
 20
9.177518229405556
 30
0.0
 40
0.12
 41
0.0
 71
     5
 72
     1
  1
\A1;1.067 [27.10]
  7
ROMANS
 73
     1
 44
1.0
  0
LINE
  5
616F
330
17
100
AcDbEntity
  8
DIM
100
AcDbLine
 10
23.52799780044223
 20
10.15884824082842
 30
0.0
 11
24.77749677261429
 21
10.15884824082842
 31
0.0
  0
LINE
  5
6170
330
17
100
AcDbEntity
  8
DIM
100
AcDbLine
 10
21.98931247116566
 20
10.86084824082842
 30
0.0
 11
23.03091710773445
 21
10.86084824082842
 31
0.0
  0
LINE
  5
6171
330
17
100
AcDbEntity
  8
DIM
100
AcDbLine
 10
24.67749677261429
 20
10.27884824082842
 30
0.0
 11
24.67749677261429
 21
10.31271300716955
 31
0.0
  0
LINE
  5
6172
330
17
100
AcDbEntity
  8
DIM
100
AcDbLine
 10
24.67749677261429
 20
10.74084824082842
 30
0.0
 11
24.67749677261429
 21
10.67557015002669
 31
0.0
  0
SOLID
  5
6173
330
17
100
AcDbEntity
  8
DIM
100
AcDbTrace
 10
24.65749677261429
 20
10.27884824082842
 30
0.0
 11
24.69749677261429
 21
10.27884824082842
 31
0.0
 12
24.67749677261429
 22
10.15884824082842
 32
0.0
 13
24.67749677261429
 23
10.15884824082842
 33
0.0
  0
SOLID
  5
6174
330
17
100
AcDbEntity
  8
DIM
100
AcDbTrace
 10
24.65749677261429
 20
10.74084824082842
 30
0.0
 11
24.69749677261429
 21
10.74084824082842
 31
0.0
 12
24.67749677261429
 22
10.86084824082842
 32
0.0
 13
24.67749677261429
 23
10.86084824082842
 33
0.0
  0
MTEXT
  5
6175
330
17
100
AcDbEntity
  8
DIM
100
AcDbMText
 10
24.67749677261429
 20
10.49414157859812
 30
0.0
 40
0.12
 41
0.0
 71
     5
 72
     1
  1
\A1;0.702 [17.83]
  7
ROMANS
 73
     1
 44
1.0
  0
LINE
  5
6176
330
17
100
AcDbEntity
  8
DIM
100
AcDbLine
 10
22.49931247116566
 20
10.31403742525935
 30
0.0
 11
22.49931247116566
 21
9.077518229405557
 31
0.0
  0
LINE
  5
6177
330
17
100
AcDbEntity
  8
DIM
100
AcDbLine
 10
23.21110885780331
 20
10.86084824082842
 30
0.0
 11
24.77749677261429
 21
10.86084824082842
 31
0.0
  0
LINE
  5
6178
330
17
100
AcDbEntity
  8
DIM
100
AcDbLine
 10
12.81424091448995
 20
10.74384824082842
 30
0.0
 11
12.81424091448995
 21
9.304917511622557
 31
0.0
  0
LINE
  5
6179
330
17
100
AcDbEntity
  8
DIM
100
AcDbLine
 10
18.27424091448995
 20
10.74384824082842
 30
0.0
 11
18.27424091448995
 21
9.304917511622557
 31
0.0
  0
LINE
  5
617A
330
17
100
AcDbEntity
  8
DIM
100
AcDbLine
 10
12.93424091448994
 20
9.404917511622556
 30
0.0
 11
14.82750108740401
 21
9.404917511622556
 31
0.0
  0
LINE
  5
617B
330
17
100
AcDbEntity
  8
DIM
100
AcDbLine
 10
18.15424091448995
 20
9.404917511622556
 30
0.0
 11
16.38464394454687
 21
9.404917511622556
 31
0.0
  0
SOLID
  5
617C
330
17
100
AcDbEntity
  8
DIM
100
AcDbTrace
 10
12.93424091448994
 20
9.424917511622556
 30
0.0
 11
12.93424091448994
 21
9.384917511622557
 31
0.0
 12
12.81424091448995
 22
9.404917511622556
 32
0.0
 13
12.81424091448995
 23
9.404917511622556
 33
0.0
  0
SOLID
  5
617D
330
17
100
AcDbEntity
  8
DIM
100
AcDbTrace
 10
18.15424091448995
 20
9.424917511622556
 30
0.0
 11
18.15424091448995
 21
9.384917511622557
 31
0.0
 12
18.27424091448995
 22
9.404917511622556
 32
0.0
 13
18.27424091448995
 23
9.404917511622556
 33
0.0
  0
MTEXT
  5
617E
330
17
100
AcDbEntity
  8
DIM
100
AcDbMText
 10
15.60607251597544
 20
9.404917511622556
 30
0.0
 40
0.12
 41
0.0
 71
     5
 72
     1
  1
\A1;5.460 [138.68]
  7
ROMANS
 73
     1
 44
1.0
  0
LINE
  5
617F
330
17
100
AcDbEntity
  8
DIM
100
AcDbLine
 10
12.43946719186221
 20
10.02484824082842
 30
0.0
 11
12.43946719186221
 21
8.76064291003175
 31
0.0
  0
LINE
  5
6180
330
17
100
AcDbEntity
  8
DIM
100
AcDbLine
 10
18.64901463711768
 20
10.02484824082842
 30
0.0
 11
18.64901463711768
 21
8.76064291003175
 31
0.0
  0
LINE
  5
6181
330
17
100
AcDbEntity
  8
DIM
100
AcDbLine
 10
12.55946719186221
 20
8.860642910031749
 30
0.0
 11
14.87119863856989
 21
8.860642910031749
 31
0.0
  0
LINE
  5
6182
330
17
100
AcDbEntity
  8
DIM
100
AcDbLine
 10
18.52901463711768
 20
8.860642910031749
 30
0.0
 11
16.42262720999846
 21
8.860642910031749
 31
0.0
  0
SOLID
  5
6183
330
17
100
AcDbEntity
  8
DIM
100
AcDbTrace
 10
12.55946719186221
 20
8.880642910031749
 30
0.0
 11
12.55946719186221
 21
8.84064291003175
 31
0.0
 12
12.43946719186221
 22
8.860642910031749
 32
0.0
 13
12.43946719186221
 23
8.860642910031749
 33
0.0
  0
SOLID
  5
6184
330
17
100
AcDbEntity
  8
DIM
100
AcDbTrace
 10
18.52901463711768
 20
8.880642910031749
 30
0.0
 11
18.52901463711768
 21
8.84064291003175
 31
0.0
 12
18.64901463711768
 22
8.860642910031749
 32
0.0
 13
18.64901463711768
 23
8.860642910031749
 33
0.0
  0
MTEXT
  5
6185
330
17
100
AcDbEntity
  8
DIM
100
AcDbMText
 10
15.64691292428418
 20
8.860642910031749
 30
0.0
 40
0.12
 41
0.0
 71
     5
 72
     1
  1
\A1;6.210 [157.72]
  7
ROMANS
 73
     1
 44
1.0
  0
LINE
  5
6186
330
17
100
AcDbEntity
  8
DIM
100
AcDbLine
 10
18.30424091448995
 20
15.24247247439707
 30
0.0
 11
21.6687783553564
 21
15.24247247439707
 31
0.0
  0
LINE
  5
6187
330
17
100
AcDbEntity
  8
DIM
100
AcDbLine
 10
18.30424091448995
 20
13.20247247439707
 30
0.0
 11
21.6687783553564
 21
13.20247247439707
 31
0.0
  0
LINE
  5
6188
330
17
100
AcDbEntity
  8
DIM
100
AcDbLine
 10
21.5687783553564
 20
15.12247247439707
 30
0.0
 11
21.5687783553564
 21
14.44399712638397
 31
0.0
  0
LINE
  5
6189
330
17
100
AcDbEntity
  8
DIM
100
AcDbLine
 10
21.5687783553564
 20
13.32247247439707
 30
0.0
 11
21.5687783553564
 21
14.08113998352683
 31
0.0
  0
SOLID
  5
618A
330
17
100
AcDbEntity
  8
DIM
100
AcDbTrace
 10
21.5487783553564
 20
15.12247247439707
 30
0.0
 11
21.5887783553564
 21
15.12247247439707
 31
0.0
 12
21.5687783553564
 22
15.24247247439707
 32
0.0
 13
21.5687783553564
 23
15.24247247439707
 33
0.0
  0
SOLID
  5
618B
330
17
100
AcDbEntity
  8
DIM
100
AcDbTrace
 10
21.5487783553564
 20
13.32247247439707
 30
0.0
 11
21.5887783553564
 21
13.32247247439707
 31
0.0
 12
21.5687783553564
 22
13.20247247439707
 32
0.0
 13
21.5687783553564
 23
13.20247247439707
 33
0.0
  0
MTEXT
  5
618C
330
17
100
AcDbEntity
  8
DIM
100
AcDbMText
 10
21.56877835535639
 20
14.2625685549554
 30
0.0
 40
0.12
 41
0.0
 71
     5
 72
     1
  1
\A1;2.040 [51.82]
  7
ROMANS
 73
     1
 44
1.0
  0
ARC
  5
6191
330
17
100
AcDbEntity
  8
PART
100
AcDbCircle
 10
12.58771719186221
 20
14.9437225036883
 30
0.0
 40
0.0682499999999973
100
AcDbArc
 50
0.0000000000014912
 51
180.0
  0
ARC
  5
6192
330
17
100
AcDbEntity
  8
PART
100
AcDbCircle
 10
12.58771719186221
 20
14.8012225036883
 30
0.0
 40
0.0682499999999973
100
AcDbArc
 50
180.0
 51
0.0000000000014912
  0
LINE
  5
6193
330
17
100
AcDbEntity
  8
DIM
100
AcDbLine
 10
12.49771719186221
 20
14.9437225036883
 30
0.0
 11
12.67771719186221
 21
14.9437225036883
 31
0.0
  0
LINE
  5
6194
330
17
100
AcDbEntity
  8
DIM
100
AcDbLine
 10
12.58771719186221
 20
14.8537225036883
 30
0.0
 11
12.58771719186221
 21
15.0337225036883
 31
0.0
  0
LINE
  5
6195
330
17
100
AcDbEntity
  8
DIM
100
AcDbLine
 10
12.49771719186221
 20
14.8012225036883
 30
0.0
 11
12.67771719186221
 21
14.8012225036883
 31
0.0
  0
LINE
  5
6196
330
17
100
AcDbEntity
  8
DIM
100
AcDbLine
 10
12.58771719186221
 20
14.71122250368829
 30
0.0
 11
12.58771719186221
 21
14.89122250368829
 31
0.0
  0
ARC
  5
6199
330
17
100
AcDbEntity
  8
PART
100
AcDbCircle
 10
18.50076463711768
 20
13.64784744510584
 30
0.0
 40
0.0682499999999973
100
AcDbArc
 50
0.0
 51
180.0000000000015
  0
ARC
  5
619A
330
17
100
AcDbEntity
  8
PART
100
AcDbCircle
 10
18.50076463711768
 20
13.50534744510584
 30
0.0
 40
0.0682499999999973
100
AcDbArc
 50
180.0000000000015
 51
0.0
  0
LINE
  5
619B
330
17
100
AcDbEntity
  8
DIM
100
AcDbLine
 10
18.41076463711768
 20
13.64784744510584
 30
0.0
 11
18.59076463711768
 21
13.64784744510584
 31
0.0
  0
LINE
  5
619C
330
17
100
AcDbEntity
  8
DIM
100
AcDbLine
 10
18.50076463711768
 20
13.55784744510585
 30
0.0
 11
18.50076463711768
 21
13.73784744510585
 31
0.0
  0
LINE
  5
619D
330
17
100
AcDbEntity
  8
DIM
100
AcDbLine
 10
18.41076463711768
 20
13.50534744510584
 30
0.0
 11
18.59076463711768
 21
13.50534744510584
 31
0.0
  0
LINE
  5
619E
330
17
100
AcDbEntity
  8
DIM
100
AcDbLine
 10
18.50076463711768
 20
13.41534744510584
 30
0.0
 11
18.50076463711768
 21
13.59534744510584
 31
0.0
  0
LINE
  5
619F
330
17
100
AcDbEntity
  8
DIM
100
AcDbLine
 10
12.58771719186221
 20
14.6112225036883
 30
0.0
 11
12.58771719186221
 21
12.37646183468649
 31
0.0
  0
LINE
  5
61A0
330
17
100
AcDbEntity
  8
DIM
100
AcDbLine
 10
18.50076463711768
 20
13.31534744510584
 30
0.0
 11
18.50076463711768
 21
12.37646183468649
 31
0.0
  0
LINE
  5
61A1
330
17
100
AcDbEntity
  8
DIM
100
AcDbLine
 10
12.70771719186221
 20
12.47646183468649
 30
0.0
 11
14.74815920292128
 21
12.47646183468649
 31
0.0
  0
LINE
  5
61A2
330
17
100
AcDbEntity
  8
DIM
100
AcDbLine
 10
18.38076463711768
 20
12.47646183468649
 30
0.0
 11
16.30530206006413
 21
12.47646183468649
 31
0.0
  0
SOLID
  5
61A3
330
17
100
AcDbEntity
  8
DIM
100
AcDbTrace
 10
12.70771719186221
 20
12.49646183468649
 30
0.0
 11
12.70771719186221
 21
12.45646183468649
 31
0.0
 12
12.58771719186221
 22
12.47646183468649
 32
0.0
 13
12.58771719186221
 23
12.47646183468649
 33
0.0
  0
SOLID
  5
61A4
330
17
100
AcDbEntity
  8
DIM
100
AcDbTrace
 10
18.38076463711768
 20
12.49646183468649
 30
0.0
 11
18.38076463711768
 21
12.45646183468649
 31
0.0
 12
18.50076463711768
 22
12.47646183468649
 32
0.0
 13
18.50076463711768
 23
12.47646183468649
 33
0.0
  0
MTEXT
  5
61A5
330
17
100
AcDbEntity
  8
DIM
100
AcDbMText
 10
15.52673063149271
 20
12.47646183468649
 30
0.0
 40
0.12
 41
0.0
 71
     5
 72
     1
  1
\A1;5.913 [150.19]
  7
ROMANS
 73
     1
 44
1.0
  0
LINE
  5
61A6
330
17
100
AcDbEntity
  8
DIM
100
AcDbLine
 10
12.75596719186221
 20
14.8683475036883
 30
0.0
 11
20.19605812257699
 21
14.8683475036883
 31
0.0
  0
LINE
  5
61A7
330
17
100
AcDbEntity
  8
DIM
100
AcDbLine
 10
18.66901463711768
 20
13.57659744510584
 30
0.0
 11
20.19605812257699
 21
13.57659744510584
 31
0.0
  0
LINE
  5
61A8
330
17
100
AcDbEntity
  8
DIM
100
AcDbLine
 10
20.09605812257699
 20
14.7483475036883
 30
0.0
 11
20.09605812257699
 21
14.47468250121273
 31
0.0
  0
LINE
  5
61A9
330
17
100
AcDbEntity
  8
DIM
100
AcDbLine
 10
20.09605812257699
 20
13.69659744510584
 30
0.0
 11
20.09605812257699
 21
14.11182535835559
 31
0.0
  0
SOLID
  5
61AA
330
17
100
AcDbEntity
  8
DIM
100
AcDbTrace
 10
20.07605812257699
 20
14.7483475036883
 30
0.0
 11
20.11605812257699
 21
14.7483475036883
 31
0.0
 12
20.09605812257699
 22
14.8683475036883
 32
0.0
 13
20.09605812257699
 23
14.8683475036883
 33
0.0
  0
SOLID
  5
61AB
330
17
100
AcDbEntity
  8
DIM
100
AcDbTrace
 10
20.07605812257699
 20
13.69659744510584
 30
0.0
 11
20.11605812257699
 21
13.69659744510584
 31
0.0
 12
20.09605812257699
 22
13.57659744510584
 32
0.0
 13
20.09605812257699
 23
13.57659744510584
 33
0.0
  0
MTEXT
  5
61AC
330
17
100
AcDbEntity
  8
DIM
100
AcDbMText
 10
20.09605812257699
 20
14.29325392978417
 30
0.0
 40
0.12
 41
0.0
 71
     5
 72
     1
  1
\A1;1.292 [32.81]
  7
ROMANS
 73
     1
 44
1.0
  0
LINE
  5
61AD
330
17
100
AcDbEntity
  8
DIM
100
AcDbLine
 10
12.39771719186221
 20
14.9437225036883
 30
0.0
 11
11.89819619936999
 21
14.9437225036883
 31
0.0
  0
LINE
  5
61AE
330
17
100
AcDbEntity
  8
DIM
100
AcDbLine
 10
12.39771719186221
 20
14.8012225036883
 30
0.0
 11
11.89819619936999
 21
14.8012225036883
 31
0.0
  0
LINE
  5
61AF
330
17
100
AcDbEntity
  8
DIM
100
AcDbLine
 10
11.99819619936999
 20
14.6812225036883
 30
0.0
 11
11.99819619936999
 21
14.5612225036883
 31
0.0
  0
LINE
  5
61B0
330
17
100
AcDbEntity
  8
DIM
100
AcDbLine
 10
11.99819619936999
 20
15.0637225036883
 30
0.0
 11
11.99819619936999
 21
16.15133449200876
 31
0.0
  0
LINE
  5
61B1
330
17
100
AcDbEntity
  8
DIM
100
AcDbLine
 10
11.99819619936999
 20
16.15133449200876
 30
0.0
 11
12.11819619936999
 21
16.15133449200876
 31
0.0
  0
SOLID
  5
61B2
330
17
100
AcDbEntity
  8
DIM
100
AcDbTrace
 10
11.97819619936999
 20
14.6812225036883
 30
0.0
 11
12.01819619936999
 21
14.68122250368829
 31
0.0
 12
11.99819619936999
 22
14.8012225036883
 32
0.0
 13
11.99819619936999
 23
14.8012225036883
 33
0.0
  0
SOLID
  5
61B3
330
17
100
AcDbEntity
  8
DIM
100
AcDbTrace
 10
11.97819619936999
 20
15.0637225036883
 30
0.0
 11
12.01819619936999
 21
15.0637225036883
 31
0.0
 12
11.99819619936999
 22
14.9437225036883
 32
0.0
 13
11.99819619936999
 23
14.9437225036883
 33
0.0
  0
MTEXT
  5
61B4
330
17
100
AcDbEntity
  8
DIM
100
AcDbMText
 10
12.7824819136557
 20
16.15133449200876
 30
0.0
 40
0.12
 41
0.0
 71
     5
 72
     1
  1
\A1;0.143 [3.62]
  7
ROMANS
 73
     1
 44
1.0
  0
LINE
  5
61B5
330
17
100
AcDbEntity
  8
DIM
100
AcDbLine
 10
12.51946719186222
 20
15.0437225036883
 30
0.0
 11
12.51946719186222
 21
15.80294198491839
 31
0.0
  0
LINE
  5
61B6
330
17
100
AcDbEntity
  8
DIM
100
AcDbLine
 10
12.65596719186221
 20
15.0437225036883
 30
0.0
 11
12.65596719186221
 21
15.80294198491839
 31
0.0
  0
LINE
  5
61B7
330
17
100
AcDbEntity
  8
DIM
100
AcDbLine
 10
12.39946719186222
 20
15.70294198491839
 30
0.0
 11
12.27946719186222
 21
15.70294198491839
 31
0.0
  0
LINE
  5
61B8
330
17
100
AcDbEntity
  8
DIM
100
AcDbLine
 10
12.77596719186221
 20
15.70294198491839
 30
0.0
 11
12.89596719186221
 21
15.70294198491839
 31
0.0
  0
SOLID
  5
61B9
330
17
100
AcDbEntity
  8
DIM
100
AcDbTrace
 10
12.39946719186222
 20
15.72294198491839
 30
0.0
 11
12.39946719186222
 21
15.68294198491839
 31
0.0
 12
12.51946719186222
 22
15.70294198491839
 32
0.0
 13
12.51946719186222
 23
15.70294198491839
 33
0.0
  0
SOLID
  5
61BA
330
17
100
AcDbEntity
  8
DIM
100
AcDbTrace
 10
12.77596719186221
 20
15.72294198491839
 30
0.0
 11
12.77596719186221
 21
15.68294198491839
 31
0.0
 12
12.65596719186221
 22
15.70294198491839
 32
0.0
 13
12.65596719186221
 23
15.70294198491839
 33
0.0
  0
MTEXT
  5
61BB
330
17
100
AcDbEntity
  8
DIM
100
AcDbMText
 10
13.56025290614793
 20
15.70294198491839
 30
0.0
 40
0.12
 41
0.0
 71
     5
 72
     1
  1
\A1;0.136 [3.47]
  7
ROMANS
 73
     1
 44
1.0
  0
LINE
  5
61BC
330
17
100
AcDbEntity
  8
DIM
100
AcDbLine
 10
12.87779453537769
 20
11.45884824082843
 30
0.0
 11
11.18627215753096
 21
11.45884824082843
 31
0.0
  0
LINE
  5
61BD
330
17
100
AcDbEntity
  8
DIM
100
AcDbLine
 10
12.33946719186221
 20
10.12484824082842
 30
0.0
 11
11.18627215753096
 21
10.12484824082843
 31
0.0
  0
LINE
  5
61BE
330
17
100
AcDbEntity
  8
DIM
100
AcDbLine
 10
11.28627215753096
 20
11.33884824082843
 30
0.0
 11
11.28627215753096
 21
11.04407139694433
 31
0.0
  0
LINE
  5
61BF
330
17
100
AcDbEntity
  8
DIM
100
AcDbLine
 10
11.28627215753096
 20
10.24484824082842
 30
0.0
 11
11.28627215753096
 21
10.68121425408719
 31
0.0
  0
SOLID
  5
61C0
330
17
100
AcDbEntity
  8
DIM
100
AcDbTrace
 10
11.26627215753096
 20
11.33884824082843
 30
0.0
 11
11.30627215753096
 21
11.33884824082843
 31
0.0
 12
11.28627215753096
 22
11.45884824082843
 32
0.0
 13
11.28627215753096
 23
11.45884824082843
 33
0.0
  0
SOLID
  5
61C1
330
17
100
AcDbEntity
  8
DIM
100
AcDbTrace
 10
11.26627215753096
 20
10.24484824082842
 30
0.0
 11
11.30627215753096
 21
10.24484824082842
 31
0.0
 12
11.28627215753096
 22
10.12484824082843
 32
0.0
 13
11.28627215753096
 23
10.12484824082843
 33
0.0
  0
MTEXT
  5
61C2
330
17
100
AcDbEntity
  8
DIM
100
AcDbMText
 10
11.28627215753095
 20
10.86264282551577
 30
0.0
 40
0.12
 41
0.0
 71
     5
 72
     1
  1
\A1;1.334 [33.88]
  7
ROMANS
 73
     1
 44
1.0
  0
ENDSEC
  0
SECTION
  2
OBJECTS
  0
DICTIONARY
  5
C
330
0
100
AcDbDictionary
281
     1
  3
ACAD_GROUP
350
D
  3
ACAD_LAYOUT
350
4021
  3
ACAD_MLINESTYLE
350
1A
  3
ACAD_PLOTSETTINGS
350
4022
  3
ACAD_PLOTSTYLENAME
350
401F
  3
ACDBVARIABLEDICTIONARY
350
2B
  0
DICTIONARY
  5
404E
330
17
100
AcDbDictionary
280
     1
281
     1
  3
ACAD_LAYOUTSELFREF
360
6226
  0
DICTIONARY
  5
404C
330
14
100
AcDbDictionary
280
     1
281
     1
  3
ACAD_LAYOUTSELFREF
360
6225
  0
DICTIONARY
  5
D
102
{ACAD_REACTORS
330
C
102
}
330
C
100
AcDbDictionary
281
     1
  0
DICTIONARY
  5
4021
102
{ACAD_REACTORS
330
C
102
}
330
C
100
AcDbDictionary
281
     1
  3
Layout1
350
4024
  3
Model
350
4023
  0
DICTIONARY
  5
1A
102
{ACAD_REACTORS
330
C
102
}
330
C
100
AcDbDictionary
281
     1
  3
STANDARD
350
1B
  0
DICTIONARY
  5
4022
102
{ACAD_REACTORS
330
C
102
}
330
C
100
AcDbDictionary
281
     1
  0
ACDBDICTIONARYWDFLT
  5
401F
102
{ACAD_REACTORS
330
C
102
}
330
C
100
AcDbDictionary
281
     1
  3
Normal
350
4020
100
AcDbDictionaryWithDefault
340
4020
  0
DICTIONARY
  5
2B
102
{ACAD_REACTORS
330
C
102
}
330
C
100
AcDbDictionary
281
     1
  3
DIMADEC
350
2C
  3
DIMASSOC
350
4052
  3
INDEXCTL
350
230D
  3
SORTENTS
350
230E
  0
XRECORD
  5
6226
102
{ACAD_REACTORS
330
404E
102
}
330
404E
100
AcDbXrecord
280
     1
340
17
  0
XRECORD
  5
6225
102
{ACAD_REACTORS
330
404C
102
}
330
404C
100
AcDbXrecord
280
     1
340
14
  0
LAYOUT
  5
4024
102
{ACAD_REACTORS
330
4021
102
}
330
4021
100
AcDbPlotSettings
  1

  2
\\PRODPRINT\E2POD
  4

  6

 40
0.0
 41
0.0
 42
0.0
 43
0.0
 44
0.0
 45
0.0
 46
0.0
 47
0.0
 48
0.0
 49
0.0
140
0.0
141
0.0
142
1.0
143
1.0
 70
   688
 72
     0
 73
     0
 74
     5
  7
monochrome.ctb
 75
    16
147
1.0
148
0.0
149
0.0
100
AcDbLayout
  1
Layout1
 70
     1
 71
     1
 10
0.0
 20
0.0
 11
12.0
 21
9.0
 12
0.0
 22
0.0
 32
0.0
 14
1.000000000000000E+20
 24
1.000000000000000E+20
 34
1.000000000000000E+20
 15
-1.000000000000000E+20
 25
-1.000000000000000E+20
 35
-1.000000000000000E+20
146
0.0
 13
0.0
 23
0.0
 33
0.0
 16
1.0
 26
0.0
 36
0.0
 17
0.0
 27
1.0
 37
0.0
 76
     0
330
14
  0
LAYOUT
  5
4023
102
{ACAD_REACTORS
330
4021
102
}
330
4021
100
AcDbPlotSettings
  1

  2
none_device
  4
Letter_(8.50_x_11.00_Inches)
  6

 40
6.349999904632568
 41
6.349999904632568
 42
6.350006103515625
 43
6.350006103515625
 44
215.8999938964843
 45
279.3999938964843
 46
0.0
 47
0.0
 48
0.0
 49
0.0
140
0.0
141
0.0
142
1.0
143
1.0
 70
 11952
 72
     0
 73
     1
 74
     0
  7

 75
     0
147
1.0
148
-105.4755473153558
149
45.53961519443643
100
AcDbLayout
  1
Model
 70
     1
 71
     0
 10
0.0
 20
0.0
 11
12.0
 21
9.0
 12
0.0
 22
0.0
 32
0.0
 14
0.0
 24
0.0
 34
0.0
 15
0.0
 25
0.0
 35
0.0
146
0.0
 13
0.0
 23
0.0
 33
0.0
 16
1.0
 26
0.0
 36
0.0
 17
0.0
 27
1.0
 37
0.0
 76
     0
330
17
  0
MLINESTYLE
  5
1B
102
{ACAD_REACTORS
330
1A
102
}
330
1A
100
AcDbMlineStyle
  2
STANDARD
 70
     0
  3

 62
   256
 51
90.0
 52
90.0
 71
     2
 49
0.5
 62
   256
  6
BYLAYER
 49
-0.5
 62
   256
  6
BYLAYER
  0
ACDBPLACEHOLDER
  5
4020
102
{ACAD_REACTORS
330
401F
102
}
330
401F
  0
DICTIONARYVAR
  5
2C
102
{ACAD_REACTORS
330
2B
102
}
330
2B
100
DictionaryVariables
280
     0
  1
-1
  0
DICTIONARYVAR
  5
4052
102
{ACAD_REACTORS
330
2B
102
}
330
2B
100
DictionaryVariables
280
     0
  1
0
  0
DICTIONARYVAR
  5
230D
102
{ACAD_REACTORS
330
2B
102
}
330
2B
100
DictionaryVariables
280
     0
  1
0
  0
DICTIONARYVAR
  5
230E
102
{ACAD_REACTORS
330
2B
102
}
330
2B
100
DictionaryVariables
280
     0
  1
96
  0
ENDSEC
  0
EOF
