  0
SECTION
  2
HEADER
  9
$ACADVER
  1
AC1014
  9
$ACADMAINTVER
 70
     9
  9
$DWGCODEPAGE
  3
ANSI_1252
  9
$INSBASE
 10
0.0
 20
0.0
 30
0.0
  9
$EXTMIN
 10
0.0
 20
0.0
 30
0.0
  9
$EXTMAX
 10
37.4
 20
24.19999999999999
 30
0.0
  9
$LIMMIN
 10
0.0
 20
0.0
  9
$LIMMAX
 10
12.0
 20
9.0
  9
$ORTHOMODE
 70
     0
  9
$REGENMODE
 70
     1
  9
$FILLMODE
 70
     1
  9
$QTEXTMODE
 70
     0
  9
$MIRRTEXT
 70
     1
  9
$DRAGMODE
 70
     2
  9
$LTSCALE
 40
0.2
  9
$OSMODE
 70
    37
  9
$ATTMODE
 70
     1
  9
$TEXTSIZE
 40
0.12
  9
$TRACEWID
 40
0.05
  9
$TEXTSTYLE
  7
ROMANS
  9
$CLAYER
  8
TXT
  9
$CELTYPE
  6
BYLAYER
  9
$CECOLOR
 62
   256
  9
$CELTSCALE
 40
1.0
  9
$DELOBJ
 70
     1
  9
$DISPSILH
 70
     0
  9
$DIMSCALE
 40
1.0
  9
$DIMASZ
 40
0.12
  9
$DIMEXO
 40
0.063
  9
$DIMDLI
 40
0.38
  9
$DIMRND
 40
0.0
  9
$DIMDLE
 40
0.0
  9
$DIMEXE
 40
0.1
  9
$DIMTP
 40
0.0
  9
$DIMTM
 40
0.0
  9
$DIMTXT
 40
0.12
  9
$DIMCEN
 40
0.09
  9
$DIMTSZ
 40
0.0
  9
$DIMTOL
 70
     0
  9
$DIMLIM
 70
     0
  9
$DIMTIH
 70
     1
  9
$DIMTOH
 70
     1
  9
$DIMSE1
 70
     0
  9
$DIMSE2
 70
     0
  9
$DIMTAD
 70
     0
  9
$DIMZIN
 70
     0
  9
$DIMBLK
  1

  9
$DIMASO
 70
     0
  9
$DIMSHO
 70
     0
  9
$DIMPOST
  1
""
  9
$DIMAPOST
  1
""
  9
$DIMALT
 70
     0
  9
$DIMALTD
 70
     2
  9
$DIMALTF
 40
25.4
  9
$DIMLFAC
 40
1.0
  9
$DIMTOFL
 70
     0
  9
$DIMTVP
 40
0.0
  9
$DIMTIX
 70
     0
  9
$DIMSOXD
 70
     0
  9
$DIMSAH
 70
     0
  9
$DIMBLK1
  1

  9
$DIMBLK2
  1

  9
$DIMSTYLE
  2
STANDARD
  9
$DIMCLRD
 70
   256
  9
$DIMCLRE
 70
   256
  9
$DIMCLRT
 70
   256
  9
$DIMTFAC
 40
1.0
  9
$DIMGAP
 40
0.09
  9
$DIMJUST
 70
     0
  9
$DIMSD1
 70
     0
  9
$DIMSD2
 70
     0
  9
$DIMTOLJ
 70
     1
  9
$DIMTZIN
 70
     0
  9
$DIMALTZ
 70
     0
  9
$DIMALTTZ
 70
     0
  9
$DIMFIT
 70
     3
  9
$DIMUPT
 70
     1
  9
$DIMUNIT
 70
     2
  9
$DIMDEC
 70
     4
  9
$DIMTDEC
 70
     4
  9
$DIMALTU
 70
     2
  9
$DIMALTTD
 70
     2
  9
$DIMTXSTY
  7
ROMANS
  9
$DIMAUNIT
 70
     0
  9
$LUNITS
 70
     2
  9
$LUPREC
 70
     3
  9
$SKETCHINC
 40
0.1
  9
$FILLETRAD
 40
0.0
  9
$AUNITS
 70
     0
  9
$AUPREC
 70
     1
  9
$MENU
  1
.
  9
$ELEVATION
 40
0.0
  9
$PELEVATION
 40
0.0
  9
$THICKNESS
 40
0.0
  9
$LIMCHECK
 70
     0
  9
$BLIPMODE
 70
     0
  9
$CHAMFERA
 40
0.0
  9
$CHAMFERB
 40
0.0
  9
$CHAMFERC
 40
1.0
  9
$CHAMFERD
 40
0.0
  9
$SKPOLY
 70
     0
  9
$TDCREATE
 40
2451617.464365740
  9
$TDUPDATE
 40
2452318.663993877
  9
$TDINDWG
 40
0.0360111574
  9
$TDUSRTIMER
 40
0.0360110417
  9
$USRTIMER
 70
     1
  9
$ANGBASE
 50
0.0
  9
$ANGDIR
 70
     0
  9
$PDMODE
 70
     2
  9
$PDSIZE
 40
0.085
  9
$PLINEWID
 40
0.0
  9
$COORDS
 70
     1
  9
$SPLFRAME
 70
     0
  9
$SPLINETYPE
 70
     6
  9
$SPLINESEGS
 70
    16
  9
$ATTDIA
 70
     0
  9
$ATTREQ
 70
     1
  9
$HANDLING
 70
-16383
  9
$HANDSEED
  5
26C4
  9
$SURFTAB1
 70
     6
  9
$SURFTAB2
 70
     6
  9
$SURFTYPE
 70
     6
  9
$SURFU
 70
     6
  9
$SURFV
 70
     6
  9
$UCSNAME
  2

  9
$UCSORG
 10
0.0
 20
0.0
 30
0.0
  9
$UCSXDIR
 10
1.0
 20
0.0
 30
0.0
  9
$UCSYDIR
 10
0.0
 20
1.0
 30
0.0
  9
$PUCSNAME
  2

  9
$PUCSORG
 10
0.0
 20
0.0
 30
0.0
  9
$PUCSXDIR
 10
1.0
 20
0.0
 30
0.0
  9
$PUCSYDIR
 10
0.0
 20
1.0
 30
0.0
  9
$USERI1
 70
     0
  9
$USERI2
 70
     0
  9
$USERI3
 70
     0
  9
$USERI4
 70
     0
  9
$USERI5
 70
     0
  9
$USERR1
 40
0.0
  9
$USERR2
 40
0.0
  9
$USERR3
 40
0.0
  9
$USERR4
 40
0.0
  9
$USERR5
 40
0.0
  9
$WORLDVIEW
 70
     1
  9
$SHADEDGE
 70
     3
  9
$SHADEDIF
 70
    70
  9
$TILEMODE
 70
     1
  9
$MAXACTVP
 70
    48
  9
$PINSBASE
 10
0.0
 20
0.0
 30
0.0
  9
$PLIMCHECK
 70
     0
  9
$PEXTMIN
 10
1.000000000000000E+20
 20
1.000000000000000E+20
 30
1.000000000000000E+20
  9
$PEXTMAX
 10
-1.000000000000000E+20
 20
-1.000000000000000E+20
 30
-1.000000000000000E+20
  9
$PLIMMIN
 10
0.0
 20
0.0
  9
$PLIMMAX
 10
12.0
 20
9.0
  9
$UNITMODE
 70
     0
  9
$VISRETAIN
 70
     1
  9
$PLINEGEN
 70
     0
  9
$PSLTSCALE
 70
     1
  9
$TREEDEPTH
 70
  3020
  9
$PICKSTYLE
 70
     1
  9
$CMLSTYLE
  2
STANDARD
  9
$CMLJUST
 70
     0
  9
$CMLSCALE
 40
1.0
  9
$PROXYGRAPHICS
 70
     1
  9
$MEASUREMENT
 70
     0
  0
ENDSEC
  0
SECTION
  2
CLASSES
  0
CLASS
  1
DICTIONARYVAR
  2
AcDbDictionaryVar
  3
AutoCAD 2000
 90
        0
280
     0
281
     0
  0
CLASS
  1
ACDBDICTIONARYWDFLT
  2
AcDbDictionaryWithDefault
  3
AutoCAD 2000
 90
        0
280
     0
281
     0
  0
CLASS
  1
ACDBPLACEHOLDER
  2
AcDbPlaceHolder
  3
AutoCAD 2000
 90
        0
280
     0
281
     0
  0
CLASS
  1
LAYOUT
  2
AcDbLayout
  3
AutoCAD 2000
 90
        0
280
     0
281
     0
  0
CLASS
  1
LONG_TRANSACTION
  2
AcDbLongTransaction
  3
AutoCAD 2000
 90
        0
280
     0
281
     0
  0
CLASS
  1
LWPOLYLINE
  2
AcDbPolyline
  3
AutoCAD 2000
 90
        0
280
     0
281
     1
  0
CLASS
  1
HATCH
  2
AcDbHatch
  3
AutoCAD 2000
 90
        0
280
     0
281
     1
  0
CLASS
  1
XRECORD
  2
AcDbXrecord
  3
AutoCAD 2000
 90
        0
280
     0
281
     0
  0
CLASS
  1
LONG_TRANSACTION
  2
AcDbLongTransaction
  3
AutoCAD 2000
 90
        0
280
     0
281
     0
  0
CLASS
  1
LWPOLYLINE
  2
AcDbPolyline
  3
AutoCAD 2000
 90
        0
280
     0
281
     1
  0
CLASS
  1
HATCH
  2
AcDbHatch
  3
AutoCAD 2000
 90
        0
280
     0
281
     1
  0
CLASS
  1
XRECORD
  2
AcDbXrecord
  3
AutoCAD 2000
 90
        0
280
     0
281
     0
  0
CLASS
  1
LONG_TRANSACTION
  2
AcDbLongTransaction
  3
AutoCAD 2000
 90
        0
280
     0
281
     0
  0
CLASS
  1
LWPOLYLINE
  2
AcDbPolyline
  3
AutoCAD 2000
 90
        0
280
     0
281
     1
  0
CLASS
  1
HATCH
  2
AcDbHatch
  3
AutoCAD 2000
 90
        0
280
     0
281
     1
  0
CLASS
  1
XRECORD
  2
AcDbXrecord
  3
AutoCAD 2000
 90
        0
280
     0
281
     0
  0
ENDSEC
  0
SECTION
  2
TABLES
  0
TABLE
  2
VPORT
  5
8
330
0
100
AcDbSymbolTable
 70
     2
  0
VPORT
  5
26A1
330
8
100
AcDbSymbolTableRecord
100
AcDbViewportTableRecord
  2
*ACTIVE
 70
     0
 10
0.0
 20
0.0
 11
1.0
 21
1.0
 12
19.54234042994302
 22
11.758933
 13
0.0
 23
0.0
 14
0.025
 24
0.025
 15
0.1
 25
0.1
 16
0.0
 26
0.0
 36
1.0
 17
0.0
 27
0.0
 37
0.0
 40
25.966128
 41
1.818713450292397
 42
50.0
 43
0.0
 44
0.0
 50
0.0
 51
0.0
 71
     0
 72
   100
 73
     1
 74
     0
 75
     0
 76
     0
 77
     0
 78
     0
  0
ENDTAB
  0
TABLE
  2
LTYPE
  5
5
330
0
100
AcDbSymbolTable
 70
     3
  0
LTYPE
  5
12
330
5
100
AcDbSymbolTableRecord
100
AcDbLinetypeTableRecord
  2
BYBLOCK
 70
     0
  3

 72
    65
 73
     0
 40
0.0
  0
LTYPE
  5
13
330
5
100
AcDbSymbolTableRecord
100
AcDbLinetypeTableRecord
  2
BYLAYER
 70
     0
  3

 72
    65
 73
     0
 40
0.0
  0
LTYPE
  5
14
330
5
100
AcDbSymbolTableRecord
100
AcDbLinetypeTableRecord
  2
CONTINUOUS
 70
     0
  3
Solid line
 72
    65
 73
     0
 40
0.0
  0
LTYPE
  5
35
330
5
100
AcDbSymbolTableRecord
100
AcDbLinetypeTableRecord
  2
CENTER
 70
     0
  3
____ _ ____ _ ____ _ ____ _ ____ _ ____ _ ____
 72
    65
 73
     4
 40
2.0
 49
1.25
 74
     0
 49
-0.25
 74
     0
 49
0.25
 74
     0
 49
-0.25
 74
     0
  0
LTYPE
  5
19B1
330
5
100
AcDbSymbolTableRecord
100
AcDbLinetypeTableRecord
  2
HIDDEN
 70
     0
  3
__ __ __ __ __ __ __ __ __ __ __ __ __ __ __ __
 72
    65
 73
     2
 40
0.375
 49
0.25
 74
     0
 49
-0.125
 74
     0
  0
ENDTAB
  0
TABLE
  2
LAYER
  5
2
330
0
100
AcDbSymbolTable
 70
    15
  0
LAYER
  5
E
330
2
100
AcDbSymbolTableRecord
100
AcDbLayerTableRecord
  2
0
 70
     0
 62
     7
  6
CONTINUOUS
  0
LAYER
  5
36
330
2
100
AcDbSymbolTableRecord
100
AcDbLayerTableRecord
  2
BORDER
 70
     0
 62
     7
  6
CONTINUOUS
  0
LAYER
  5
37
330
2
100
AcDbSymbolTableRecord
100
AcDbLayerTableRecord
  2
TXT
 70
     0
 62
     7
  6
CONTINUOUS
  0
LAYER
  5
38
330
2
100
AcDbSymbolTableRecord
100
AcDbLayerTableRecord
  2
TB-TXT
 70
     0
 62
     7
  6
CONTINUOUS
  0
LAYER
  5
39
330
2
100
AcDbSymbolTableRecord
100
AcDbLayerTableRecord
  2
LOGO
 70
     0
 62
     7
  6
CONTINUOUS
  0
LAYER
  5
C77
330
2
100
AcDbSymbolTableRecord
100
AcDbLayerTableRecord
  2
PART
 70
     0
 62
     7
  6
CONTINUOUS
  0
LAYER
  5
C78
330
2
100
AcDbSymbolTableRecord
100
AcDbLayerTableRecord
  2
DIM
 70
     0
 62
     7
  6
CONTINUOUS
  0
LAYER
  5
C79
330
2
100
AcDbSymbolTableRecord
100
AcDbLayerTableRecord
  2
SILK
 70
     0
 62
     7
  6
CONTINUOUS
  0
LAYER
  5
19B2
330
2
100
AcDbSymbolTableRecord
100
AcDbLayerTableRecord
  2
ARROWS
 70
     0
 62
     7
  6
CONTINUOUS
  0
LAYER
  5
19B3
330
2
100
AcDbSymbolTableRecord
100
AcDbLayerTableRecord
  2
LINE-ART
 70
     0
 62
     7
  6
CONTINUOUS
  0
LAYER
  5
19B4
330
2
100
AcDbSymbolTableRecord
100
AcDbLayerTableRecord
  2
LIGHT
 70
     0
 62
     7
  6
CONTINUOUS
  0
LAYER
  5
19B7
330
2
100
AcDbSymbolTableRecord
100
AcDbLayerTableRecord
  2
OVR
 70
     0
 62
     7
  6
CONTINUOUS
  0
LAYER
  5
19B8
330
2
100
AcDbSymbolTableRecord
100
AcDbLayerTableRecord
  2
OBJ
 70
     0
 62
     7
  6
CONTINUOUS
  0
LAYER
  5
19B9
330
2
100
AcDbSymbolTableRecord
100
AcDbLayerTableRecord
  2
TEXT
 70
     0
 62
     7
  6
CONTINUOUS
  0
LAYER
  5
19BA
330
2
100
AcDbSymbolTableRecord
100
AcDbLayerTableRecord
  2
FORMAT
 70
     0
 62
     7
  6
CONTINUOUS
  0
ENDTAB
  0
TABLE
  2
STYLE
  5
3
330
0
100
AcDbSymbolTable
 70
     6
  0
STYLE
  5
F
330
3
100
AcDbSymbolTableRecord
100
AcDbTextStyleTableRecord
  2
STANDARD
 70
     0
 40
0.0
 41
1.0
 50
0.0
 71
     0
 42
0.2
  3
txt
  4

  0
STYLE
  5
3A
330
3
100
AcDbSymbolTableRecord
100
AcDbTextStyleTableRecord
  2
ROMANS
 70
     0
 40
0.0
 41
1.0
 50
0.0
 71
     0
 42
0.12
  3
ROMANS.SHX
  4

  0
STYLE
  5
C75
330
3
100
AcDbSymbolTableRecord
100
AcDbTextStyleTableRecord
  2
ARIAL
 70
     0
 40
0.0
 41
1.0
 50
0.0
 71
     0
 42
0.12
  3
ARIAL.TTF
  4

1001
ACAD
1000
Arial
1071
       34
  0
STYLE
  5
19BB
330
3
100
AcDbSymbolTableRecord
100
AcDbTextStyleTableRecord
  2
X-HLVM1S
 70
     0
 40
0.082
 41
1.0
 50
0.0
 71
     0
 42
0.082
  3
X-HLVM1S
  4

  0
STYLE
  5
19BC
330
3
100
AcDbSymbolTableRecord
100
AcDbTextStyleTableRecord
  2
HEL1
 70
     0
 40
0.0
 41
1.0
 50
0.0
 71
     0
 42
0.1
  3
X-STYD1D
  4

  0
STYLE
  5
19BD
330
3
100
AcDbSymbolTableRecord
100
AcDbTextStyleTableRecord
  2
HELV
 70
     0
 40
0.0
 41
1.0
 50
0.0
 71
     0
 42
0.064
  3
X-HELV1A
  4

  0
ENDTAB
  0
TABLE
  2
VIEW
  5
6
330
0
100
AcDbSymbolTable
 70
     0
  0
ENDTAB
  0
TABLE
  2
UCS
  5
7
330
0
100
AcDbSymbolTable
 70
     0
  0
ENDTAB
  0
TABLE
  2
APPID
  5
9
330
0
100
AcDbSymbolTable
 70
     1
  0
APPID
  5
10
330
9
100
AcDbSymbolTableRecord
100
AcDbRegAppTableRecord
  2
ACAD
 70
     0
  0
ENDTAB
  0
TABLE
  2
DIMSTYLE
  5
A
330
0
100
AcDbSymbolTable
 70
     1
  0
DIMSTYLE
105
1D
330
A
100
AcDbSymbolTableRecord
100
AcDbDimStyleTableRecord
  2
STANDARD
 70
     0
  3

  4

  5

  6

  7

 40
1.0
 41
0.18
 42
0.0625
 43
0.38
 44
0.18
 45
0.0
 46
0.0
 47
0.0
 48
0.0
140
0.18
141
0.09
142
0.0
143
25.4
144
1.0
145
0.0
146
1.0
147
0.09
 71
     0
 72
     0
 73
     1
 74
     1
 75
     0
 76
     0
 77
     0
 78
     0
170
     0
171
     2
172
     0
173
     0
174
     0
175
     0
176
     0
177
     0
178
     0
270
     2
271
     4
272
     4
273
     2
274
     2
340
F
275
     0
280
     0
281
     0
282
     0
283
     1
284
     0
285
     0
286
     0
287
     3
288
     0
  0
ENDTAB
  0
TABLE
  2
BLOCK_RECORD
  5
1
330
0
100
AcDbSymbolTable
 70
     8
  0
BLOCK_RECORD
  5
18
102
{ACAD_XDICTIONARY
360
DF5
102
}
330
1
100
AcDbSymbolTableRecord
100
AcDbBlockTableRecord
  2
*MODEL_SPACE
  0
BLOCK_RECORD
  5
15
102
{ACAD_XDICTIONARY
360
DF3
102
}
330
1
100
AcDbSymbolTableRecord
100
AcDbBlockTableRecord
  2
*PAPER_SPACE
  0
BLOCK_RECORD
  5
21
330
1
100
AcDbSymbolTableRecord
100
AcDbBlockTableRecord
  2
BORDER
  0
BLOCK_RECORD
  5
28
330
1
100
AcDbSymbolTableRecord
100
AcDbBlockTableRecord
  2
TB-TXT-B
  0
BLOCK_RECORD
  5
C3F
330
1
100
AcDbSymbolTableRecord
100
AcDbBlockTableRecord
  2
REV-TXT1
  0
BLOCK_RECORD
  5
195F
330
1
100
AcDbSymbolTableRecord
100
AcDbBlockTableRecord
  2
TB-TXT-C
  0
BLOCK_RECORD
  5
196C
330
1
100
AcDbSymbolTableRecord
100
AcDbBlockTableRecord
  2
A19-LIGHTDWG
  0
BLOCK_RECORD
  5
198A
330
1
100
AcDbSymbolTableRecord
100
AcDbBlockTableRecord
  2
REV-BLOCK
  0
BLOCK_RECORD
  5
1996
330
1
100
AcDbSymbolTableRecord
100
AcDbBlockTableRecord
  2
TITLE-BLOCK
  0
BLOCK_RECORD
  5
19A2
330
1
100
AcDbSymbolTableRecord
100
AcDbBlockTableRecord
  2
APPR-BLOCK
  0
ENDTAB
  0
ENDSEC
  0
SECTION
  2
BLOCKS
  0
BLOCK
  5
19
330
18
100
AcDbEntity
  8
0
100
AcDbBlockBegin
  2
*MODEL_SPACE
 70
     0
 10
0.0
 20
0.0
 30
0.0
  3
*MODEL_SPACE
  1

  0
ENDBLK
  5
1A
330
18
100
AcDbEntity
  8
0
100
AcDbBlockEnd
  0
BLOCK
  5
16
330
15
100
AcDbEntity
 67
     1
  8
0
100
AcDbBlockBegin
  2
*PAPER_SPACE
 70
     0
 10
0.0
 20
0.0
 30
0.0
  3
*PAPER_SPACE
  1

  0
ENDBLK
  5
17
330
15
100
AcDbEntity
 67
     1
  8
0
100
AcDbBlockEnd
  0
BLOCK
  5
26
330
21
100
AcDbEntity
  8
0
100
AcDbBlockBegin
  2
BORDER
 70
     0
 10
0.0
 20
0.0
 30
0.0
  3
BORDER
  1

  0
LINE
  5
22
330
21
100
AcDbEntity
  8
0
100
AcDbLine
 10
0.0
 20
0.0
 30
0.0
 11
1.0
 21
0.0
 31
0.0
  0
LINE
  5
23
330
21
100
AcDbEntity
  8
0
100
AcDbLine
 10
1.0
 20
0.0
 30
0.0
 11
1.0
 21
1.0
 31
0.0
  0
LINE
  5
24
330
21
100
AcDbEntity
  8
0
100
AcDbLine
 10
1.0
 20
1.0
 30
0.0
 11
0.0
 21
1.0
 31
0.0
  0
LINE
  5
25
330
21
100
AcDbEntity
  8
0
100
AcDbLine
 10
0.0
 20
1.0
 30
0.0
 11
0.0
 21
0.0
 31
0.0
  0
ENDBLK
  5
27
330
21
100
AcDbEntity
  8
0
100
AcDbBlockEnd
  0
BLOCK
  5
33
330
28
100
AcDbEntity
  8
TB-TXT
100
AcDbBlockBegin
  2
TB-TXT-B
 70
     2
 10
0.0
 20
0.0
 30
0.0
  3
TB-TXT-B
  1

  0
ATTDEF
  5
29
330
28
100
AcDbEntity
  8
TB-TXT
100
AcDbText
 10
-4.627314
 20
1.609509
 30
0.0
 40
0.12
  1

  7
ROMANS
100
AcDbAttributeDefinition
  3
DRAWN BY
  2
DRAWN
 70
     0
  0
ATTDEF
  5
2A
330
28
100
AcDbEntity
  8
TB-TXT
100
AcDbText
 10
-4.056337
 20
1.611156
 30
0.0
 40
0.12
  1

 41
1.269645
  7
ROMANS
 72
     5
 11
-3.533969
 21
1.611156
 31
0.0
100
AcDbAttributeDefinition
  3
DATE
  2
DATE
 70
     0
  0
ATTDEF
  5
2B
330
28
100
AcDbEntity
  8
TB-TXT
100
AcDbText
 10
-3.289905
 20
1.087347999999999
 30
0.0
 40
0.12
  1

  7
ROMANS
100
AcDbAttributeDefinition
  3
TITLE (LINE 1)
  2
LINE1
 70
     0
  0
ATTDEF
  5
2C
330
28
100
AcDbEntity
  8
TB-TXT
100
AcDbText
 10
-3.289905
 20
0.8930620000000001
 30
0.0
 40
0.12
  1

  7
ROMANS
100
AcDbAttributeDefinition
  3
TITLE (LINE 2)
  2
LINE2
 70
     0
  0
ATTDEF
  5
2D
330
28
100
AcDbEntity
  8
TB-TXT
100
AcDbText
 10
-3.289905
 20
0.6987760000000001
 30
0.0
 40
0.12
  1

  7
ROMANS
100
AcDbAttributeDefinition
  3
TITLE (LINE 3)
  2
LINE3
 70
     0
  0
ATTDEF
  5
2E
330
28
100
AcDbEntity
  8
TB-TXT
100
AcDbText
 10
-2.978650999999999
 20
0.067184
 30
0.0
 40
0.12
  1
FULL
  7
ROMANS
100
AcDbAttributeDefinition
  3
SCALE
  2
SCALE
 70
     0
  0
ATTDEF
  5
2F
330
28
100
AcDbEntity
  8
TB-TXT
100
AcDbText
 10
-0.8749450000000001
 20
0.067184
 30
0.0
 40
0.12
  1
1 OF 1
  7
ROMANS
100
AcDbAttributeDefinition
  3
SHEET N0.
  2
SHT#
 70
     0
  0
ATTDEF
  5
30
330
28
100
AcDbEntity
  8
TB-TXT
100
AcDbText
 10
-2.345171
 20
0.067184
 30
0.0
 40
0.12
  1

  7
ROMANS
100
AcDbAttributeDefinition
  3
FILE NO.
  2
FILE#
 70
     0
  0
ATTDEF
  5
31
330
28
100
AcDbEntity
  8
TB-TXT
100
AcDbText
 10
-2.345171
 20
0.374661
 30
0.0
 40
0.12
  1

  7
ROMANS
100
AcDbAttributeDefinition
  3
DWG NO.
  2
DWG#
 70
     0
  0
ATTDEF
  5
32
330
28
100
AcDbEntity
  8
TB-TXT
100
AcDbText
 10
-0.187184
 20
0.393878
 30
0.0
 40
0.12
  1

  7
ROMANS
 72
     4
 11
-0.187184
 21
0.393878
 31
0.0
100
AcDbAttributeDefinition
  3
REV
  2
REV
 70
     0
  0
ENDBLK
  5
34
330
28
100
AcDbEntity
  8
TB-TXT
100
AcDbBlockEnd
  0
BLOCK
  5
C55
330
C3F
100
AcDbEntity
  8
0
100
AcDbBlockBegin
  2
REV-TXT1
 70
     2
 10
0.0
 20
0.0
 30
0.0
  3
REV-TXT1
  1

  0
LINE
  5
C58
330
C3F
100
AcDbEntity
  8
BORDER
100
AcDbLine
 10
-5.097669
 20
-0.25
 30
0.0
 11
0.0
 21
-0.25
 31
0.0
  0
LWPOLYLINE
  5
C59
330
C3F
100
AcDbEntity
  8
BORDER
100
AcDbPolyline
 90
        2
 70
     0
 43
0.02
 10
-1.019568999999999
 20
0.0
 10
-1.019568999999999
 20
-0.25
  0
LWPOLYLINE
  5
C5D
330
C3F
100
AcDbEntity
  8
BORDER
100
AcDbPolyline
 90
        2
 70
     0
 43
0.02
 10
-1.894568999999999
 20
0.0
 10
-1.894568999999999
 20
-0.25
  0
LWPOLYLINE
  5
C61
330
C3F
100
AcDbEntity
  8
BORDER
100
AcDbPolyline
 90
        2
 70
     0
 43
0.02
 10
-4.660169
 20
0.0
 10
-4.660169
 20
-0.25
  0
LWPOLYLINE
  5
C65
330
C3F
100
AcDbEntity
  8
BORDER
100
AcDbPolyline
 90
        2
 70
     0
 43
0.02
 10
-5.097669
 20
0.0
 10
-5.097669
 20
-0.25
  0
ATTDEF
  5
C69
330
C3F
100
AcDbEntity
  8
TB-TXT
100
AcDbText
 10
-4.884286
 20
-0.125
 30
0.0
 40
0.1
  1

  7
ROMANS
 72
     4
 11
-4.884286
 21
-0.125
 31
0.0
100
AcDbAttributeDefinition
  3
REV
  2
REV
 70
     0
  0
ATTDEF
  5
C6A
330
C3F
100
AcDbEntity
  8
TB-TXT
100
AcDbText
 10
-4.570564
 20
-0.175
 30
0.0
 40
0.1
  1

  7
ROMANS
 11
-4.570564
 21
-0.125
 31
0.0
100
AcDbAttributeDefinition
  3
DESC
  2
DESC
 70
     0
 74
     2
  0
ATTDEF
  5
C6B
330
C3F
100
AcDbEntity
  8
TB-TXT
100
AcDbText
 10
-1.457068999999999
 20
-0.125
 30
0.0
 40
0.1
  1

  7
ROMANS
 72
     4
 11
-1.457068999999999
 21
-0.125
 31
0.0
100
AcDbAttributeDefinition
  3
DATE
  2
DATE
 70
     0
  0
ATTDEF
  5
C6C
330
C3F
100
AcDbEntity
  8
TB-TXT
100
AcDbText
 10
-0.509784
 20
-0.125
 30
0.0
 40
0.1
  1

  7
ROMANS
 72
     4
 11
-0.509784
 21
-0.125
 31
0.0
100
AcDbAttributeDefinition
  3
APPR
  2
APPR
 70
     0
  0
ENDBLK
  5
C56
330
C3F
100
AcDbEntity
  8
0
100
AcDbBlockEnd
  0
BLOCK
  5
196A
330
195F
100
AcDbEntity
  8
TB-TXT
100
AcDbBlockBegin
  2
TB-TXT-C
 70
     2
 10
0.0
 20
0.0
 30
0.0
  3
TB-TXT-C
  1

  0
ATTDEF
  5
1960
330
195F
100
AcDbEntity
  8
TB-TXT
100
AcDbText
 10
-5.446639
 20
1.576203
 30
0.0
 40
0.12
  1

  7
ROMANS
100
AcDbAttributeDefinition
  3
DRAWN BY
  2
DRAWN
 70
     0
  0
ATTDEF
  5
1961
330
195F
100
AcDbEntity
  8
TB-TXT
100
AcDbText
 10
-4.819646999999999
 20
1.576203
 30
0.0
 40
0.12
  1

 41
1.34433
  7
ROMANS
 72
     5
 11
-4.297279
 21
1.576203
 31
0.0
100
AcDbAttributeDefinition
  3
DATE
  2
DATE
 70
     0
  0
ATTDEF
  5
1962
330
195F
100
AcDbEntity
  8
TB-TXT
100
AcDbText
 10
-3.963231999999999
 20
1.068469
 30
0.0
 40
0.12
  1

  7
ROMANS
100
AcDbAttributeDefinition
  3
TITLE (LINE 1)
  2
LINE1
 70
     0
  0
ATTDEF
  5
1963
330
195F
100
AcDbEntity
  8
TB-TXT
100
AcDbText
 10
-3.963231999999999
 20
0.8741839999999999
 30
0.0
 40
0.12
  1

  7
ROMANS
100
AcDbAttributeDefinition
  3
TITLE (LINE 2)
  2
LINE2
 70
     0
  0
ATTDEF
  5
1964
330
195F
100
AcDbEntity
  8
TB-TXT
100
AcDbText
 10
-3.963231999999999
 20
0.6798980000000001
 30
0.0
 40
0.12
  1

  7
ROMANS
100
AcDbAttributeDefinition
  3
TITLE (LINE 3)
  2
LINE3
 70
     0
  0
ATTDEF
  5
1965
330
195F
100
AcDbEntity
  8
TB-TXT
100
AcDbText
 10
-3.496912
 20
0.067949
 30
0.0
 40
0.12
  1
FULL
  7
ROMANS
100
AcDbAttributeDefinition
  3
SCALE
  2
SCALE
 70
     0
  0
ATTDEF
  5
1966
330
195F
100
AcDbEntity
  8
TB-TXT
100
AcDbText
 10
-1.047984
 20
0.069267
 30
0.0
 40
0.12
  1
1 OF 1
  7
ROMANS
100
AcDbAttributeDefinition
  3
SHEET N0.
  2
SHT#
 70
     0
  0
ATTDEF
  5
1967
330
195F
100
AcDbEntity
  8
TB-TXT
100
AcDbText
 10
-3.771173999999999
 20
0.372009
 30
0.0
 40
0.12
  1

  7
ROMANS
100
AcDbAttributeDefinition
  3
FILE NO.
  2
FILE#
 70
     0
  0
ATTDEF
  5
1968
330
195F
100
AcDbEntity
  8
TB-TXT
100
AcDbText
 10
-1.962688999999999
 20
0.372009
 30
0.0
 40
0.12
  1

  7
ROMANS
100
AcDbAttributeDefinition
  3
DWG NO.
  2
DWG#
 70
     0
  0
ATTDEF
  5
1969
330
195F
100
AcDbEntity
  8
TB-TXT
100
AcDbText
 10
-0.192316
 20
0.372114
 30
0.0
 40
0.12
  1

  7
ROMANS
 72
     4
 11
-0.192316
 21
0.372114
 31
0.0
100
AcDbAttributeDefinition
  3
REV
  2
REV
 70
     0
  0
ENDBLK
  5
196B
330
195F
100
AcDbEntity
  8
TB-TXT
100
AcDbBlockEnd
  0
BLOCK
  5
1988
330
196C
100
AcDbEntity
  8
0
100
AcDbBlockBegin
  2
A19-LIGHTDWG
 70
     0
 10
0.0
 20
0.0
 30
0.0
  3
A19-LIGHTDWG
  1

  0
LWPOLYLINE
  5
196D
330
196C
100
AcDbEntity
  8
LIGHT
100
AcDbPolyline
 90
       19
 70
     0
 43
0.0
 10
-0.289255
 20
0.5402540000000001
 10
-0.28459
 20
0.530923
 10
-0.276192
 20
0.5215920000000001
 10
-0.262196
 20
0.509462
 10
-0.2454
 20
0.499198
 10
-0.228605
 20
0.492666
 10
-0.212742
 20
0.4889340000000001
 10
-0.219274
 20
0.476804
 10
-0.239802
 20
0.479603
 10
-0.262196
 20
0.477737
 10
-0.276192
 20
0.469339
 10
-0.273393
 20
0.476804
 10
-0.274326
 20
0.484269
 10
-0.278991
 20
0.495466
 10
-0.285523
 20
0.504796
 10
-0.292054
 20
0.5159930000000001
 10
-0.2939199999999999
 20
0.528123
 10
-0.289255
 20
0.5402540000000001
 10
-0.289255
 20
0.5402540000000001
1001
ACAD
1000
RTLwPs
1070
   128
  0
LWPOLYLINE
  5
196E
330
196C
100
AcDbEntity
  8
LIGHT
100
AcDbPolyline
 90
      163
 70
     0
 43
0.0
 10
0.041056
 20
0.506663
 10
-0.035457
 20
0.5010640000000001
 10
0.080245
 20
0.489867
 10
0.07278
 20
0.484269
 10
0.058784
 20
0.479603
 10
0.040122
 20
0.474005
 10
0.015862
 20
0.467473
 10
-0.010264
 20
0.462808
 10
-0.043855
 20
0.460009
 10
-0.083044
 20
0.456276
 10
-0.125033
 20
0.453477
 10
-0.168888
 20
0.453477
 10
-0.100773
 20
0.437615
 10
-0.058784
 20
0.4292170000000001
 10
-0.022394
 20
0.4292170000000001
 10
0.022394
 20
0.4292170000000001
 10
0.08771
 20
0.434815
 10
0.141828
 20
0.4422800000000001
 10
0.187549
 20
0.453477
 10
0.236069
 20
0.4684060000000001
 10
0.25753
 20
0.476804
 10
0.278058
 20
0.483336
 10
0.288322
 20
0.4861350000000001
 10
0.2939199999999999
 20
0.482403
 10
0.2939199999999999
 20
0.474005
 10
0.290188
 20
0.464674
 10
0.278058
 20
0.4544100000000001
 10
0.25753
 20
0.4413470000000001
 10
0.229538
 20
0.4292170000000001
 10
0.195947
 20
0.4152210000000001
 10
0.151159
 20
0.4021580000000001
 10
0.09984
 20
0.390961
 10
0.04852
 20
0.383496
 10
-0.005598
 20
0.375098
 10
-0.100773
 20
0.365767
 10
-0.041989
 20
0.351771
 10
0.004665
 20
0.346173
 10
0.064383
 20
0.348039
 10
0.125033
 20
0.355504
 10
0.169821
 20
0.365767
 10
0.206211
 20
0.375098
 10
0.236069
 20
0.383496
 10
0.266861
 20
0.39376
 10
0.291121
 20
0.403091
 10
0.302318
 20
0.4058900000000001
 10
0.30885
 20
0.4058900000000001
 10
0.307917
 20
0.398425
 10
0.303251
 20
0.390028
 10
0.2939199999999999
 20
0.378831
 10
0.272459
 20
0.363901
 10
0.248199
 20
0.350838
 10
0.22114
 20
0.338708
 10
0.185683
 20
0.324712
 10
0.144627
 20
0.312582
 10
0.083044
 20
0.299519
 10
0.041056
 20
0.291121
 10
0.000933
 20
0.286456
 10
-0.058784
 20
0.282723
 10
0.001866
 20
0.274326
 10
0.049453
 20
0.2705929999999999
 10
0.088643
 20
0.26966
 10
0.13343
 20
0.2705929999999999
 10
0.175419
 20
0.276192
 10
0.209943
 20
0.28459
 10
0.237002
 20
0.2939199999999999
 10
0.280857
 20
0.30885
 10
0.286456
 20
0.30885
 10
0.291121
 20
0.30605
 10
0.290188
 20
0.29672
 10
0.28459
 20
0.286456
 10
0.274326
 20
0.276192
 10
0.259396
 20
0.264995
 10
0.23327
 20
0.251932
 10
0.206211
 20
0.239802
 10
0.181018
 20
0.231404
 10
0.151159
 20
0.224872
 10
0.1241
 20
0.220207
 10
0.088643
 20
0.216475
 10
0.049453
 20
0.214608
 10
0.010264
 20
0.213675
 10
-0.050386
 20
0.213675
 10
-0.017729
 20
0.202478
 10
0.01213
 20
0.195014
 10
0.046654
 20
0.190348
 10
0.07558
 20
0.189415
 10
0.105438
 20
0.187549
 10
0.13623
 20
0.189415
 10
0.161423
 20
0.190348
 10
0.18475
 20
0.195014
 10
0.217408
 20
0.202478
 10
0.241668
 20
0.208077
 10
0.250999
 20
0.207144
 10
0.251932
 20
0.200612
 10
0.249132
 20
0.193148
 10
0.242601
 20
0.185683
 10
0.232337
 20
0.177285
 10
0.220207
 20
0.171687
 10
0.206211
 20
0.165155
 10
0.18475
 20
0.159557
 10
0.139962
 20
0.153025
 10
0.09704
 20
0.147427
 10
0.01213
 20
0.140895
 10
0.122234
 20
0.135297
 10
0.144627
 20
0.135297
 10
0.154891
 20
0.130631
 10
0.16049
 20
0.125966
 10
0.158624
 20
0.117568
 10
0.164222
 20
0.113836
 10
0.178218
 20
0.11197
 10
0.199679
 20
0.120367
 10
0.218341
 20
0.129698
 10
0.23327
 20
0.139029
 10
0.2454
 20
0.147427
 10
0.25753
 20
0.16049
 10
0.29672
 20
0.212742
 10
0.326578
 20
0.25753
 10
0.337775
 20
0.2799239999999999
 10
0.340574
 20
0.289255
 10
0.341507
 20
0.29672
 10
0.341507
 20
0.304184
 10
0.335909
 20
0.313515
 10
0.332177
 20
0.319113
 10
0.33031
 20
0.327511
 10
0.332177
 20
0.336842
 10
0.335909
 20
0.3433739999999999
 10
0.340574
 20
0.350838
 10
0.34524
 20
0.35737
 10
0.350838
 20
0.365767
 10
0.354571
 20
0.373232
 10
0.353637
 20
0.383496
 10
0.349905
 20
0.390961
 10
0.34524
 20
0.398425
 10
0.340574
 20
0.4049570000000001
 10
0.334976
 20
0.4124220000000001
 10
0.33311
 20
0.420819
 10
0.334976
 20
0.427351
 10
0.341507
 20
0.437615
 10
0.348039
 20
0.445079
 10
0.350838
 20
0.453477
 10
0.350838
 20
0.464674
 10
0.347106
 20
0.4749380000000001
 10
0.340574
 20
0.483336
 10
0.337775
 20
0.4889340000000001
 10
0.334976
 20
0.498265
 10
0.335909
 20
0.5075960000000001
 10
0.341507
 20
0.5159930000000001
 10
0.34524
 20
0.5215920000000001
 10
0.350838
 20
0.528123
 10
0.353637
 20
0.5365210000000001
 10
0.354571
 20
0.545852
 10
0.352704
 20
0.55145
 10
0.347106
 20
0.5607810000000001
 10
0.341507
 20
0.5682460000000001
 10
0.337775
 20
0.5785100000000001
 10
0.337775
 20
0.6027700000000001
 10
0.28459
 20
0.567313
 10
0.251932
 20
0.5533170000000001
 10
0.214608
 20
0.541187
 10
0.170754
 20
0.528123
 10
0.131564
 20
0.519726
 10
0.092375
 20
0.513194
 10
0.041056
 20
0.506663
 10
0.041056
 20
0.506663
1001
ACAD
1000
RTLwPs
1070
   128
  0
LWPOLYLINE
  5
196F
330
196C
100
AcDbEntity
  8
LIGHT
100
AcDbPolyline
 90
      107
 70
     0
 43
0.0
 10
-0.278991
 20
0.6083680000000001
 10
-0.282723
 20
0.594372
 10
-0.28179
 20
0.587841
 10
-0.2799239999999999
 20
0.581309
 10
-0.278991
 20
0.5663800000000001
 10
-0.28179
 20
0.556116
 10
-0.285523
 20
0.5467850000000001
 10
-0.289255
 20
0.5402540000000001
 10
-0.2939199999999999
 20
0.528123
 10
-0.2939199999999999
 20
0.5187930000000001
 10
-0.289255
 20
0.510395
 10
-0.285523
 20
0.5019970000000001
 10
-0.277125
 20
0.492666
 10
-0.273393
 20
0.483336
 10
-0.273393
 20
0.476804
 10
-0.276192
 20
0.469339
 10
-0.282723
 20
0.462808
 10
-0.288322
 20
0.4544100000000001
 10
-0.292054
 20
0.447879
 10
-0.2939199999999999
 20
0.440414
 10
-0.289255
 20
0.4320160000000001
 10
-0.28459
 20
0.4236180000000001
 10
-0.278991
 20
0.417087
 10
-0.276192
 20
0.410555
 10
-0.273393
 20
0.403091
 10
-0.276192
 20
0.39376
 10
-0.282723
 20
0.385362
 10
-0.289255
 20
0.378831
 10
-0.29672
 20
0.368567
 10
-0.297653
 20
0.360169
 10
-0.294853
 20
0.350838
 10
-0.288322
 20
0.3433739999999999
 10
-0.28179
 20
0.335909
 10
-0.274326
 20
0.326578
 10
-0.2705929999999999
 20
0.313515
 10
-0.274326
 20
0.301385
 10
-0.28179
 20
0.292054
 10
-0.28459
 20
0.28459
 10
-0.28459
 20
0.276192
 10
-0.282723
 20
0.2715260000000001
 10
-0.277125
 20
0.264062
 10
-0.267794
 20
0.252865
 10
-0.251932
 20
0.232337
 10
-0.22114
 20
0.200612
 10
-0.195014
 20
0.174486
 10
-0.179151
 20
0.16049
 10
-0.162356
 20
0.150226
 10
-0.142761
 20
0.138096
 10
-0.115702
 20
0.123167
 10
-0.074646
 20
0.10917
 10
-0.043855
 20
0.102639
 10
-0.011197
 20
0.098907
 10
0.030792
 20
0.09704
 10
0.07558
 20
0.098907
 10
0.114769
 20
0.09984
 10
0.14836
 20
0.105438
 10
0.178218
 20
0.11197
 10
0.199679
 20
0.120367
 10
0.218341
 20
0.129698
 10
0.23327
 20
0.139029
 10
0.2454
 20
0.147427
 10
0.25753
 20
0.16049
 10
0.29672
 20
0.212742
 10
0.326578
 20
0.25753
 10
0.337775
 20
0.2799239999999999
 10
0.340574
 20
0.289255
 10
0.341507
 20
0.29672
 10
0.341507
 20
0.304184
 10
0.335909
 20
0.313515
 10
0.332177
 20
0.319113
 10
0.33031
 20
0.327511
 10
0.332177
 20
0.336842
 10
0.335909
 20
0.3433739999999999
 10
0.340574
 20
0.350838
 10
0.34524
 20
0.35737
 10
0.350838
 20
0.365767
 10
0.354571
 20
0.373232
 10
0.353637
 20
0.383496
 10
0.349905
 20
0.390961
 10
0.34524
 20
0.398425
 10
0.340574
 20
0.4049570000000001
 10
0.334976
 20
0.4124220000000001
 10
0.33311
 20
0.420819
 10
0.334976
 20
0.427351
 10
0.341507
 20
0.437615
 10
0.348039
 20
0.445079
 10
0.350838
 20
0.453477
 10
0.350838
 20
0.464674
 10
0.347106
 20
0.4749380000000001
 10
0.340574
 20
0.483336
 10
0.337775
 20
0.4889340000000001
 10
0.334976
 20
0.498265
 10
0.335909
 20
0.5075960000000001
 10
0.341507
 20
0.5159930000000001
 10
0.34524
 20
0.5215920000000001
 10
0.350838
 20
0.528123
 10
0.353637
 20
0.5365210000000001
 10
0.354571
 20
0.545852
 10
0.352704
 20
0.55145
 10
0.347106
 20
0.5607810000000001
 10
0.341507
 20
0.5682460000000001
 10
0.337775
 20
0.5785100000000001
 10
0.337775
 20
0.587841
 10
0.340574
 20
0.595305
 10
0.338708
 20
0.6083680000000001
 10
-0.278991
 20
0.6083680000000001
 10
-0.278991
 20
0.6083680000000001
1001
ACAD
1000
RTLwPs
1070
   128
  0
LWPOLYLINE
  5
1970
330
196C
100
AcDbEntity
  8
LIGHT
100
AcDbPolyline
 90
       30
 70
     0
 43
0.0
 10
-0.28179
 20
0.2715260000000001
 10
-0.282723
 20
0.28179
 10
-0.282723
 20
0.288322
 10
-0.277125
 20
0.29672
 10
-0.266861
 20
0.28459
 10
-0.249132
 20
0.273393
 10
-0.231404
 20
0.264995
 10
-0.207144
 20
0.25753
 10
-0.171687
 20
0.250066
 10
-0.164222
 20
0.231404
 10
-0.182884
 20
0.237002
 10
-0.201545
 20
0.239802
 10
-0.210876
 20
0.237935
 10
-0.213675
 20
0.228605
 10
-0.208077
 20
0.216475
 10
-0.200612
 20
0.205278
 10
-0.185683
 20
0.187549
 10
-0.164222
 20
0.168888
 10
-0.134364
 20
0.147427
 10
-0.134364
 20
0.132497
 10
-0.147427
 20
0.140895
 10
-0.164222
 20
0.150226
 10
-0.188482
 20
0.168888
 10
-0.208077
 20
0.189415
 10
-0.225805
 20
0.205278
 10
-0.242601
 20
0.224872
 10
-0.25753
 20
0.240735
 10
-0.272459
 20
0.255664
 10
-0.28179
 20
0.2715260000000001
 10
-0.28179
 20
0.2715260000000001
1001
ACAD
1000
RTLwPs
1070
   128
  0
LWPOLYLINE
  5
1971
330
196C
100
AcDbEntity
  8
LIGHT
100
AcDbPolyline
 90
       11
 70
     0
 43
0.0
 10
0.288322
 20
0.261262
 10
0.280857
 20
0.26966
 10
0.248199
 20
0.247266
 10
0.217408
 20
0.234203
 10
0.181951
 20
0.224872
 10
0.188482
 20
0.214608
 10
0.211809
 20
0.216475
 10
0.239802
 20
0.223006
 10
0.268727
 20
0.240735
 10
0.288322
 20
0.261262
 10
0.288322
 20
0.261262
1001
ACAD
1000
RTLwPs
1070
   128
  0
LWPOLYLINE
  5
1972
330
196C
100
AcDbEntity
  8
LIGHT
100
AcDbPolyline
 90
       13
 70
     0
 43
0.0
 10
-0.078379
 20
0.13623
 10
-0.034524
 20
0.009331
 10
-0.025193
 20
0.003732
 10
-0.010264
 20
0.000933
 10
0.0
 20
0.0
 10
0.01213
 20
-0.001866
 10
0.02426
 20
-0.002799
 10
0.039189
 20
-0.004665
 10
0.049453
 20
-0.004665
 10
0.064383
 20
-0.002799
 10
0.080245
 20
0.13623
 10
-0.078379
 20
0.13623
 10
-0.078379
 20
0.13623
1001
ACAD
1000
RTLwPs
1070
   128
  0
LWPOLYLINE
  5
1973
330
196C
100
AcDbEntity
  8
LIGHT
100
AcDbPolyline
 90
       25
 70
     0
 43
0.0
 10
-0.134364
 20
0.13623
 10
-0.062516
 20
0.02426
 10
-0.055985
 20
0.017729
 10
-0.047587
 20
0.013063
 10
-0.037323
 20
0.009331
 10
-0.025193
 20
0.003732
 10
-0.010264
 20
0.000933
 10
0.0
 20
0.0
 10
0.01213
 20
-0.001866
 10
0.02426
 20
-0.002799
 10
0.039189
 20
-0.004665
 10
0.049453
 20
-0.004665
 10
0.064383
 20
-0.002799
 10
0.076513
 20
-0.001866
 10
0.090509
 20
0.0
 10
0.102639
 20
0.000933
 10
0.114769
 20
0.004665
 10
0.126899
 20
0.007465
 10
0.137163
 20
0.013063
 10
0.145561
 20
0.018662
 10
0.149293
 20
0.022394
 10
0.154891
 20
0.027992
 10
0.22114
 20
0.13623
 10
-0.134364
 20
0.13623
 10
-0.134364
 20
0.13623
1001
ACAD
1000
RTLwPs
1070
   128
  0
LWPOLYLINE
  5
1974
330
196C
100
AcDbEntity
  8
LIGHT
100
AcDbPolyline
 90
       11
 70
     0
 43
0.0
 10
0.292987
 20
0.351771
 10
0.287389
 20
0.362968
 10
0.251932
 20
0.338708
 10
0.223939
 20
0.326578
 10
0.188482
 20
0.315381
 10
0.195947
 20
0.306983
 10
0.218341
 20
0.306983
 10
0.241668
 20
0.313515
 10
0.268727
 20
0.33031
 10
0.292987
 20
0.351771
 10
0.292987
 20
0.351771
1001
ACAD
1000
RTLwPs
1070
   128
  0
LWPOLYLINE
  5
1975
330
196C
100
AcDbEntity
  8
LIGHT
100
AcDbPolyline
 90
       11
 70
     0
 43
0.0
 10
0.286456
 20
0.432949
 10
0.275259
 20
0.4422800000000001
 10
0.238869
 20
0.4236180000000001
 10
0.202478
 20
0.410555
 10
0.167021
 20
0.400291
 10
0.173553
 20
0.392827
 10
0.197813
 20
0.392827
 10
0.230471
 20
0.399358
 10
0.260329
 20
0.414288
 10
0.286456
 20
0.432949
 10
0.286456
 20
0.432949
1001
ACAD
1000
RTLwPs
1070
   128
  0
LWPOLYLINE
  5
1976
330
196C
100
AcDbEntity
  8
LIGHT
100
AcDbPolyline
 90
       22
 70
     0
 43
0.0
 10
-0.294853
 20
0.368567
 10
-0.289255
 20
0.377898
 10
-0.28179
 20
0.365767
 10
-0.273393
 20
0.360169
 10
-0.264062
 20
0.353637
 10
-0.247266
 20
0.348039
 10
-0.227672
 20
0.34244
 10
-0.206211
 20
0.335909
 10
-0.177285
 20
0.326578
 10
-0.171687
 20
0.303251
 10
-0.201545
 20
0.315381
 10
-0.223006
 20
0.323779
 10
-0.240735
 20
0.326578
 10
-0.254731
 20
0.326578
 10
-0.262196
 20
0.32098
 10
-0.2705929999999999
 20
0.312582
 10
-0.272459
 20
0.321913
 10
-0.28179
 20
0.335909
 10
-0.289255
 20
0.34524
 10
-0.29672
 20
0.355504
 10
-0.294853
 20
0.368567
 10
-0.294853
 20
0.368567
1001
ACAD
1000
RTLwPs
1070
   128
  0
LWPOLYLINE
  5
1977
330
196C
100
AcDbEntity
  8
LIGHT
100
AcDbPolyline
 90
       20
 70
     0
 43
0.0
 10
-0.292054
 20
0.445079
 10
-0.289255
 20
0.452544
 10
-0.285523
 20
0.445079
 10
-0.277125
 20
0.4413470000000001
 10
-0.262196
 20
0.434815
 10
-0.246333
 20
0.43015
 10
-0.222073
 20
0.4254850000000001
 10
-0.194081
 20
0.420819
 10
-0.185683
 20
0.395626
 10
-0.216475
 20
0.403091
 10
-0.240735
 20
0.4058900000000001
 10
-0.260329
 20
0.4021580000000001
 10
-0.274326
 20
0.392827
 10
-0.274326
 20
0.400291
 10
-0.274326
 20
0.407756
 10
-0.277125
 20
0.4152210000000001
 10
-0.285523
 20
0.4264180000000001
 10
-0.292054
 20
0.4357490000000001
 10
-0.292054
 20
0.445079
 10
-0.292054
 20
0.445079
1001
ACAD
1000
RTLwPs
1070
   128
  0
LWPOLYLINE
  5
1978
330
196C
100
AcDbEntity
  8
LIGHT
100
AcDbPolyline
 90
      162
 70
     0
 43
0.007465
 10
0.320047
 20
0.595305
 10
0.332177
 20
0.603703
 10
0.341507
 20
0.612101
 10
0.347106
 20
0.617699
 10
0.350838
 20
0.6242310000000001
 10
0.354571
 20
0.6279630000000001
 10
0.356437
 20
0.632628
 10
0.359236
 20
0.636361
 10
0.360169
 20
0.6419590000000001
 10
0.362035
 20
0.6484910000000001
 10
0.362968
 20
0.6568890000000001
 10
0.3695
 20
0.689546
 10
0.4114880000000001
 20
0.9573399999999999
 10
0.418953
 20
0.9955969999999998
 10
0.4254850000000001
 20
1.023588999999999
 10
0.4357490000000001
 20
1.061845
 10
0.450678
 20
1.104767
 10
0.465607
 20
1.14209
 10
0.479603
 20
1.173815
 10
0.491733
 20
1.200873999999999
 10
0.5038630000000001
 20
1.227001
 10
0.528123
 20
1.271787999999999
 10
0.552384
 20
1.313776999999999
 10
0.575711
 20
1.352965999999999
 10
0.594372
 20
1.382824999999999
 10
0.6279630000000001
 20
1.43881
 10
0.65129
 20
1.477999
 10
0.669952
 20
1.510656999999999
 10
0.6858140000000001
 20
1.547979999999999
 10
0.703543
 20
1.592767999999999
 10
0.715673
 20
1.631958
 10
0.72687
 20
1.673013
 10
0.7343340000000001
 20
1.70847
 10
0.742732
 20
1.747659
 10
0.7483300000000001
 20
1.797113
 10
0.75113
 20
1.854031
 10
0.75113
 20
1.907216
 10
0.7464640000000001
 20
1.949204999999999
 10
0.7399329999999999
 20
1.988393999999999
 10
0.733401
 20
2.023850999999999
 10
0.722204
 20
2.069571999999999
 10
0.709141
 20
2.116225999999999
 10
0.6951450000000001
 20
2.159148
 10
0.678349
 20
2.198336999999999
 10
0.657822
 20
2.233794
 10
0.630762
 20
2.278582
 10
0.5999710000000001
 20
2.32337
 10
0.570112
 20
2.357893999999999
 10
0.543053
 20
2.387753
 10
0.511328
 20
2.416678
 10
0.477737
 20
2.444669999999999
 10
0.445079
 20
2.470797
 10
0.4058900000000001
 20
2.496922999999999
 10
0.360169
 20
2.524915
 10
0.317247
 20
2.546375999999999
 10
0.266861
 20
2.566904
 10
0.22114
 20
2.581833
 10
0.183817
 20
2.591164
 10
0.142761
 20
2.600495
 10
0.105438
 20
2.606092999999999
 10
0.061583
 20
2.609825999999999
 10
0.021461
 20
2.609825999999999
 10
-0.022394
 20
2.609825999999999
 10
-0.058784
 20
2.606092999999999
 10
-0.100773
 20
2.596763
 10
-0.132497
 20
2.590231
 10
-0.171687
 20
2.579034
 10
-0.208077
 20
2.567836999999999
 10
-0.240735
 20
2.554774
 10
-0.272459
 20
2.540777999999999
 10
-0.304184
 20
2.523982
 10
-0.33311
 20
2.507187
 10
-0.364834
 20
2.485725999999999
 10
-0.399358
 20
2.461466
 10
-0.43015
 20
2.438139
 10
-0.458142
 20
2.412945999999999
 10
-0.4880010000000001
 20
2.384952999999999
 10
-0.51786
 20
2.354162
 10
-0.543986
 20
2.324303
 10
-0.565447
 20
2.296311
 10
-0.59064
 20
2.258054
 10
-0.6149
 20
2.216066
 10
-0.6372939999999999
 20
2.168479
 10
-0.6531560000000001
 20
2.122758
 10
-0.666219
 20
2.075171
 10
-0.678349
 20
2.027584
 10
-0.6858140000000001
 20
1.984661999999999
 10
-0.690479
 20
1.940806999999999
 10
-0.690479
 20
1.898818
 10
-0.690479
 20
1.861495
 10
-0.690479
 20
1.816707
 10
-0.6886130000000001
 20
1.777517999999999
 10
-0.681149
 20
1.728065
 10
-0.6736840000000001
 20
1.685143
 10
-0.662487
 20
1.643154
 10
-0.6466250000000001
 20
1.594634
 10
-0.6288960000000001
 20
1.550779999999999
 10
-0.6102350000000002
 20
1.512523
 10
-0.587841
 20
1.469602
 10
-0.5635810000000001
 20
1.428545999999999
 10
-0.5421199999999999
 20
1.389356999999999
 10
-0.519726
 20
1.350167
 10
-0.496399
 20
1.307245999999999
 10
-0.460009
 20
1.245662
 10
-0.4264180000000001
 20
1.181279999999999
 10
-0.406823
 20
1.148622
 10
-0.396559
 20
1.121562999999999
 10
-0.384429
 20
1.087971999999999
 10
-0.373232
 20
1.049714999999999
 10
-0.363901
 20
1.016124
 10
-0.355504
 20
0.9788009999999999
 10
-0.348972
 20
0.9265489999999999
 10
-0.3396409999999999
 20
0.8705639999999998
 10
-0.33311
 20
0.8257760000000001
 10
-0.325645
 20
0.768858
 10
-0.32098
 20
0.728736
 10
-0.315381
 20
0.693279
 10
-0.306983
 20
0.657822
 10
-0.304184
 20
0.6484910000000001
 10
-0.303251
 20
0.6400930000000001
 10
-0.301385
 20
0.636361
 10
-0.300452
 20
0.632628
 10
-0.29672
 20
0.6279630000000001
 10
-0.292054
 20
0.621432
 10
-0.285523
 20
0.6149
 10
-0.278991
 20
0.6083680000000001
 10
-0.267794
 20
0.5999710000000001
 10
-0.254731
 20
0.5934390000000001
 10
-0.237002
 20
0.583175
 10
-0.22114
 20
0.576644
 10
-0.204345
 20
0.571045
 10
-0.188482
 20
0.567313
 10
-0.174486
 20
0.5635810000000001
 10
-0.153025
 20
0.557982
 10
-0.135297
 20
0.5533170000000001
 10
-0.117568
 20
0.55145
 10
-0.098907
 20
0.548651
 10
-0.078379
 20
0.545852
 10
-0.059717
 20
0.543986
 10
-0.043855
 20
0.543053
 10
-0.023327
 20
0.541187
 10
-0.005598
 20
0.5402540000000001
 10
0.01213
 20
0.5402540000000001
 10
0.027992
 20
0.5402540000000001
 10
0.045721
 20
0.5402540000000001
 10
0.067182
 20
0.5402540000000001
 10
0.08491
 20
0.541187
 10
0.100773
 20
0.541187
 10
0.119434
 20
0.543986
 10
0.141828
 20
0.545852
 10
0.157691
 20
0.548651
 10
0.178218
 20
0.55145
 10
0.195947
 20
0.555183
 10
0.212742
 20
0.557982
 10
0.229538
 20
0.5617140000000001
 10
0.244467
 20
0.5663800000000001
 10
0.262196
 20
0.571045
 10
0.276192
 20
0.576644
 10
0.291121
 20
0.5822420000000001
 10
0.30605
 20
0.588774
 10
0.320047
 20
0.595305
 10
0.320047
 20
0.595305
1001
ACAD
1000
RTLwPs
1070
   128
  0
LWPOLYLINE
  5
1979
330
196C
100
AcDbEntity
  8
LIGHT
100
AcDbPolyline
 90
       16
 70
     0
 43
0.0
 10
0.374165
 20
2.401749
 10
0.438548
 20
2.369091
 10
0.4973320000000001
 20
2.332700999999999
 10
0.541187
 20
2.296311
 10
0.571045
 20
2.257120999999999
 10
0.5915729999999999
 20
2.216998999999999
 10
0.6065020000000001
 20
2.182475
 10
0.615833
 20
2.147018
 10
0.530923
 20
2.093831999999999
 10
0.522525
 20
2.144218999999999
 10
0.509462
 20
2.197404
 10
0.4889340000000001
 20
2.252456
 10
0.462808
 20
2.299109999999999
 10
0.4264180000000001
 20
2.345763999999999
 10
0.374165
 20
2.401749
 10
0.374165
 20
2.401749
1001
ACAD
1000
RTLwPs
1070
   128
  0
LWPOLYLINE
  5
197A
330
196C
100
AcDbEntity
  8
LIGHT
100
AcDbPolyline
 90
       15
 70
     0
 43
0.007465
 10
0.08491
 20
1.397754
 10
0.230471
 20
1.846565999999999
 10
0.205278
 20
1.855897
 10
0.175419
 20
1.868027
 10
0.137163
 20
1.878290999999999
 10
0.103572
 20
1.886688
 10
0.073713
 20
1.892286999999999
 10
0.041056
 20
1.895086
 10
0.006532
 20
1.89322
 10
-0.038256
 20
1.888555
 10
-0.076513
 20
1.878290999999999
 10
-0.113836
 20
1.868027
 10
-0.146494
 20
1.854031
 10
-0.170754
 20
1.840967999999999
 10
-0.029859
 20
1.397754
1001
ACAD
1000
RTLwPs
1070
   128
  0
LWPOLYLINE
  5
197B
330
196C
100
AcDbEntity
  8
LIGHT
100
AcDbPolyline
 90
        2
 70
     0
 43
0.007465
 10
-0.041989
 20
0.788453
 10
-0.043855
 20
1.343636
1001
ACAD
1000
RTLwPs
1070
   128
  0
LWPOLYLINE
  5
197C
330
196C
100
AcDbEntity
  8
LIGHT
100
AcDbPolyline
 90
        2
 70
     0
 43
0.007465
 10
0.092375
 20
0.788453
 10
0.094241
 20
1.343636
1001
ACAD
1000
RTLwPs
1070
   128
  0
LWPOLYLINE
  5
197D
330
196C
100
AcDbEntity
  8
LIGHT
100
AcDbPolyline
 90
       22
 70
     0
 43
0.0
 10
-0.095174
 20
1.394021999999999
 10
-0.090509
 20
1.271787999999999
 10
-0.078379
 20
1.255926
 10
-0.083044
 20
0.756728
 10
-0.066249
 20
0.701676
 10
-0.025193
 20
0.701676
 10
0.009331
 20
0.728736
 10
0.04852
 20
0.728736
 10
0.080245
 20
0.701676
 10
0.1241
 20
0.701676
 10
0.139029
 20
0.756728
 10
0.131564
 20
1.255926
 10
0.142761
 20
1.271787999999999
 10
0.151159
 20
1.394021999999999
 10
0.09704
 20
1.43881
 10
0.069981
 20
1.43881
 10
0.055052
 20
1.450939999999999
 10
-0.007465
 20
1.450939999999999
 10
-0.020528
 20
1.43881
 10
-0.043855
 20
1.43881
 10
-0.095174
 20
1.394021999999999
 10
-0.095174
 20
1.394021999999999
1001
ACAD
1000
RTLwPs
1070
   128
  0
LWPOLYLINE
  5
197E
330
196C
100
AcDbEntity
  8
LIGHT
100
AcDbPolyline
 90
       30
 70
     0
 43
0.0
 10
0.391894
 20
1.072108999999999
 10
0.376031
 20
1.058112999999999
 10
0.310716
 20
0.758594
 10
0.298586
 20
0.728736
 10
0.278991
 20
0.703543
 10
0.250066
 20
0.681149
 10
0.22114
 20
0.66342
 10
0.189415
 20
0.6466250000000001
 10
0.155824
 20
0.632628
 10
0.118501
 20
0.618632
 10
0.086776
 20
0.612101
 10
0.04852
 20
0.605569
 10
0.001866
 20
0.6083680000000001
 10
0.009331
 20
0.59064
 10
0.041056
 20
0.587841
 10
0.063449
 20
0.587841
 10
0.097973
 20
0.59064
 10
0.125966
 20
0.5925060000000001
 10
0.164222
 20
0.599038
 10
0.194081
 20
0.604636
 10
0.227672
 20
0.6149
 10
0.247266
 20
0.620498
 10
0.276192
 20
0.632628
 10
0.306983
 20
0.6522230000000001
 10
0.316314
 20
0.66342
 10
0.324712
 20
0.678349
 10
0.332177
 20
0.708208
 10
0.338708
 20
0.7380670000000001
 10
0.391894
 20
1.072108999999999
 10
0.391894
 20
1.072108999999999
1001
ACAD
1000
RTLwPs
1070
   128
  0
LWPOLYLINE
  5
197F
330
196C
100
AcDbEntity
  8
LIGHT
100
AcDbPolyline
 90
        2
 70
     0
 43
0.007465
 10
0.070914
 20
0.774457
 10
0.073713
 20
1.328705999999999
1001
ACAD
1000
RTLwPs
1070
   128
  0
LWPOLYLINE
  5
1980
330
196C
100
AcDbEntity
  8
LIGHT
100
AcDbPolyline
 90
        2
 70
     0
 43
0.007465
 10
-0.020528
 20
1.328705999999999
 10
-0.020528
 20
0.7716569999999999
1001
ACAD
1000
RTLwPs
1070
   128
  0
LWPOLYLINE
  5
1981
330
196C
100
AcDbEntity
  8
LIGHT
100
AcDbPolyline
 90
      100
 70
     0
 43
0.0
 10
0.220207
 20
1.887622
 10
0.219837
 20
1.893954
 10
0.218728
 20
1.900259999999999
 10
0.216885
 20
1.906515999999999
 10
0.214315
 20
1.912696
 10
0.211029
 20
1.918774999999999
 10
0.20704
 20
1.924727999999999
 10
0.202363
 20
1.930531999999999
 10
0.197018
 20
1.936163
 10
0.191027
 20
1.941599
 10
0.184412
 20
1.946816999999999
 10
0.177202
 20
1.951797
 10
0.169425
 20
1.956518999999999
 10
0.161112
 20
1.960962999999999
 10
0.152296
 20
1.965111999999999
 10
0.143014
 20
1.968947999999999
 10
0.133303
 20
1.972458
 10
0.123202
 20
1.975624999999999
 10
0.11275
 20
1.978438999999999
 10
0.101992
 20
1.980886
 10
0.090969
 20
1.982958999999999
 10
0.079727
 20
1.984647
 10
0.06831
 20
1.985943999999999
 10
0.056764
 20
1.986845999999999
 10
0.045136
 20
1.987347999999999
 10
0.033474
 20
1.987449
 10
0.021823
 20
1.987147
 10
0.01023
 20
1.986444999999999
 10
-0.001257
 20
1.985345
 10
-0.012592
 20
1.983850999999999
 10
-0.02373
 20
1.98197
 10
-0.034627
 20
1.979708999999999
 10
-0.045237
 20
1.977076999999999
 10
-0.055518
 20
1.974084999999999
 10
-0.06543
 20
1.970744999999999
 10
-0.074931
 20
1.96707
 10
-0.083984
 20
1.963074999999999
 10
-0.092553
 20
1.958776999999999
 10
-0.100602
 20
1.954190999999999
 10
-0.1081
 20
1.949338
 10
-0.115015
 20
1.944237
 10
-0.121322
 20
1.938907
 10
-0.126993
 20
1.933370999999999
 10
-0.132006
 20
1.92765
 10
-0.136341
 20
1.921768999999999
 10
-0.139981
 20
1.91575
 10
-0.14291
 20
1.909616999999999
 10
-0.145118
 20
1.903395999999999
 10
-0.146594
 20
1.897111999999999
 10
-0.147334
 20
1.890788999999999
 10
-0.147334
 20
1.884454
 10
-0.146594
 20
1.878131
 10
-0.145118
 20
1.871846999999999
 10
-0.14291
 20
1.865625999999999
 10
-0.139981
 20
1.859493
 10
-0.136341
 20
1.853474
 10
-0.132006
 20
1.847592999999999
 10
-0.126993
 20
1.841872
 10
-0.121322
 20
1.836336
 10
-0.115015
 20
1.831006
 10
-0.1081
 20
1.825904999999999
 10
-0.100602
 20
1.821052
 10
-0.092553
 20
1.816465999999999
 10
-0.083984
 20
1.812167999999999
 10
-0.074931
 20
1.808173
 10
-0.06543
 20
1.804497999999999
 10
-0.055518
 20
1.801158
 10
-0.045237
 20
1.798165999999999
 10
-0.034627
 20
1.795533999999999
 10
-0.02373
 20
1.793272999999999
 10
-0.012592
 20
1.791391999999999
 10
-0.001257
 20
1.789897999999999
 10
0.01023
 20
1.788797999999999
 10
0.021823
 20
1.788095999999999
 10
0.033474
 20
1.787793999999999
 10
0.045136
 20
1.787894999999999
 10
0.056764
 20
1.788396999999999
 10
0.06831
 20
1.789299
 10
0.079727
 20
1.790595999999999
 10
0.090969
 20
1.792283999999999
 10
0.101992
 20
1.794356999999999
 10
0.11275
 20
1.796804
 10
0.123202
 20
1.799617999999999
 10
0.133303
 20
1.802784999999999
 10
0.143014
 20
1.806295
 10
0.152296
 20
1.810131
 10
0.161112
 20
1.814279999999999
 10
0.169425
 20
1.818724
 10
0.177202
 20
1.823445999999999
 10
0.184412
 20
1.828425999999999
 10
0.191027
 20
1.833643999999999
 10
0.197018
 20
1.839079999999999
 10
0.202363
 20
1.844711
 10
0.20704
 20
1.850515
 10
0.211029
 20
1.856467999999999
 10
0.214315
 20
1.862547
 10
0.216885
 20
1.868726999999999
 10
0.218728
 20
1.874983
 10
0.219837
 20
1.881288999999999
 10
0.220207
 20
1.887622
1001
ACAD
1000
RTLwPs
1070
   128
  0
LWPOLYLINE
  5
1982
330
196C
100
AcDbEntity
  8
LIGHT
100
AcDbPolyline
 90
      100
 70
     0
 43
0.0
 10
0.063449
 20
1.40242
 10
0.063418
 20
1.404017999999999
 10
0.063322
 20
1.405609
 10
0.063163
 20
1.407187999999999
 10
0.062941
 20
1.408746999999999
 10
0.062657
 20
1.410280999999999
 10
0.062313
 20
1.411782999999999
 10
0.06191
 20
1.413248
 10
0.061448
 20
1.414668999999999
 10
0.060931
 20
1.416039999999999
 10
0.060361
 20
1.417356999999999
 10
0.059738
 20
1.418613999999999
 10
0.059067
 20
1.419805
 10
0.05835
 20
1.420925999999999
 10
0.057589
 20
1.421972999999999
 10
0.056788
 20
1.422940999999999
 10
0.05595
 20
1.423826999999999
 10
0.055078
 20
1.424625999999999
 10
0.054177
 20
1.425336
 10
0.053248
 20
1.425954
 10
0.052297
 20
1.426477
 10
0.051327
 20
1.426903
 10
0.050342
 20
1.427229999999999
 10
0.049345
 20
1.427457999999999
 10
0.048342
 20
1.427583999999999
 10
0.047335
 20
1.42761
 10
0.04633
 20
1.427534
 10
0.04533
 20
1.427355999999999
 10
0.044338
 20
1.427078999999999
 10
0.04336
 20
1.426702
 10
0.042399
 20
1.426227
 10
0.041459
 20
1.425656999999999
 10
0.040543
 20
1.424992999999999
 10
0.039656
 20
1.424237999999999
 10
0.038801
 20
1.423395
 10
0.037981
 20
1.422468
 10
0.037199
 20
1.421459
 10
0.03646
 20
1.420374999999999
 10
0.035765
 20
1.419218
 10
0.035118
 20
1.417993
 10
0.034522
 20
1.416706
 10
0.033977
 20
1.415361
 10
0.033488
 20
1.413963999999999
 10
0.033055
 20
1.412519999999999
 10
0.032681
 20
1.411036
 10
0.032367
 20
1.409516999999999
 10
0.032114
 20
1.40797
 10
0.031924
 20
1.4064
 10
0.031797
 20
1.404814999999999
 10
0.031733
 20
1.403218999999999
 10
0.031733
 20
1.40162
 10
0.031797
 20
1.400025
 10
0.031924
 20
1.398438999999999
 10
0.032114
 20
1.396869
 10
0.032367
 20
1.395321999999999
 10
0.032681
 20
1.393803
 10
0.033055
 20
1.392319
 10
0.033488
 20
1.390876
 10
0.033977
 20
1.389479
 10
0.034522
 20
1.388133999999999
 10
0.035118
 20
1.386846
 10
0.035765
 20
1.385621999999999
 10
0.03646
 20
1.384465
 10
0.037199
 20
1.383379999999999
 10
0.037981
 20
1.382371999999999
 10
0.038801
 20
1.381445
 10
0.039656
 20
1.380602
 10
0.040543
 20
1.379846999999999
 10
0.041459
 20
1.379183
 10
0.042399
 20
1.378612
 10
0.04336
 20
1.378137999999999
 10
0.044338
 20
1.377761
 10
0.04533
 20
1.377483
 10
0.04633
 20
1.377305999999999
 10
0.047335
 20
1.377229999999999
 10
0.048342
 20
1.377254999999999
 10
0.049345
 20
1.377381999999999
 10
0.050342
 20
1.377609
 10
0.051327
 20
1.377937
 10
0.052297
 20
1.378363
 10
0.053248
 20
1.378886
 10
0.054177
 20
1.379503
 10
0.055078
 20
1.380212999999999
 10
0.05595
 20
1.381012
 10
0.056788
 20
1.381897999999999
 10
0.057589
 20
1.382865999999999
 10
0.05835
 20
1.383912999999999
 10
0.059067
 20
1.385034
 10
0.059738
 20
1.386225999999999
 10
0.060361
 20
1.387483
 10
0.060931
 20
1.388798999999999
 10
0.061448
 20
1.390170999999999
 10
0.06191
 20
1.391591999999999
 10
0.062313
 20
1.393055999999999
 10
0.062657
 20
1.394559
 10
0.062941
 20
1.396093
 10
0.063163
 20
1.397652
 10
0.063322
 20
1.399229999999999
 10
0.063418
 20
1.400821999999999
 10
0.063449
 20
1.40242
1001
ACAD
1000
RTLwPs
1070
   128
  0
LWPOLYLINE
  5
1983
330
196C
100
AcDbEntity
  8
LIGHT
100
AcDbPolyline
 90
       11
 70
     0
 43
0.0
 10
0.259396
 20
0.5159930000000001
 10
0.247266
 20
0.525324
 10
0.206211
 20
0.506663
 10
0.17262
 20
0.495466
 10
0.137163
 20
0.4861350000000001
 10
0.144627
 20
0.476804
 10
0.167021
 20
0.477737
 10
0.195947
 20
0.484269
 10
0.227672
 20
0.496399
 10
0.259396
 20
0.5159930000000001
 10
0.259396
 20
0.5159930000000001
1001
ACAD
1000
RTLwPs
1070
   128
  0
LWPOLYLINE
  5
1984
330
196C
100
AcDbEntity
  8
LIGHT
100
AcDbPolyline
 90
      100
 70
     0
 43
0.0
 10
0.347106
 20
0.669019
 10
0.346469
 20
0.675706
 10
0.344561
 20
0.6823660000000001
 10
0.34139
 20
0.688973
 10
0.336968
 20
0.695499
 10
0.331313
 20
0.701919
 10
0.324448
 20
0.7082060000000001
 10
0.3164
 20
0.7143350000000001
 10
0.307203
 20
0.720282
 10
0.296892
 20
0.726023
 10
0.28551
 20
0.731534
 10
0.273102
 20
0.7367930000000001
 10
0.259719
 20
0.741779
 10
0.245414
 20
0.746473
 10
0.230244
 20
0.750854
 10
0.214272
 20
0.7549060000000001
 10
0.197561
 20
0.758612
 10
0.180178
 20
0.761957
 10
0.162193
 20
0.764928
 10
0.14368
 20
0.7675130000000001
 10
0.124712
 20
0.7697020000000001
 10
0.105366
 20
0.7714850000000001
 10
0.085719
 20
0.7728550000000001
 10
0.065851
 20
0.7738070000000001
 10
0.045842
 20
0.774337
 10
0.025773
 20
0.774443
 10
0.005724
 20
0.7741249999999999
 10
-0.014225
 20
0.7733830000000001
 10
-0.033992
 20
0.7722220000000001
 10
-0.053498
 20
0.770644
 10
-0.072665
 20
0.768658
 10
-0.091415
 20
0.76627
 10
-0.109673
 20
0.76349
 10
-0.127365
 20
0.7603310000000001
 10
-0.144421
 20
0.7568030000000001
 10
-0.160771
 20
0.752922
 10
-0.17635
 20
0.748703
 10
-0.191095
 20
0.7441640000000001
 10
-0.204946
 20
0.739321
 10
-0.217848
 20
0.734196
 10
-0.229749
 20
0.728808
 10
-0.240601
 20
0.7231800000000001
 10
-0.25036
 20
0.717333
 10
-0.258986
 20
0.7112920000000001
 10
-0.266447
 20
0.7050810000000001
 10
-0.27271
 20
0.698724
 10
-0.277751
 20
0.6922480000000001
 10
-0.281549
 20
0.6856780000000001
 10
-0.28409
 20
0.679041
 10
-0.285363
 20
0.6723640000000001
 10
-0.285363
 20
0.665673
 10
-0.28409
 20
0.6589960000000001
 10
-0.281549
 20
0.6523590000000001
 10
-0.277751
 20
0.6457890000000001
 10
-0.27271
 20
0.6393130000000001
 10
-0.266447
 20
0.6329570000000001
 10
-0.258986
 20
0.6267450000000001
 10
-0.25036
 20
0.6207040000000001
 10
-0.240601
 20
0.614857
 10
-0.229749
 20
0.6092290000000001
 10
-0.217848
 20
0.603841
 10
-0.204946
 20
0.5987160000000001
 10
-0.191095
 20
0.593873
 10
-0.17635
 20
0.5893340000000001
 10
-0.160771
 20
0.585115
 10
-0.144421
 20
0.5812340000000001
 10
-0.127365
 20
0.5777070000000001
 10
-0.109673
 20
0.574547
 10
-0.091415
 20
0.571767
 10
-0.072665
 20
0.56938
 10
-0.053498
 20
0.5673930000000001
 10
-0.033992
 20
0.565816
 10
-0.014225
 20
0.564654
 10
0.005724
 20
0.5639120000000001
 10
0.025773
 20
0.563594
 10
0.045842
 20
0.5637
 10
0.065851
 20
0.5642300000000001
 10
0.085719
 20
0.565182
 10
0.105366
 20
0.566553
 10
0.124712
 20
0.568336
 10
0.14368
 20
0.570524
 10
0.162193
 20
0.573109
 10
0.180178
 20
0.5760800000000001
 10
0.197561
 20
0.579425
 10
0.214272
 20
0.5831310000000001
 10
0.230244
 20
0.587183
 10
0.245414
 20
0.5915650000000001
 10
0.259719
 20
0.5962579999999999
 10
0.273102
 20
0.601244
 10
0.28551
 20
0.6065040000000001
 10
0.296892
 20
0.6120140000000001
 10
0.307203
 20
0.617755
 10
0.3164
 20
0.6237020000000002
 10
0.324448
 20
0.6298310000000001
 10
0.331313
 20
0.6361180000000001
 10
0.336968
 20
0.6425380000000001
 10
0.34139
 20
0.6490640000000001
 10
0.344561
 20
0.655671
 10
0.346469
 20
0.662331
 10
0.347106
 20
0.669019
1001
ACAD
1000
RTLwPs
1070
   128
  0
LWPOLYLINE
  5
1985
330
196C
100
AcDbEntity
  8
LIGHT
100
AcDbPolyline
 90
       15
 70
     0
 43
0.0
 10
-0.2799239999999999
 20
0.59064
 10
-0.272459
 20
0.583175
 10
-0.262196
 20
0.575711
 10
-0.250066
 20
0.567313
 10
-0.237002
 20
0.558915
 10
-0.224872
 20
0.552384
 10
-0.218341
 20
0.5467850000000001
 10
-0.23327
 20
0.541187
 10
-0.250066
 20
0.5467850000000001
 10
-0.266861
 20
0.5533170000000001
 10
-0.2799239999999999
 20
0.5607810000000001
 10
-0.278991
 20
0.567313
 10
-0.277125
 20
0.5785100000000001
 10
-0.2799239999999999
 20
0.59064
 10
-0.2799239999999999
 20
0.59064
1001
ACAD
1000
RTLwPs
1070
   128
  0
ENDBLK
  5
1989
330
196C
100
AcDbEntity
  8
0
100
AcDbBlockEnd
  0
BLOCK
  5
1994
330
198A
100
AcDbEntity
  8
0
100
AcDbBlockBegin
  2
REV-BLOCK
 70
     2
 10
0.0
 20
0.0
 30
0.0
  3
REV-BLOCK
  1

  0
ATTDEF
  5
198B
330
198A
100
AcDbEntity
  8
TB-TXT
100
AcDbText
 10
-7.419585375170533
 20
-0.264136
 30
0.0
 40
0.12
  1
--
  7
ARIAL
 72
     1
 11
-7.36376
 21
-0.204136
 31
0.0
100
AcDbAttributeDefinition
  3
REV
  2
REV
 70
     0
 74
     2
  0
ATTDEF
  5
198C
330
198A
100
AcDbEntity
  8
TB-TXT
100
AcDbText
 10
-7.021599
 20
-0.2621630000000001
 30
0.0
 40
0.12
  1

  7
ARIAL
100
AcDbAttributeDefinition
  3
ECN N0,
  2
ECN
 70
     0
  0
ATTDEF
  5
198D
330
198A
100
AcDbEntity
  8
TB-TXT
100
AcDbText
 10
-6.384133
 20
-0.2621630000000001
 30
0.0
 40
0.12
  1

  7
ARIAL
100
AcDbAttributeDefinition
  3
DESCRIPTION
  2
DESCRIPTION
 70
     0
  0
ATTDEF
  5
198E
330
198A
100
AcDbEntity
  8
TB-TXT
100
AcDbText
 10
-1.912313999999999
 20
-0.264136
 30
0.0
 40
0.12
  1

  7
ARIAL
 72
     1
 11
-1.912313999999999
 21
-0.204136
 31
0.0
100
AcDbAttributeDefinition
  3
REV DATE
  2
REV-DATE
 70
     0
 74
     2
  0
ATTDEF
  5
198F
330
198A
100
AcDbEntity
  8
TB-TXT
100
AcDbText
 10
-0.700882
 20
-0.264136
 30
0.0
 40
0.12
  1

  7
ARIAL
 72
     1
 11
-0.700882
 21
-0.204136
 31
0.0
100
AcDbAttributeDefinition
  3
APPR
  2
APPR
 70
     0
 74
     2
  0
LWPOLYLINE
  5
1990
330
198A
100
AcDbEntity
  8
FORMAT
100
AcDbPolyline
 90
        2
 70
     0
 43
0.0198
 10
-7.662633
 20
-0.4059700000000001
 10
0.0
 20
-0.4059700000000001
  0
ENDBLK
  5
1995
330
198A
100
AcDbEntity
  8
0
100
AcDbBlockEnd
  0
BLOCK
  5
19A0
330
1996
100
AcDbEntity
  8
0
100
AcDbBlockBegin
  2
TITLE-BLOCK
 70
     2
 10
0.0
 20
0.0
 30
0.0
  3
TITLE-BLOCK
  1

  0
ATTDEF
  5
1997
330
1996
100
AcDbEntity
  8
TB-TXT
100
AcDbText
 10
-5.452069999999999
 20
1.724636999999999
 30
0.0
 40
0.15996
  1

  7
ARIAL
100
AcDbAttributeDefinition
  3
TITLE (LINE 1)
  2
LINE1
 70
     0
  0
ATTDEF
  5
1998
330
1996
100
AcDbEntity
  8
TB-TXT
100
AcDbText
 10
-5.452069999999999
 20
1.465654999999999
 30
0.0
 40
0.15996
  1

  7
ARIAL
100
AcDbAttributeDefinition
  3
TITLE (LINE 2)
  2
LINE2
 70
     0
  0
ATTDEF
  5
1999
330
1996
100
AcDbEntity
  8
TB-TXT
100
AcDbText
 10
-5.452069999999999
 20
1.206671999999999
 30
0.0
 40
0.15996
  1

  7
ARIAL
100
AcDbAttributeDefinition
  3
TITLE (LINE 3)
  2
LINE3
 70
     0
  0
ATTDEF
  5
199A
330
1996
100
AcDbEntity
  8
TB-TXT
100
AcDbText
 10
-5.452069999999999
 20
0.9476889999999999
 30
0.0
 40
0.15996
  1

  7
ARIAL
100
AcDbAttributeDefinition
  3
TITLE (LINE 4)
  2
LINE4
 70
     0
  0
ATTDEF
  5
199B
330
1996
100
AcDbEntity
  8
TB-TXT
100
AcDbText
 10
-2.607663999999999
 20
0.495824
 30
0.0
 40
0.12
  1

  7
ARIAL
100
AcDbAttributeDefinition
  3
DWG NO.
  2
DWG#
 70
     0
  0
ATTDEF
  5
199C
330
1996
100
AcDbEntity
  8
TB-TXT
100
AcDbText
 10
-5.506905
 20
0.113608
 30
0.0
 40
0.12
  1

  7
ARIAL
100
AcDbAttributeDefinition
  3
FILE NO.
  2
FILE#
 70
     0
  0
ATTDEF
  5
199D
330
1996
100
AcDbEntity
  8
TB-TXT
100
AcDbText
 10
-0.242536
 20
0.488136
 30
0.0
 40
0.12
  1

  7
ARIAL
 72
     4
 11
-0.242536
 21
0.488136
 31
0.0
100
AcDbAttributeDefinition
  3
REV
  2
REV
 70
     0
  0
ATTDEF
  5
199E
330
1996
100
AcDbEntity
  8
TB-TXT
100
AcDbText
 10
-4.485055
 20
0.495824
 30
0.0
 40
0.12
  1
FULL
  7
ARIAL
100
AcDbAttributeDefinition
  3
SCALE
  2
SCALE
 70
     0
  0
ATTDEF
  5
199F
330
1996
100
AcDbEntity
  8
TB-TXT
100
AcDbText
 10
-1.004564
 20
0.091685
 30
0.0
 40
0.12
  1
1 OF 1
  7
ARIAL
100
AcDbAttributeDefinition
  3
SHEET N0.
  2
SHT#
 70
     0
  0
ENDBLK
  5
19A1
330
1996
100
AcDbEntity
  8
0
100
AcDbBlockEnd
  0
BLOCK
  5
19AF
330
19A2
100
AcDbEntity
  8
0
100
AcDbBlockBegin
  2
APPR-BLOCK
 70
     2
 10
0.0
 20
0.0
 30
0.0
  3
APPR-BLOCK
  1

  0
ATTDEF
  5
19A3
330
19A2
100
AcDbEntity
  8
TB-TXT
100
AcDbText
 10
0.103092
 20
-0.235188
 30
0.0
 40
0.1
  1

  7
ARIAL
100
AcDbAttributeDefinition
  3
DRAWN (APPR)
  2
REL-DR
 70
     0
  0
ATTDEF
  5
19A4
330
19A2
100
AcDbEntity
  8
TB-TXT
100
AcDbText
 10
0.9489479999999998
 20
-0.235188
 30
0.0
 40
0.1
  1
XXX
  7
ARIAL
100
AcDbAttributeDefinition
  3
DRAWN (DATE)
  2
DATE-DR
 70
     0
  0
ATTDEF
  5
19A5
330
19A2
100
AcDbEntity
  8
TB-TXT
100
AcDbText
 10
0.103092
 20
-0.5528770000000001
 30
0.0
 40
0.1
  1

  7
ARIAL
100
AcDbAttributeDefinition
  3
ENGR SERV (APPR)
  2
REL-ES
 70
     0
  0
ATTDEF
  5
19A6
330
19A2
100
AcDbEntity
  8
TB-TXT
100
AcDbText
 10
0.9489479999999998
 20
-0.5528770000000001
 30
0.0
 40
0.1
  1

  7
ARIAL
100
AcDbAttributeDefinition
  3
ENGR SERV (DATE)
  2
DATE-ES
 70
     0
  0
ATTDEF
  5
19A7
330
19A2
100
AcDbEntity
  8
TB-TXT
100
AcDbText
 10
0.103092
 20
-0.8705649999999998
 30
0.0
 40
0.1
  1

  7
ARIAL
100
AcDbAttributeDefinition
  3
ENGR (APPR)
  2
REL-ENGR
 70
     0
  0
ATTDEF
  5
19A8
330
19A2
100
AcDbEntity
  8
TB-TXT
100
AcDbText
 10
0.9489479999999998
 20
-0.8705649999999998
 30
0.0
 40
0.1
  1

  7
ARIAL
100
AcDbAttributeDefinition
  3
ENGR (DATE)
  2
DATE-ENGR
 70
     0
  0
ATTDEF
  5
19A9
330
19A2
100
AcDbEntity
  8
TB-TXT
100
AcDbText
 10
0.103092
 20
-1.188253
 30
0.0
 40
0.1
  1

  7
ARIAL
100
AcDbAttributeDefinition
  3
PROD ENGR (APPR)
  2
REL-PROD
 70
     0
  0
ATTDEF
  5
19AA
330
19A2
100
AcDbEntity
  8
TB-TXT
100
AcDbText
 10
0.9489479999999998
 20
-1.188253
 30
0.0
 40
0.1
  1

  7
ARIAL
100
AcDbAttributeDefinition
  3
PROD ENGR (DATE)
  2
DATE-PROD
 70
     0
  0
ATTDEF
  5
19AB
330
19A2
100
AcDbEntity
  8
TB-TXT
100
AcDbText
 10
0.103092
 20
-1.505942
 30
0.0
 40
0.1
  1

  7
ARIAL
100
AcDbAttributeDefinition
  3
MATL SUP (APPR)
  2
REL-MATL
 70
     0
  0
ATTDEF
  5
19AC
330
19A2
100
AcDbEntity
  8
TB-TXT
100
AcDbText
 10
0.9489479999999998
 20
-1.505942
 30
0.0
 40
0.1
  1

  7
ARIAL
100
AcDbAttributeDefinition
  3
MATL SUP (DATE)
  2
DATE-MATL
 70
     0
  0
ATTDEF
  5
19AD
330
19A2
100
AcDbEntity
  8
TB-TXT
100
AcDbText
 10
0.103092
 20
-1.823629999999999
 30
0.0
 40
0.1
  1

  7
ARIAL
100
AcDbAttributeDefinition
  3
QUALITY (APPR)
  2
REL-QUAL
 70
     0
  0
ATTDEF
  5
19AE
330
19A2
100
AcDbEntity
  8
TB-TXT
100
AcDbText
 10
0.9489479999999998
 20
-1.823629999999999
 30
0.0
 40
0.1
  1

  7
ARIAL
100
AcDbAttributeDefinition
  3
QUALITY (DATE)
  2
DATE-QUAL
 70
     0
  0
ENDBLK
  5
19B0
330
19A2
100
AcDbEntity
  8
0
100
AcDbBlockEnd
  0
ENDSEC
  0
SECTION
  2
ENTITIES
  0
LINE
  5
C7E
330
18
100
AcDbEntity
  8
PART
100
AcDbLine
 10
14.564747
 20
18.714208
 30
0.0
 11
14.564747
 21
8.398206
 31
0.0
  0
LINE
  5
C7F
330
18
100
AcDbEntity
  8
PART
100
AcDbLine
 10
15.06553
 20
18.714208
 30
0.0
 11
15.06553
 21
7.897422999999999
 31
0.0
  0
LINE
  5
C80
330
18
100
AcDbEntity
  8
PART
100
AcDbLine
 10
15.566313
 20
18.714208
 30
0.0
 11
15.566313
 21
7.396639999999999
 31
0.0
  0
LINE
  5
C81
330
18
100
AcDbEntity
  8
PART
100
AcDbLine
 10
16.067096
 20
18.714208
 30
0.0
 11
16.067096
 21
6.895857
 31
0.0
  0
LINE
  5
C82
330
18
100
AcDbEntity
  8
PART
100
AcDbLine
 10
16.567879
 20
18.714208
 30
0.0
 11
16.567879
 21
6.395074
 31
0.0
  0
LINE
  5
C83
330
18
100
AcDbEntity
  8
PART
100
AcDbLine
 10
6.729328999999999
 20
16.67882699999999
 30
0.0
 11
11.615906
 21
16.67882699999999
 31
0.0
  0
LINE
  5
C84
330
18
100
AcDbEntity
  8
PART
100
AcDbLine
 10
7.230111999999999
 20
16.17804399999999
 30
0.0
 11
11.615906
 21
16.17804399999999
 31
0.0
  0
LINE
  5
C85
330
18
100
AcDbEntity
  8
PART
100
AcDbLine
 10
7.730894999999999
 20
15.67726099999999
 30
0.0
 11
11.615906
 21
15.67726099999999
 31
0.0
  0
LINE
  5
C86
330
18
100
AcDbEntity
  8
PART
100
AcDbLine
 10
8.231678
 20
15.17647799999999
 30
0.0
 11
11.615906
 21
15.17647799999999
 31
0.0
  0
LINE
  5
C87
330
18
100
AcDbEntity
  8
PART
100
AcDbLine
 10
8.732461
 20
14.675695
 30
0.0
 11
11.615906
 21
14.675695
 31
0.0
  0
LINE
  5
C88
330
18
100
AcDbEntity
  8
PART
100
AcDbLine
 10
8.732461
 20
14.675695
 30
0.0
 11
8.732461
 21
13.107043
 31
0.0
  0
LINE
  5
C89
330
18
100
AcDbEntity
  8
PART
100
AcDbLine
 10
8.231678
 20
15.17647799999999
 30
0.0
 11
8.231678
 21
13.107043
 31
0.0
  0
LINE
  5
C8A
330
18
100
AcDbEntity
  8
PART
100
AcDbLine
 10
7.730894999999999
 20
15.67726099999999
 30
0.0
 11
7.730894999999999
 21
13.107043
 31
0.0
  0
LINE
  5
C8B
330
18
100
AcDbEntity
  8
PART
100
AcDbLine
 10
7.230111999999999
 20
16.17804399999999
 30
0.0
 11
7.230111999999999
 21
13.107043
 31
0.0
  0
LINE
  5
C8C
330
18
100
AcDbEntity
  8
PART
100
AcDbLine
 10
6.729328999999999
 20
16.67882699999999
 30
0.0
 11
6.729328999999999
 21
13.107043
 31
0.0
  0
LINE
  5
C8D
330
18
100
AcDbEntity
  8
PART
100
AcDbLine
 10
24.403296
 20
16.42843599999999
 30
0.0
 11
24.403296
 21
13.107043
 31
0.0
  0
LINE
  5
C8E
330
18
100
AcDbEntity
  8
PART
100
AcDbLine
 10
23.902513
 20
15.92765299999999
 30
0.0
 11
23.902513
 21
13.107043
 31
0.0
  0
LINE
  5
C8F
330
18
100
AcDbEntity
  8
PART
100
AcDbLine
 10
23.40173
 20
15.42687
 30
0.0
 11
23.40173
 21
13.107043
 31
0.0
  0
LINE
  5
C90
330
18
100
AcDbEntity
  8
PART
100
AcDbLine
 10
22.900947
 20
14.92608699999999
 30
0.0
 11
22.900947
 21
13.107043
 31
0.0
  0
LINE
  5
C91
330
18
100
AcDbEntity
  8
PART
100
AcDbLine
 10
22.400164
 20
14.425304
 30
0.0
 11
22.400164
 21
13.107043
 31
0.0
  0
LINE
  5
C92
330
18
100
AcDbEntity
  8
PART
100
AcDbLine
 10
10.735593
 20
6.395074
 30
0.0
 11
20.397033
 21
6.395074
 31
0.0
  0
LINE
  5
C93
330
18
100
AcDbEntity
  8
PART
100
AcDbLine
 10
10.735593
 20
6.895857
 30
0.0
 11
20.397033
 21
6.895857
 31
0.0
  0
LINE
  5
C94
330
18
100
AcDbEntity
  8
PART
100
AcDbLine
 10
10.735593
 20
7.396639999999999
 30
0.0
 11
20.397033
 21
7.396639999999999
 31
0.0
  0
LINE
  5
C95
330
18
100
AcDbEntity
  8
PART
100
AcDbLine
 10
10.735593
 20
7.897422999999999
 30
0.0
 11
20.397033
 21
7.897422999999999
 31
0.0
  0
LINE
  5
C96
330
18
100
AcDbEntity
  8
PART
100
AcDbLine
 10
10.735593
 20
8.398206
 30
0.0
 11
20.397033
 21
8.398206
 31
0.0
  0
LINE
  5
C97
330
18
100
AcDbEntity
  8
PART
100
AcDbLine
 10
15.06553
 20
14.425304
 30
0.0
 11
19.015937
 21
14.425304
 31
0.0
  0
LINE
  5
C98
330
18
100
AcDbEntity
  8
PART
100
AcDbLine
 10
16.067096
 20
14.92608699999999
 30
0.0
 11
19.015937
 21
14.92608699999999
 31
0.0
  0
LINE
  5
C99
330
18
100
AcDbEntity
  8
PART
100
AcDbLine
 10
16.567879
 20
15.42687
 30
0.0
 11
19.015937
 21
15.42687
 31
0.0
  0
LINE
  5
C9A
330
18
100
AcDbEntity
  8
PART
100
AcDbLine
 10
15.06553
 20
15.92765299999999
 30
0.0
 11
19.015937
 21
15.92765299999999
 31
0.0
  0
LINE
  5
C9B
330
18
100
AcDbEntity
  8
PART
100
AcDbLine
 10
15.566313
 20
16.42843599999999
 30
0.0
 11
19.015937
 21
16.42843599999999
 31
0.0
  0
LINE
  5
C9C
330
18
100
AcDbEntity
  8
PART
100
AcDbLine
 10
16.567879
 20
16.92921899999999
 30
0.0
 11
19.015937
 21
16.92921899999999
 31
0.0
  0
LINE
  5
C9D
330
18
100
AcDbEntity
  8
PART
100
AcDbLine
 10
24.904079
 20
16.92921899999999
 30
0.0
 11
24.904079
 21
13.107043
 31
0.0
  0
LINE
  5
C9E
330
18
100
AcDbEntity
  8
PART
100
AcDbLine
 10
6.228545999999999
 20
17.17961
 30
0.0
 11
11.615906
 21
17.17961
 31
0.0
  0
LINE
  5
C9F
330
18
100
AcDbEntity
  8
PART
100
AcDbLine
 10
6.228545999999999
 20
17.17961
 30
0.0
 11
6.228545999999999
 21
13.107043
 31
0.0
  0
LWPOLYLINE
  5
CA0
330
18
100
AcDbEntity
  8
PART
100
AcDbPolyline
 90
        2
 70
     1
 43
0.046948
 10
15.042055
 20
14.425304
 42
1.0
 10
15.089004
 20
14.425304
 42
1.0
  0
LWPOLYLINE
  5
CA4
330
18
100
AcDbEntity
  8
PART
100
AcDbPolyline
 90
        2
 70
     1
 43
0.046948
 10
16.544404
 20
14.675695
 42
1.0
 10
16.591353
 20
14.675695
 42
1.0
  0
LWPOLYLINE
  5
CA8
330
18
100
AcDbEntity
  8
PART
100
AcDbPolyline
 90
        2
 70
     1
 43
0.046948
 10
16.04362099999999
 20
14.92608699999999
 42
1.0
 10
16.09056999999999
 20
14.92608699999999
 42
1.0
  0
LWPOLYLINE
  5
CAC
330
18
100
AcDbEntity
  8
PART
100
AcDbPolyline
 90
        2
 70
     1
 43
0.046948
 10
15.542838
 20
15.17647799999999
 42
1.0
 10
15.58978699999999
 20
15.17647799999999
 42
1.0
  0
LWPOLYLINE
  5
CB0
330
18
100
AcDbEntity
  8
PART
100
AcDbPolyline
 90
        2
 70
     1
 43
0.046948
 10
15.042055
 20
15.67726099999999
 42
1.0
 10
15.089004
 20
15.67726099999999
 42
1.0
  0
LWPOLYLINE
  5
CB4
330
18
100
AcDbEntity
  8
PART
100
AcDbPolyline
 90
        2
 70
     1
 43
0.046948
 10
15.042055
 20
15.92765299999999
 42
1.0
 10
15.089004
 20
15.92765299999999
 42
1.0
  0
LWPOLYLINE
  5
CB8
330
18
100
AcDbEntity
  8
PART
100
AcDbPolyline
 90
        2
 70
     1
 43
0.046948
 10
16.544404
 20
16.17804399999999
 42
1.0
 10
16.591353
 20
16.17804399999999
 42
1.0
  0
LWPOLYLINE
  5
CBC
330
18
100
AcDbEntity
  8
PART
100
AcDbPolyline
 90
        2
 70
     1
 43
0.046948
 10
16.04362099999999
 20
16.67882699999999
 42
1.0
 10
16.09056999999999
 20
16.67882699999999
 42
1.0
  0
LWPOLYLINE
  5
CC0
330
18
100
AcDbEntity
  8
PART
100
AcDbPolyline
 90
        2
 70
     1
 43
0.046948
 10
15.042055
 20
17.17961
 42
1.0
 10
15.089004
 20
17.17961
 42
1.0
  0
LWPOLYLINE
  5
CC4
330
18
100
AcDbEntity
  8
PART
100
AcDbPolyline
 90
        2
 70
     1
 43
0.046948
 10
16.544404
 20
16.92921899999999
 42
1.0
 10
16.591353
 20
16.92921899999999
 42
1.0
  0
LWPOLYLINE
  5
CC8
330
18
100
AcDbEntity
  8
PART
100
AcDbPolyline
 90
        2
 70
     1
 43
0.046948
 10
15.542838
 20
16.42843599999999
 42
1.0
 10
15.58978699999999
 20
16.42843599999999
 42
1.0
  0
LWPOLYLINE
  5
CCC
330
18
100
AcDbEntity
  8
PART
100
AcDbPolyline
 90
        2
 70
     1
 43
0.046948
 10
16.544404
 20
15.42687
 42
1.0
 10
16.591353
 20
15.42687
 42
1.0
  0
LWPOLYLINE
  5
CD0
330
18
100
AcDbEntity
  8
PART
100
AcDbPolyline
 90
        2
 70
     1
 43
0.046948
 10
14.541272
 20
8.398206
 42
1.0
 10
14.58822099999999
 20
8.398206
 42
1.0
  0
LWPOLYLINE
  5
CD4
330
18
100
AcDbEntity
  8
PART
100
AcDbPolyline
 90
        2
 70
     1
 43
0.046948
 10
15.042055
 20
7.897422999999999
 42
1.0
 10
15.089004
 20
7.897422999999999
 42
1.0
  0
LWPOLYLINE
  5
CD8
330
18
100
AcDbEntity
  8
PART
100
AcDbPolyline
 90
        2
 70
     1
 43
0.046948
 10
15.542838
 20
7.396639999999999
 42
1.0
 10
15.58978699999999
 20
7.396639999999999
 42
1.0
  0
LWPOLYLINE
  5
CDC
330
18
100
AcDbEntity
  8
PART
100
AcDbPolyline
 90
        2
 70
     1
 43
0.046948
 10
16.04362099999999
 20
6.895857
 42
1.0
 10
16.09056999999999
 20
6.895857
 42
1.0
  0
LWPOLYLINE
  5
CE0
330
18
100
AcDbEntity
  8
PART
100
AcDbPolyline
 90
        2
 70
     1
 43
0.046948
 10
16.544404
 20
6.395074
 42
1.0
 10
16.591353
 20
6.395074
 42
1.0
  0
LINE
  5
CE4
330
18
100
AcDbEntity
  8
PART
100
AcDbLine
 10
6.228545999999999
 20
13.107043
 30
0.0
 11
6.405598999999999
 21
12.92998899999999
 31
0.0
  0
LINE
  5
CE5
330
18
100
AcDbEntity
  8
PART
100
AcDbLine
 10
6.228545999999999
 20
13.107043
 30
0.0
 11
6.051491999999999
 21
12.92998899999999
 31
0.0
  0
LINE
  5
CE6
330
18
100
AcDbEntity
  8
PART
100
AcDbLine
 10
6.729328999999999
 20
13.107043
 30
0.0
 11
6.552274999999999
 21
12.92998899999999
 31
0.0
  0
LINE
  5
CE7
330
18
100
AcDbEntity
  8
PART
100
AcDbLine
 10
6.729328999999999
 20
13.107043
 30
0.0
 11
6.906382
 21
12.92998899999999
 31
0.0
  0
LINE
  5
CE8
330
18
100
AcDbEntity
  8
PART
100
AcDbLine
 10
7.230111999999999
 20
13.107043
 30
0.0
 11
7.053058
 21
12.92998899999999
 31
0.0
  0
LINE
  5
CE9
330
18
100
AcDbEntity
  8
PART
100
AcDbLine
 10
7.230111999999999
 20
13.107043
 30
0.0
 11
7.407164999999999
 21
12.92998899999999
 31
0.0
  0
LINE
  5
CEA
330
18
100
AcDbEntity
  8
PART
100
AcDbLine
 10
7.730894999999999
 20
13.107043
 30
0.0
 11
7.553841
 21
12.92998899999999
 31
0.0
  0
LINE
  5
CEB
330
18
100
AcDbEntity
  8
PART
100
AcDbLine
 10
7.730894999999999
 20
13.107043
 30
0.0
 11
7.907947999999999
 21
12.92998899999999
 31
0.0
  0
LINE
  5
CEC
330
18
100
AcDbEntity
  8
PART
100
AcDbLine
 10
8.231678
 20
13.107043
 30
0.0
 11
8.054624
 21
12.92998899999999
 31
0.0
  0
LINE
  5
CED
330
18
100
AcDbEntity
  8
PART
100
AcDbLine
 10
8.231678
 20
13.107043
 30
0.0
 11
8.408730999999999
 21
12.92998899999999
 31
0.0
  0
LINE
  5
CEE
330
18
100
AcDbEntity
  8
PART
100
AcDbLine
 10
8.732461
 20
13.107043
 30
0.0
 11
8.555407
 21
12.92998899999999
 31
0.0
  0
LINE
  5
CEF
330
18
100
AcDbEntity
  8
PART
100
AcDbLine
 10
8.732461
 20
13.107043
 30
0.0
 11
8.909513999999999
 21
12.92998899999999
 31
0.0
  0
LINE
  5
CF0
330
18
100
AcDbEntity
  8
PART
100
AcDbLine
 10
24.403296
 20
13.107043
 30
0.0
 11
24.58035
 21
12.92998899999999
 31
0.0
  0
LINE
  5
CF1
330
18
100
AcDbEntity
  8
PART
100
AcDbLine
 10
22.900947
 20
13.107043
 30
0.0
 11
23.078001
 21
12.92998899999999
 31
0.0
  0
LINE
  5
CF2
330
18
100
AcDbEntity
  8
PART
100
AcDbLine
 10
22.900947
 20
13.107043
 30
0.0
 11
22.723894
 21
12.92998899999999
 31
0.0
  0
LINE
  5
CF3
330
18
100
AcDbEntity
  8
PART
100
AcDbLine
 10
22.400164
 20
13.107043
 30
0.0
 11
22.223111
 21
12.92998899999999
 31
0.0
  0
LINE
  5
CF4
330
18
100
AcDbEntity
  8
PART
100
AcDbLine
 10
22.400164
 20
13.107043
 30
0.0
 11
22.577218
 21
12.92998899999999
 31
0.0
  0
LINE
  5
CF5
330
18
100
AcDbEntity
  8
PART
100
AcDbLine
 10
24.403296
 20
13.107043
 30
0.0
 11
24.226243
 21
12.92998899999999
 31
0.0
  0
LINE
  5
CF6
330
18
100
AcDbEntity
  8
PART
100
AcDbLine
 10
23.902513
 20
13.107043
 30
0.0
 11
24.079567
 21
12.92998899999999
 31
0.0
  0
LINE
  5
CF7
330
18
100
AcDbEntity
  8
PART
100
AcDbLine
 10
23.902513
 20
13.107043
 30
0.0
 11
23.72546
 21
12.92998899999999
 31
0.0
  0
LINE
  5
CF8
330
18
100
AcDbEntity
  8
PART
100
AcDbLine
 10
23.40173
 20
13.107043
 30
0.0
 11
23.578784
 21
12.92998899999999
 31
0.0
  0
LINE
  5
CF9
330
18
100
AcDbEntity
  8
PART
100
AcDbLine
 10
23.40173
 20
13.107043
 30
0.0
 11
23.224677
 21
12.92998899999999
 31
0.0
  0
LINE
  5
CFA
330
18
100
AcDbEntity
  8
PART
100
AcDbLine
 10
24.904079
 20
13.107043
 30
0.0
 11
25.08113299999999
 21
12.92998899999999
 31
0.0
  0
LINE
  5
CFB
330
18
100
AcDbEntity
  8
PART
100
AcDbLine
 10
24.904079
 20
13.107043
 30
0.0
 11
24.727026
 21
12.92998899999999
 31
0.0
  0
LINE
  5
CFD
330
18
100
AcDbEntity
  8
PART
100
AcDbLine
 10
15.06553
 20
18.714208
 30
0.0
 11
14.888476
 21
18.891262
 31
0.0
  0
LINE
  5
D00
330
18
100
AcDbEntity
  8
PART
100
AcDbLine
 10
16.567879
 20
18.714208
 30
0.0
 11
16.744932
 21
18.891262
 31
0.0
  0
LINE
  5
D01
330
18
100
AcDbEntity
  8
PART
100
AcDbLine
 10
16.567879
 20
18.714208
 30
0.0
 11
16.39082499999999
 21
18.891262
 31
0.0
  0
LINE
  5
D02
330
18
100
AcDbEntity
  8
PART
100
AcDbLine
 10
15.566313
 20
18.714208
 30
0.0
 11
15.743366
 21
18.891262
 31
0.0
  0
LINE
  5
D03
330
18
100
AcDbEntity
  8
PART
100
AcDbLine
 10
16.067096
 20
18.714208
 30
0.0
 11
15.890042
 21
18.891262
 31
0.0
  0
LINE
  5
D04
330
18
100
AcDbEntity
  8
PART
100
AcDbLine
 10
16.067096
 20
18.714208
 30
0.0
 11
16.244149
 21
18.891262
 31
0.0
  0
LINE
  5
D05
330
18
100
AcDbEntity
  8
PART
100
AcDbLine
 10
15.566313
 20
18.714208
 30
0.0
 11
15.38925899999999
 21
18.891262
 31
0.0
  0
LINE
  5
D06
330
18
100
AcDbEntity
  8
PART
100
AcDbLine
 10
15.06553
 20
18.714208
 30
0.0
 11
15.24258299999999
 21
18.891262
 31
0.0
  0
LINE
  5
D07
330
18
100
AcDbEntity
  8
PART
100
AcDbLine
 10
14.564747
 20
18.714208
 30
0.0
 11
14.7418
 21
18.891262
 31
0.0
  0
LINE
  5
D08
330
18
100
AcDbEntity
  8
PART
100
AcDbLine
 10
14.564747
 20
18.714208
 30
0.0
 11
14.38769299999999
 21
18.891262
 31
0.0
  0
LINE
  5
D0B
330
18
100
AcDbEntity
  8
PART
100
AcDbLine
 10
10.735593
 20
6.895857
 30
0.0
 11
10.558539
 21
6.718803999999999
 31
0.0
  0
LINE
  5
D0C
330
18
100
AcDbEntity
  8
PART
100
AcDbLine
 10
10.735593
 20
8.398206
 30
0.0
 11
10.558539
 21
8.57526
 31
0.0
  0
LINE
  5
D0D
330
18
100
AcDbEntity
  8
PART
100
AcDbLine
 10
10.735593
 20
8.398206
 30
0.0
 11
10.558539
 21
8.221152999999999
 31
0.0
  0
LINE
  5
D0E
330
18
100
AcDbEntity
  8
PART
100
AcDbLine
 10
10.735593
 20
7.396639999999999
 30
0.0
 11
10.558539
 21
7.573694
 31
0.0
  0
LINE
  5
D0F
330
18
100
AcDbEntity
  8
PART
100
AcDbLine
 10
10.735593
 20
7.897422999999999
 30
0.0
 11
10.558539
 21
7.720369999999999
 31
0.0
  0
LINE
  5
D10
330
18
100
AcDbEntity
  8
PART
100
AcDbLine
 10
10.735593
 20
7.897422999999999
 30
0.0
 11
10.558539
 21
8.074476999999999
 31
0.0
  0
LINE
  5
D11
330
18
100
AcDbEntity
  8
PART
100
AcDbLine
 10
10.735593
 20
7.396639999999999
 30
0.0
 11
10.558539
 21
7.219586999999999
 31
0.0
  0
LINE
  5
D12
330
18
100
AcDbEntity
  8
PART
100
AcDbLine
 10
10.735593
 20
6.895857
 30
0.0
 11
10.558539
 21
7.072911
 31
0.0
  0
LINE
  5
D13
330
18
100
AcDbEntity
  8
PART
100
AcDbLine
 10
10.735593
 20
6.395074
 30
0.0
 11
10.558539
 21
6.572128
 31
0.0
  0
LINE
  5
D14
330
18
100
AcDbEntity
  8
PART
100
AcDbLine
 10
10.735593
 20
6.395074
 30
0.0
 11
10.558539
 21
6.218021
 31
0.0
  0
LINE
  5
D15
330
18
100
AcDbEntity
  8
PART
100
AcDbLine
 10
20.397033
 20
7.396639999999999
 30
0.0
 11
20.574086
 21
7.219586999999999
 31
0.0
  0
LINE
  5
D16
330
18
100
AcDbEntity
  8
PART
100
AcDbLine
 10
20.397033
 20
6.395074
 30
0.0
 11
20.574086
 21
6.572128
 31
0.0
  0
LINE
  5
D17
330
18
100
AcDbEntity
  8
PART
100
AcDbLine
 10
20.397033
 20
6.395074
 30
0.0
 11
20.574086
 21
6.218021
 31
0.0
  0
LINE
  5
D18
330
18
100
AcDbEntity
  8
PART
100
AcDbLine
 10
20.397033
 20
6.895857
 30
0.0
 11
20.574086
 21
7.072911
 31
0.0
  0
LINE
  5
D19
330
18
100
AcDbEntity
  8
PART
100
AcDbLine
 10
20.397033
 20
6.895857
 30
0.0
 11
20.574086
 21
6.718803999999999
 31
0.0
  0
LINE
  5
D1A
330
18
100
AcDbEntity
  8
PART
100
AcDbLine
 10
20.397033
 20
7.897422999999999
 30
0.0
 11
20.574086
 21
7.720369999999999
 31
0.0
  0
LINE
  5
D1B
330
18
100
AcDbEntity
  8
PART
100
AcDbLine
 10
20.397033
 20
7.396639999999999
 30
0.0
 11
20.574086
 21
7.573694
 31
0.0
  0
LINE
  5
D1C
330
18
100
AcDbEntity
  8
PART
100
AcDbLine
 10
20.397033
 20
7.897422999999999
 30
0.0
 11
20.574086
 21
8.074476999999999
 31
0.0
  0
LINE
  5
D1D
330
18
100
AcDbEntity
  8
PART
100
AcDbLine
 10
20.397033
 20
8.398206
 30
0.0
 11
20.574086
 21
8.221152999999999
 31
0.0
  0
LINE
  5
D1E
330
18
100
AcDbEntity
  8
PART
100
AcDbLine
 10
20.397033
 20
8.398206
 30
0.0
 11
20.574086
 21
8.57526
 31
0.0
  0
LINE
  5
D2C
330
18
100
AcDbEntity
  8
PART
100
AcDbLine
 10
12.116689
 20
17.17961
 30
0.0
 11
15.06553
 21
17.17961
 31
0.0
  0
LINE
  5
D2D
330
18
100
AcDbEntity
  8
PART
100
AcDbLine
 10
12.116689
 20
16.67882699999999
 30
0.0
 11
16.067096
 21
16.67882699999999
 31
0.0
  0
LINE
  5
D2E
330
18
100
AcDbEntity
  8
PART
100
AcDbLine
 10
12.116689
 20
16.17804399999999
 30
0.0
 11
16.567879
 21
16.17804399999999
 31
0.0
  0
LINE
  5
D2F
330
18
100
AcDbEntity
  8
PART
100
AcDbLine
 10
12.116689
 20
15.67726099999999
 30
0.0
 11
15.06553
 21
15.67726099999999
 31
0.0
  0
LINE
  5
D30
330
18
100
AcDbEntity
  8
PART
100
AcDbLine
 10
12.116689
 20
15.17647799999999
 30
0.0
 11
15.566313
 21
15.17647799999999
 31
0.0
  0
LINE
  5
D31
330
18
100
AcDbEntity
  8
PART
100
AcDbLine
 10
12.116689
 20
14.675695
 30
0.0
 11
16.567879
 21
14.675695
 31
0.0
  0
LINE
  5
D32
330
18
100
AcDbEntity
  8
PART
100
AcDbLine
 10
19.51672
 20
14.425304
 30
0.0
 11
22.400164
 21
14.425304
 31
0.0
  0
LINE
  5
D33
330
18
100
AcDbEntity
  8
PART
100
AcDbLine
 10
19.51672
 20
14.92608699999999
 30
0.0
 11
22.900947
 21
14.92608699999999
 31
0.0
  0
LINE
  5
D34
330
18
100
AcDbEntity
  8
PART
100
AcDbLine
 10
19.51672
 20
15.42687
 30
0.0
 11
23.40173
 21
15.42687
 31
0.0
  0
LINE
  5
D35
330
18
100
AcDbEntity
  8
PART
100
AcDbLine
 10
19.51672
 20
15.92765299999999
 30
0.0
 11
23.902513
 21
15.92765299999999
 31
0.0
  0
LINE
  5
D36
330
18
100
AcDbEntity
  8
PART
100
AcDbLine
 10
19.51672
 20
16.42843599999999
 30
0.0
 11
24.403296
 21
16.42843599999999
 31
0.0
  0
LINE
  5
D37
330
18
100
AcDbEntity
  8
PART
100
AcDbLine
 10
19.51672
 20
16.92921899999999
 30
0.0
 11
24.904079
 21
16.92921899999999
 31
0.0
  0
ARC
  5
D38
330
18
100
AcDbEntity
  8
PART
100
AcDbCircle
 10
11.86629699999999
 20
16.987104
 30
0.0
 40
0.377745
100
AcDbArc
 50
48.481804
 51
131.518196
  0
ARC
  5
D39
330
18
100
AcDbEntity
  8
PART
100
AcDbCircle
 10
11.86629699999999
 20
16.486321
 30
0.0
 40
0.377745
100
AcDbArc
 50
48.481804
 51
131.518196
  0
ARC
  5
D3A
330
18
100
AcDbEntity
  8
PART
100
AcDbCircle
 10
11.86629699999999
 20
15.985538
 30
0.0
 40
0.377745
100
AcDbArc
 50
48.481804
 51
131.518196
  0
ARC
  5
D3B
330
18
100
AcDbEntity
  8
PART
100
AcDbCircle
 10
11.86629699999999
 20
15.48475499999999
 30
0.0
 40
0.377745
100
AcDbArc
 50
48.481804
 51
131.518196
  0
ARC
  5
D3C
330
18
100
AcDbEntity
  8
PART
100
AcDbCircle
 10
11.86629699999999
 20
14.983972
 30
0.0
 40
0.377745
100
AcDbArc
 50
48.481804
 51
131.518196
  0
ARC
  5
D3D
330
18
100
AcDbEntity
  8
PART
100
AcDbCircle
 10
11.86629699999999
 20
14.483189
 30
0.0
 40
0.377745
100
AcDbArc
 50
48.481804
 51
131.518196
  0
ARC
  5
D3E
330
18
100
AcDbEntity
  8
PART
100
AcDbCircle
 10
19.266328
 20
14.232797
 30
0.0
 40
0.377745
100
AcDbArc
 50
48.481804
 51
131.518196
  0
ARC
  5
D3F
330
18
100
AcDbEntity
  8
PART
100
AcDbCircle
 10
19.266328
 20
14.73357999999999
 30
0.0
 40
0.377745
100
AcDbArc
 50
48.481804
 51
131.518196
  0
ARC
  5
D40
330
18
100
AcDbEntity
  8
PART
100
AcDbCircle
 10
19.266328
 20
15.234363
 30
0.0
 40
0.377745
100
AcDbArc
 50
48.481804
 51
131.518196
  0
ARC
  5
D41
330
18
100
AcDbEntity
  8
PART
100
AcDbCircle
 10
19.266328
 20
16.235929
 30
0.0
 40
0.377745
100
AcDbArc
 50
48.481804
 51
131.518196
  0
ARC
  5
D42
330
18
100
AcDbEntity
  8
PART
100
AcDbCircle
 10
19.266328
 20
15.735146
 30
0.0
 40
0.377745
100
AcDbArc
 50
48.481804
 51
131.518196
  0
ARC
  5
D43
330
18
100
AcDbEntity
  8
PART
100
AcDbCircle
 10
19.266328
 20
16.736712
 30
0.0
 40
0.377745
100
AcDbArc
 50
48.481804
 51
131.518196
  0
TEXT
  5
D44
330
18
100
AcDbEntity
  8
TXT
100
AcDbText
 10
12.23654999999999
 20
17.28221
 30
0.0
 40
0.240376
  1
1
  7
ROMANS
100
AcDbText
  0
TEXT
  5
D45
330
18
100
AcDbEntity
  8
TXT
100
AcDbText
 10
12.23654999999999
 20
16.78142699999999
 30
0.0
 40
0.240376
  1
2
  7
ROMANS
100
AcDbText
  0
TEXT
  5
D46
330
18
100
AcDbEntity
  8
TXT
100
AcDbText
 10
12.23654999999999
 20
16.28064399999999
 30
0.0
 40
0.240376
  1
3
  7
ROMANS
100
AcDbText
  0
TEXT
  5
D47
330
18
100
AcDbEntity
  8
TXT
100
AcDbText
 10
12.23654999999999
 20
15.77986099999999
 30
0.0
 40
0.240376
  1
4
  7
ROMANS
100
AcDbText
  0
TEXT
  5
D48
330
18
100
AcDbEntity
  8
TXT
100
AcDbText
 10
12.23654999999999
 20
15.279078
 30
0.0
 40
0.240376
  1
5
  7
ROMANS
100
AcDbText
  0
TEXT
  5
D49
330
18
100
AcDbEntity
  8
TXT
100
AcDbText
 10
12.23654999999999
 20
14.778295
 30
0.0
 40
0.240376
  1
6
  7
ROMANS
100
AcDbText
  0
TEXT
  5
D4A
330
18
100
AcDbEntity
  8
TXT
100
AcDbText
 10
18.440978
 20
17.03181899999999
 30
0.0
 40
0.240376
  1
12
  7
ROMANS
100
AcDbText
  0
TEXT
  5
D4B
330
18
100
AcDbEntity
  8
TXT
100
AcDbText
 10
18.440978
 20
16.531036
 30
0.0
 40
0.240376
  1
11
  7
ROMANS
100
AcDbText
  0
TEXT
  5
D4C
330
18
100
AcDbEntity
  8
TXT
100
AcDbText
 10
18.440978
 20
16.03025299999999
 30
0.0
 40
0.240376
  1
10
  7
ROMANS
100
AcDbText
  0
TEXT
  5
D4D
330
18
100
AcDbEntity
  8
TXT
100
AcDbText
 10
18.679762
 20
15.52947
 30
0.0
 40
0.240376
  1
9
  7
ROMANS
100
AcDbText
  0
TEXT
  5
D4E
330
18
100
AcDbEntity
  8
TXT
100
AcDbText
 10
18.679762
 20
15.028687
 30
0.0
 40
0.240376
  1
8
  7
ROMANS
100
AcDbText
  0
TEXT
  5
D4F
330
18
100
AcDbEntity
  8
TXT
100
AcDbText
 10
18.679762
 20
14.527904
 30
0.0
 40
0.240376
  1
7
  7
ROMANS
100
AcDbText
  0
TEXT
  5
D54
330
18
100
AcDbEntity
  8
TXT
100
AcDbText
 10
6.129185952380952
 20
12.526173
 30
0.0
 40
0.240376
  1
1
  7
ROMANS
 72
     4
 11
6.226480999999999
 21
12.646361
 31
0.0
100
AcDbText
  0
TEXT
  5
D56
330
18
100
AcDbEntity
  8
TXT
100
AcDbText
 10
6.612799238095237
 20
12.526173
 30
0.0
 40
0.240376
  1
2
  7
ROMANS
 72
     4
 11
6.727263999999999
 21
12.646361
 31
0.0
100
AcDbText
  0
TEXT
  5
D57
330
18
100
AcDbEntity
  8
TXT
100
AcDbText
 10
7.113582238095237
 20
12.526173
 30
0.0
 40
0.240376
  1
3
  7
ROMANS
 72
     4
 11
7.228047
 21
12.646361
 31
0.0
100
AcDbText
  0
TEXT
  5
D58
330
18
100
AcDbEntity
  8
TXT
100
AcDbText
 10
7.608642
 20
12.526173
 30
0.0
 40
0.240376
  1
4
  7
ROMANS
 72
     4
 11
7.72883
 21
12.646361
 31
0.0
100
AcDbText
  0
TEXT
  5
D59
330
18
100
AcDbEntity
  8
TXT
100
AcDbText
 10
8.115148238095239
 20
12.526173
 30
0.0
 40
0.240376
  1
5
  7
ROMANS
 72
     4
 11
8.229613
 21
12.646361
 31
0.0
100
AcDbText
  0
TEXT
  5
D5A
330
18
100
AcDbEntity
  8
TXT
100
AcDbText
 10
8.610208
 20
12.526173
 30
0.0
 40
0.240376
  1
6
  7
ROMANS
 72
     4
 11
8.730396
 21
12.646361
 31
0.0
100
AcDbText
  0
TEXT
  5
D5B
330
18
100
AcDbEntity
  8
TXT
100
AcDbText
 10
22.28363423809523
 20
12.526173
 30
0.0
 40
0.240376
  1
7
  7
ROMANS
 72
     4
 11
22.398099
 21
12.646361
 31
0.0
100
AcDbText
  0
TEXT
  5
D5C
330
18
100
AcDbEntity
  8
TXT
100
AcDbText
 10
22.78441723809523
 20
12.526173
 30
0.0
 40
0.240376
  1
8
  7
ROMANS
 72
     4
 11
22.898882
 21
12.646361
 31
0.0
100
AcDbText
  0
TEXT
  5
D5D
330
18
100
AcDbEntity
  8
TXT
100
AcDbText
 10
23.29092347619047
 20
12.526173
 30
0.0
 40
0.240376
  1
9
  7
ROMANS
 72
     4
 11
23.399665
 21
12.646361
 31
0.0
100
AcDbText
  0
TEXT
  5
D5E
330
18
100
AcDbEntity
  8
TXT
100
AcDbText
 10
23.65434876190476
 20
12.526173
 30
0.0
 40
0.240376
  1
10
  7
ROMANS
 72
     4
 11
23.900448
 21
12.646361
 31
0.0
100
AcDbText
  0
TEXT
  5
D5F
330
18
100
AcDbEntity
  8
TXT
100
AcDbText
 10
24.18947119047619
 20
12.526173
 30
0.0
 40
0.240376
  1
11
  7
ROMANS
 72
     4
 11
24.401231
 21
12.646361
 31
0.0
100
AcDbText
  0
TEXT
  5
D60
330
18
100
AcDbEntity
  8
TXT
100
AcDbText
 10
24.65591476190476
 20
12.526173
 30
0.0
 40
0.240376
  1
12
  7
ROMANS
 72
     4
 11
24.902014
 21
12.646361
 31
0.0
100
AcDbText
  0
TEXT
  5
D63
330
18
100
AcDbEntity
  8
TXT
100
AcDbText
 10
6.178074999999999
 20
11.97307933333333
 30
0.0
 40
0.240376
  1
LINE OUTPUTS
  7
ROMANS
 11
6.178074999999999
 21
11.89295399999999
 31
0.0
100
AcDbText
 73
     1
  0
TEXT
  5
D65
330
18
100
AcDbEntity
  8
TXT
100
AcDbText
 10
22.243179
 20
11.58389933333333
 30
0.0
 40
0.240376
  1
(ENC12B ONLY)
  7
ROMANS
 11
22.243179
 21
11.50377399999999
 31
0.0
100
AcDbText
 73
     1
  0
TEXT
  5
D66
330
18
100
AcDbEntity
  8
TXT
100
AcDbText
 10
22.34969299999999
 20
11.97307933333333
 30
0.0
 40
0.240376
  1
LINE OUTPUTS
  7
ROMANS
 11
22.34969299999999
 21
11.89295399999999
 31
0.0
100
AcDbText
 73
     1
  0
TEXT
  5
D68
330
18
100
AcDbEntity
  8
TXT
100
AcDbText
 10
14.431034
 20
19.56183333333333
 30
0.0
 40
0.240376
  1
LINE INPUTS
  7
ROMANS
 11
14.431034
 21
19.48170799999999
 31
0.0
100
AcDbText
 73
     1
  0
TEXT
  5
D6C
330
18
100
AcDbEntity
  8
TXT
100
AcDbText
 10
14.42652876190476
 20
19.04359799999999
 30
0.0
 40
0.240376
  1
N
  7
ROMANS
 72
     4
 11
14.55243999999999
 21
19.16378599999999
 31
0.0
100
AcDbText
  0
TEXT
  5
D6D
330
18
100
AcDbEntity
  8
TXT
100
AcDbText
 10
14.94590095238095
 20
19.04359799999999
 30
0.0
 40
0.240376
  1
1
  7
ROMANS
 72
     4
 11
15.043196
 21
19.16378599999999
 31
0.0
100
AcDbText
  0
TEXT
  5
D6E
330
18
100
AcDbEntity
  8
TXT
100
AcDbText
 10
15.33009047619047
 20
19.04359799999999
 30
0.0
 40
0.240376
  1
2A
  7
ROMANS
 72
     4
 11
15.55902
 21
19.16378599999999
 31
0.0
100
AcDbText
  0
TEXT
  5
D6F
330
18
100
AcDbEntity
  8
TXT
100
AcDbText
 10
15.82515023809523
 20
19.04359799999999
 30
0.0
 40
0.240376
  1
2B
  7
ROMANS
 72
     4
 11
16.05980299999999
 21
19.16378599999999
 31
0.0
100
AcDbText
  0
TEXT
  5
D70
330
18
100
AcDbEntity
  8
TXT
100
AcDbText
 10
16.44612123809523
 20
19.04359799999999
 30
0.0
 40
0.240376
  1
3
  7
ROMANS
 72
     4
 11
16.56058599999999
 21
19.16378599999999
 31
0.0
100
AcDbText
  0
TEXT
  5
D74
330
18
100
AcDbEntity
  8
TXT
100
AcDbText
 10
10.58727899999999
 20
18.72991
 30
0.0
 40
0.240376
  1
CIRCUIT
  7
ROMANS
100
AcDbText
  0
TEXT
  5
D75
330
18
100
AcDbEntity
  8
TXT
100
AcDbText
 10
10.58727899999999
 20
18.34072999999999
 30
0.0
 40
0.240376
  1
BREAKERS
  7
ROMANS
100
AcDbText
  0
TEXT
  5
D77
330
18
100
AcDbEntity
  8
TXT
100
AcDbText
 10
17.62935299999999
 20
18.72991
 30
0.0
 40
0.240376
  1
CIRCUIT
  7
ROMANS
100
AcDbText
  0
TEXT
  5
D78
330
18
100
AcDbEntity
  8
TXT
100
AcDbText
 10
17.62935299999999
 20
18.34072999999999
 30
0.0
 40
0.240376
  1
BREAKERS
  7
ROMANS
100
AcDbText
  0
TEXT
  5
D79
330
18
100
AcDbEntity
  8
TXT
100
AcDbText
 10
17.62935299999999
 20
17.95155
 30
0.0
 40
0.240376
  1
(ENC12B ONLY)
  7
ROMANS
100
AcDbText
  0
TEXT
  5
D7D
330
18
100
AcDbEntity
  8
TXT
100
AcDbText
 10
11.165438
 20
8.497863
 30
0.0
 40
0.240376
  1
WHITE
  7
ROMANS
100
AcDbText
  0
TEXT
  5
D7E
330
18
100
AcDbEntity
  8
TXT
100
AcDbText
 10
11.165438
 20
7.99708
 30
0.0
 40
0.240376
  1
BLACK
  7
ROMANS
100
AcDbText
  0
TEXT
  5
D7F
330
18
100
AcDbEntity
  8
TXT
100
AcDbText
 10
11.165438
 20
7.496297999999999
 30
0.0
 40
0.240376
  1
RED
  7
ROMANS
100
AcDbText
  0
TEXT
  5
D80
330
18
100
AcDbEntity
  8
TXT
100
AcDbText
 10
11.165438
 20
6.995514999999999
 30
0.0
 40
0.240376
  1
YELLOW
  7
ROMANS
100
AcDbText
  0
TEXT
  5
D81
330
18
100
AcDbEntity
  8
TXT
100
AcDbText
 10
11.165438
 20
6.494731999999999
 30
0.0
 40
0.240376
  1
BLUE
  7
ROMANS
100
AcDbText
  0
TEXT
  5
D82
330
18
100
AcDbEntity
  8
TXT
100
AcDbText
 10
9.130945
 20
6.263923
 30
0.0
 40
0.240376
  1
LINE 3
  7
ROMANS
100
AcDbText
  0
TEXT
  5
D83
330
18
100
AcDbEntity
  8
TXT
100
AcDbText
 10
8.884836999999999
 20
6.764705999999999
 30
0.0
 40
0.240376
  1
LINE 2B
  7
ROMANS
100
AcDbText
  0
TEXT
  5
D84
330
18
100
AcDbEntity
  8
TXT
100
AcDbText
 10
8.884836999999999
 20
7.265488
 30
0.0
 40
0.240376
  1
LINE 2A
  7
ROMANS
100
AcDbText
  0
TEXT
  5
D85
330
18
100
AcDbEntity
  8
TXT
100
AcDbText
 10
9.212980999999999
 20
7.766271
 30
0.0
 40
0.240376
  1
LINE 1
  7
ROMANS
100
AcDbText
  0
TEXT
  5
D86
330
18
100
AcDbEntity
  8
TXT
100
AcDbText
 10
8.769987
 20
8.267053999999999
 30
0.0
 40
0.240376
  1
NEUTRAL
  7
ROMANS
100
AcDbText
  0
TEXT
  5
D88
330
18
100
AcDbEntity
  8
TXT
100
AcDbText
 10
20.878933
 20
7.265488
 30
0.0
 40
0.240376
  1
LINE 2A
  7
ROMANS
100
AcDbText
  0
TEXT
  5
D89
330
18
100
AcDbEntity
  8
TXT
100
AcDbText
 10
20.88084299999999
 20
6.263923
 30
0.0
 40
0.240376
  1
LINE 3
  7
ROMANS
100
AcDbText
  0
TEXT
  5
D8A
330
18
100
AcDbEntity
  8
TXT
100
AcDbText
 10
20.878933
 20
6.764705999999999
 30
0.0
 40
0.240376
  1
LINE 2B
  7
ROMANS
100
AcDbText
  0
TEXT
  5
D8B
330
18
100
AcDbEntity
  8
TXT
100
AcDbText
 10
20.878673
 20
7.766271
 30
0.0
 40
0.240376
  1
LINE 1
  7
ROMANS
100
AcDbText
  0
TEXT
  5
D8C
330
18
100
AcDbEntity
  8
TXT
100
AcDbText
 10
20.873551
 20
8.267053999999999
 30
0.0
 40
0.240376
  1
NEUTRAL
  7
ROMANS
100
AcDbText
  0
TEXT
  5
D8F
330
18
100
AcDbEntity
  8
TXT
100
AcDbText
 10
18.603628
 20
6.995514999999999
 30
0.0
 40
0.240376
  1
YELLOW
  7
ROMANS
100
AcDbText
  0
TEXT
  5
D90
330
18
100
AcDbEntity
  8
TXT
100
AcDbText
 10
18.603628
 20
6.494731999999999
 30
0.0
 40
0.240376
  1
BLUE
  7
ROMANS
100
AcDbText
  0
TEXT
  5
D91
330
18
100
AcDbEntity
  8
TXT
100
AcDbText
 10
18.603628
 20
7.99708
 30
0.0
 40
0.240376
  1
BLACK
  7
ROMANS
100
AcDbText
  0
TEXT
  5
D92
330
18
100
AcDbEntity
  8
TXT
100
AcDbText
 10
18.603628
 20
7.496297999999999
 30
0.0
 40
0.240376
  1
RED
  7
ROMANS
100
AcDbText
  0
TEXT
  5
D93
330
18
100
AcDbEntity
  8
TXT
100
AcDbText
 10
18.603628
 20
8.497863
 30
0.0
 40
0.240376
  1
WHITE
  7
ROMANS
100
AcDbText
  0
TEXT
  5
D9B
330
18
100
AcDbEntity
  8
TXT
100
AcDbText
 10
23.17498599999999
 20
6.869228999999998
 30
0.0
 40
0.240376
  1
(ENC12B ONLY)
  7
ROMANS
100
AcDbText
  0
TEXT
  5
D9C
330
18
100
AcDbEntity
  8
TXT
100
AcDbText
 10
23.17498599999999
 20
7.258408999999999
 30
0.0
 40
0.240376
  1
POWER
  7
ROMANS
100
AcDbText
  0
TEXT
  5
D9D
330
18
100
AcDbEntity
  8
TXT
100
AcDbText
 10
23.17498599999999
 20
7.647588999999999
 30
0.0
 40
0.240376
  1
CIRCUITRY
  7
ROMANS
100
AcDbText
  0
TEXT
  5
D9E
330
18
100
AcDbEntity
  8
TXT
100
AcDbText
 10
23.17498599999999
 20
8.036768999999999
 30
0.0
 40
0.240376
  1
CONTROL
  7
ROMANS
100
AcDbText
  0
TEXT
  5
DA7
330
18
100
AcDbEntity
  8
TXT
100
AcDbText
 10
6.761016999999999
 20
7.258408999999999
 30
0.0
 40
0.240376
  1
POWER
  7
ROMANS
100
AcDbText
  0
TEXT
  5
DA8
330
18
100
AcDbEntity
  8
TXT
100
AcDbText
 10
6.361688
 20
8.036768999999999
 30
0.0
 40
0.240376
  1
CONTROL
  7
ROMANS
100
AcDbText
  0
TEXT
  5
DA9
330
18
100
AcDbEntity
  8
TXT
100
AcDbText
 10
6.185983
 20
7.647588999999999
 30
0.0
 40
0.240376
  1
CIRCUITRY
  7
ROMANS
100
AcDbText
  0
TEXT
  5
19BE
330
18
100
AcDbEntity
  8
DIM
100
AcDbText
 10
51.37536400000001
 20
38.30795
 30
0.0
 40
0.0902
  1
 
 50
90.0
  7
X-HLVM1S
100
AcDbText
  0
TEXT
  5
19BF
330
18
100
AcDbEntity
  8
DIM
100
AcDbText
 10
51.804364
 20
38.30795
 30
0.0
 40
0.0902
  1
 
 50
90.0
  7
X-HLVM1S
100
AcDbText
  0
TEXT
  5
19C0
330
18
100
AcDbEntity
  8
DIM
100
AcDbText
 10
51.661364
 20
38.30795
 30
0.0
 40
0.0902
  1
 
 50
90.0
  7
X-HLVM1S
100
AcDbText
  0
TEXT
  5
19C1
330
18
100
AcDbEntity
  8
DIM
100
AcDbText
 10
51.518364
 20
38.30795
 30
0.0
 40
0.0902
  1
 
 50
90.0
  7
X-HLVM1S
100
AcDbText
  0
TEXT
  5
19C2
330
18
100
AcDbEntity
  8
DIM
100
AcDbText
 10
29.20118
 20
16.194302
 30
0.0
 40
0.0902
  1
 
 50
90.0
  7
X-HLVM1S
100
AcDbText
  0
TEXT
  5
19C3
330
18
100
AcDbEntity
  8
DIM
100
AcDbText
 10
29.63017999999999
 20
16.194302
 30
0.0
 40
0.0902
  1
 
 50
90.0
  7
X-HLVM1S
100
AcDbText
  0
TEXT
  5
19C4
330
18
100
AcDbEntity
  8
DIM
100
AcDbText
 10
29.48717999999999
 20
16.194302
 30
0.0
 40
0.0902
  1
 
 50
90.0
  7
X-HLVM1S
100
AcDbText
  0
TEXT
  5
19C5
330
18
100
AcDbEntity
  8
DIM
100
AcDbText
 10
29.34417999999999
 20
16.194302
 30
0.0
 40
0.0902
  1
 
 50
90.0
  7
X-HLVM1S
100
AcDbText
  0
TEXT
  5
19C6
330
18
100
AcDbEntity
  8
DIM
100
AcDbText
 10
67.63252699999999
 20
36.28485599999999
 30
0.0
 40
0.0902
  1
 
 50
90.0
  7
X-HLVM1S
100
AcDbText
  0
TEXT
  5
19C7
330
18
100
AcDbEntity
  8
DIM
100
AcDbText
 10
67.775527
 20
36.28485599999999
 30
0.0
 40
0.0902
  1
 
 50
90.0
  7
X-HLVM1S
100
AcDbText
  0
TEXT
  5
19C8
330
18
100
AcDbEntity
  8
DIM
100
AcDbText
 10
67.91852699999999
 20
36.28485599999999
 30
0.0
 40
0.0902
  1
 
 50
90.0
  7
X-HLVM1S
100
AcDbText
  0
TEXT
  5
19C9
330
18
100
AcDbEntity
  8
DIM
100
AcDbText
 10
67.489527
 20
36.28485599999999
 30
0.0
 40
0.0902
  1
 
 50
90.0
  7
X-HLVM1S
100
AcDbText
  0
TEXT
  5
19CA
330
18
100
AcDbEntity
  8
DIM
100
AcDbText
 10
89.806711
 20
58.398505
 30
0.0
 40
0.0902
  1
 
 50
90.0
  7
X-HLVM1S
100
AcDbText
  0
TEXT
  5
19CB
330
18
100
AcDbEntity
  8
DIM
100
AcDbText
 10
89.94971099999998
 20
58.398505
 30
0.0
 40
0.0902
  1
 
 50
90.0
  7
X-HLVM1S
100
AcDbText
  0
TEXT
  5
19CC
330
18
100
AcDbEntity
  8
DIM
100
AcDbText
 10
90.09271099999999
 20
58.398505
 30
0.0
 40
0.0902
  1
 
 50
90.0
  7
X-HLVM1S
100
AcDbText
  0
TEXT
  5
19CD
330
18
100
AcDbEntity
  8
DIM
100
AcDbText
 10
89.66371099999999
 20
58.398505
 30
0.0
 40
0.0902
  1
 
 50
90.0
  7
X-HLVM1S
100
AcDbText
  0
TEXT
  5
19CE
330
18
100
AcDbEntity
  8
DIM
100
AcDbText
 10
106.492348
 20
58.072887
 30
0.0
 40
0.0902
  1
 
 50
90.0
  7
X-HLVM1S
100
AcDbText
  0
TEXT
  5
19CF
330
18
100
AcDbEntity
  8
DIM
100
AcDbText
 10
106.6353479999999
 20
58.072887
 30
0.0
 40
0.0902
  1
 
 50
90.0
  7
X-HLVM1S
100
AcDbText
  0
TEXT
  5
19D0
330
18
100
AcDbEntity
  8
DIM
100
AcDbText
 10
106.7783479999999
 20
58.072887
 30
0.0
 40
0.0902
  1
 
 50
90.0
  7
X-HLVM1S
100
AcDbText
  0
TEXT
  5
19D1
330
18
100
AcDbEntity
  8
DIM
100
AcDbText
 10
106.3493479999999
 20
58.072887
 30
0.0
 40
0.0902
  1
 
 50
90.0
  7
X-HLVM1S
100
AcDbText
  0
TEXT
  5
19D2
330
18
100
AcDbEntity
  8
DIM
100
AcDbText
 10
128.666532
 20
80.186536
 30
0.0
 40
0.0902
  1
 
 50
90.0
  7
X-HLVM1S
100
AcDbText
  0
TEXT
  5
19D3
330
18
100
AcDbEntity
  8
DIM
100
AcDbText
 10
128.809532
 20
80.186536
 30
0.0
 40
0.0902
  1
 
 50
90.0
  7
X-HLVM1S
100
AcDbText
  0
TEXT
  5
19D4
330
18
100
AcDbEntity
  8
DIM
100
AcDbText
 10
128.952532
 20
80.186536
 30
0.0
 40
0.0902
  1
 
 50
90.0
  7
X-HLVM1S
100
AcDbText
  0
TEXT
  5
19D5
330
18
100
AcDbEntity
  8
DIM
100
AcDbText
 10
128.523532
 20
80.186536
 30
0.0
 40
0.0902
  1
 
 50
90.0
  7
X-HLVM1S
100
AcDbText
  0
TEXT
  5
19D6
330
18
100
AcDbEntity
  8
DIM
100
AcDbText
 10
90.45509
 20
54.906274
 30
0.0
 40
0.0902
  1
 
 50
90.0
  7
X-HLVM1S
100
AcDbText
  0
TEXT
  5
19D7
330
18
100
AcDbEntity
  8
DIM
100
AcDbText
 10
90.88409
 20
54.906274
 30
0.0
 40
0.0902
  1
 
 50
90.0
  7
X-HLVM1S
100
AcDbText
  0
TEXT
  5
19D8
330
18
100
AcDbEntity
  8
DIM
100
AcDbText
 10
90.74108999999999
 20
54.906274
 30
0.0
 40
0.0902
  1
 
 50
90.0
  7
X-HLVM1S
100
AcDbText
  0
TEXT
  5
19D9
330
18
100
AcDbEntity
  8
DIM
100
AcDbText
 10
90.59808999999999
 20
54.906274
 30
0.0
 40
0.0902
  1
 
 50
90.0
  7
X-HLVM1S
100
AcDbText
  0
TEXT
  5
19DA
330
18
100
AcDbEntity
  8
DIM
100
AcDbText
 10
68.280906
 20
32.792626
 30
0.0
 40
0.0902
  1
 
 50
90.0
  7
X-HLVM1S
100
AcDbText
  0
TEXT
  5
19DB
330
18
100
AcDbEntity
  8
DIM
100
AcDbText
 10
68.709906
 20
32.792626
 30
0.0
 40
0.0902
  1
 
 50
90.0
  7
X-HLVM1S
100
AcDbText
  0
TEXT
  5
19DC
330
18
100
AcDbEntity
  8
DIM
100
AcDbText
 10
68.566906
 20
32.792626
 30
0.0
 40
0.0902
  1
 
 50
90.0
  7
X-HLVM1S
100
AcDbText
  0
TEXT
  5
19DD
330
18
100
AcDbEntity
  8
DIM
100
AcDbText
 10
68.423906
 20
32.792626
 30
0.0
 40
0.0902
  1
 
 50
90.0
  7
X-HLVM1S
100
AcDbText
  0
TEXT
  5
19DE
330
18
100
AcDbEntity
  8
DIM
100
AcDbText
 10
106.712253
 20
52.88318
 30
0.0
 40
0.0902
  1
 
 50
90.0
  7
X-HLVM1S
100
AcDbText
  0
TEXT
  5
19DF
330
18
100
AcDbEntity
  8
DIM
100
AcDbText
 10
106.855253
 20
52.88318
 30
0.0
 40
0.0902
  1
 
 50
90.0
  7
X-HLVM1S
100
AcDbText
  0
TEXT
  5
19E0
330
18
100
AcDbEntity
  8
DIM
100
AcDbText
 10
106.998253
 20
52.88318
 30
0.0
 40
0.0902
  1
 
 50
90.0
  7
X-HLVM1S
100
AcDbText
  0
TEXT
  5
19E1
330
18
100
AcDbEntity
  8
DIM
100
AcDbText
 10
106.5692529999999
 20
52.88318
 30
0.0
 40
0.0902
  1
 
 50
90.0
  7
X-HLVM1S
100
AcDbText
  0
TEXT
  5
19E2
330
18
100
AcDbEntity
  8
DIM
100
AcDbText
 10
128.8864369999999
 20
74.996829
 30
0.0
 40
0.0902
  1
 
 50
90.0
  7
X-HLVM1S
100
AcDbText
  0
TEXT
  5
19E3
330
18
100
AcDbEntity
  8
DIM
100
AcDbText
 10
129.029437
 20
74.996829
 30
0.0
 40
0.0902
  1
 
 50
90.0
  7
X-HLVM1S
100
AcDbText
  0
TEXT
  5
19E4
330
18
100
AcDbEntity
  8
DIM
100
AcDbText
 10
129.172437
 20
74.996829
 30
0.0
 40
0.0902
  1
 
 50
90.0
  7
X-HLVM1S
100
AcDbText
  0
TEXT
  5
19E5
330
18
100
AcDbEntity
  8
DIM
100
AcDbText
 10
128.7434369999999
 20
74.996829
 30
0.0
 40
0.0902
  1
 
 50
90.0
  7
X-HLVM1S
100
AcDbText
  0
TEXT
  5
19E6
330
18
100
AcDbEntity
  8
DIM
100
AcDbText
 10
145.5720739999999
 20
74.67121099999999
 30
0.0
 40
0.0902
  1
 
 50
90.0
  7
X-HLVM1S
100
AcDbText
  0
TEXT
  5
19E7
330
18
100
AcDbEntity
  8
DIM
100
AcDbText
 10
145.7150739999999
 20
74.67121099999999
 30
0.0
 40
0.0902
  1
 
 50
90.0
  7
X-HLVM1S
100
AcDbText
  0
TEXT
  5
19E8
330
18
100
AcDbEntity
  8
DIM
100
AcDbText
 10
145.8580739999999
 20
74.67121099999999
 30
0.0
 40
0.0902
  1
 
 50
90.0
  7
X-HLVM1S
100
AcDbText
  0
TEXT
  5
19E9
330
18
100
AcDbEntity
  8
DIM
100
AcDbText
 10
145.4290739999999
 20
74.67121099999999
 30
0.0
 40
0.0902
  1
 
 50
90.0
  7
X-HLVM1S
100
AcDbText
  0
TEXT
  5
19EA
330
18
100
AcDbEntity
  8
DIM
100
AcDbText
 10
167.746258
 20
96.78485999999999
 30
0.0
 40
0.0902
  1
 
 50
90.0
  7
X-HLVM1S
100
AcDbText
  0
TEXT
  5
19EB
330
18
100
AcDbEntity
  8
DIM
100
AcDbText
 10
167.889258
 20
96.78485999999999
 30
0.0
 40
0.0902
  1
 
 50
90.0
  7
X-HLVM1S
100
AcDbText
  0
TEXT
  5
19EC
330
18
100
AcDbEntity
  8
DIM
100
AcDbText
 10
168.032258
 20
96.78485999999999
 30
0.0
 40
0.0902
  1
 
 50
90.0
  7
X-HLVM1S
100
AcDbText
  0
TEXT
  5
19ED
330
18
100
AcDbEntity
  8
DIM
100
AcDbText
 10
167.603258
 20
96.78485999999999
 30
0.0
 40
0.0902
  1
 
 50
90.0
  7
X-HLVM1S
100
AcDbText
  0
LWPOLYLINE
  5
19EE
330
18
100
AcDbEntity
  8
0
100
AcDbPolyline
 90
        4
 70
     1
 43
0.0
 10
0.0
 20
0.0
 10
37.4
 20
0.0
 10
37.4
 20
24.19999999999999
 10
0.0
 20
24.19999999999999
  0
LWPOLYLINE
  5
19F4
330
18
100
AcDbEntity
  8
FORMAT
100
AcDbPolyline
 90
        4
 70
     1
 43
0.033
 10
0.55
 20
0.55
 10
36.85
 20
0.55
 10
36.85
 20
23.64999999999999
 10
0.55
 20
23.64999999999999
  0
LWPOLYLINE
  5
19FA
330
18
100
AcDbEntity
  8
FORMAT
100
AcDbPolyline
 90
        2
 70
     0
 43
0.02178
 10
23.504841
 20
3.514508999999999
 10
36.85
 20
3.514508999999999
  0
LWPOLYLINE
  5
19FE
330
18
100
AcDbEntity
  8
FORMAT
100
AcDbPolyline
 90
        2
 70
     0
 43
0.02178
 10
23.504841
 20
0.55
 10
23.504841
 20
3.514508999999999
  0
TEXT
  5
1A02
330
18
100
AcDbEntity
  8
FORMAT
100
AcDbText
 10
23.733187
 20
0.7213000000000001
 30
0.0
 40
0.148975
  1
written permission.
  7
ARIAL
100
AcDbText
  0
TEXT
  5
1A03
330
18
100
AcDbEntity
  8
FORMAT
100
AcDbText
 10
23.717944
 20
3.216922
 30
0.0
 40
0.148975
  1
NOTICE:   This drawing is the 
  7
ARIAL
100
AcDbText
  0
TEXT
  5
1A04
330
18
100
AcDbEntity
  8
FORMAT
100
AcDbText
 10
23.72007799999999
 20
2.96609
 30
0.0
 40
0.148975
  1
property of AMX Corporation.
  7
ARIAL
100
AcDbText
  0
TEXT
  5
1A05
330
18
100
AcDbEntity
  8
FORMAT
100
AcDbText
 10
23.730139
 20
2.466965
 30
0.0
 40
0.148975
  1
that is not generally known 
  7
ARIAL
100
AcDbText
  0
TEXT
  5
1A06
330
18
100
AcDbEntity
  8
FORMAT
100
AcDbText
 10
23.727395
 20
2.216133
 30
0.0
 40
0.148975
  1
shall be confidential except
  7
ARIAL
100
AcDbText
  0
TEXT
  5
1A07
330
18
100
AcDbEntity
  8
FORMAT
100
AcDbText
 10
23.730139
 20
1.9653
 30
0.0
 40
0.148975
  1
to the extent the information
  7
ARIAL
100
AcDbText
  0
TEXT
  5
1A08
330
18
100
AcDbEntity
  8
FORMAT
100
AcDbText
 10
23.72007799999999
 20
1.717008
 30
0.0
 40
0.148975
  1
has been previously established.
  7
ARIAL
100
AcDbText
  0
TEXT
  5
1A09
330
18
100
AcDbEntity
  8
FORMAT
100
AcDbText
 10
23.728919
 20
1.468715999999999
 30
0.0
 40
0.148975
  1
This drawing may not be copied,
  7
ARIAL
100
AcDbText
  0
TEXT
  5
1A0A
330
18
100
AcDbEntity
  8
FORMAT
100
AcDbText
 10
23.73186599999999
 20
0.969592
 30
0.0
 40
0.148975
  1
for manufacture or sale without
  7
ARIAL
100
AcDbText
  0
TEXT
  5
1A0B
330
18
100
AcDbEntity
  8
FORMAT
100
AcDbText
 10
23.720282
 20
1.220423999999999
 30
0.0
 40
0.148975
  1
reproduced, or used as the basis
  7
ARIAL
100
AcDbText
  0
TEXT
  5
1A0C
330
18
100
AcDbEntity
  8
FORMAT
100
AcDbText
 10
23.719977
 20
2.715256999999999
 30
0.0
 40
0.148975
  1
All information contained herein
  7
ARIAL
100
AcDbText
  0
LWPOLYLINE
  5
1A0D
330
18
100
AcDbEntity
  8
FORMAT
100
AcDbPolyline
 90
        2
 70
     0
 43
0.01452
 10
34.88578799999999
 20
0.55
 10
34.88578799999999
 20
0.9129999999999999
  0
TEXT
  5
1A11
330
18
100
AcDbEntity
  8
FORMAT
100
AcDbText
 10
34.98264499999999
 20
0.673928
 30
0.0
 40
0.132
  1
SHEET
  7
ARIAL
100
AcDbText
  0
LWPOLYLINE
  5
1A12
330
18
100
AcDbEntity
  8
FORMAT
100
AcDbPolyline
 90
        2
 70
     0
 43
0.02178
 10
30.678855
 20
0.55
 10
30.678855
 20
3.514508999999999
  0
LWPOLYLINE
  5
1A16
330
18
100
AcDbEntity
  8
FORMAT
100
AcDbPolyline
 90
        4
 70
     1
 43
0.01452
 10
29.69571
 20
0.9765829999999999
 10
30.08774999999999
 20
1.080037999999999
 10
30.08774999999999
 20
0.7037510000000001
 10
29.69571
 20
0.8023430000000001
  0
LWPOLYLINE
  5
1A1C
330
18
100
AcDbEntity
  8
FORMAT
100
AcDbPolyline
 90
        2
 70
     0
 43
0.02178
 10
26.86749999999999
 20
0.55
 10
26.86749999999999
 20
3.514508999999999
  0
TEXT
  5
1A20
330
18
100
AcDbEntity
  8
FORMAT
100
AcDbText
 10
27.416206
 20
0.722362
 30
0.0
 40
0.1089
  1
PROJECTION
  7
ARIAL
100
AcDbText
  0
LWPOLYLINE
  5
1A21
330
18
100
AcDbEntity
  8
FORMAT
100
AcDbPolyline
 90
        2
 70
     1
 43
0.01452
 10
29.39602999999999
 20
0.8894629999999999
 42
1.0
 10
29.01488
 20
0.8894629999999999
 42
1.0
  0
LWPOLYLINE
  5
1A25
330
18
100
AcDbEntity
  8
FORMAT
100
AcDbPolyline
 90
        2
 70
     0
 43
0.01452
 10
29.205455
 20
0.8248569999999999
 10
29.205455
 20
0.6430020000000001
  0
TEXT
  5
1A29
330
18
100
AcDbEntity
  8
FORMAT
100
AcDbText
 10
26.981046
 20
1.621627
 30
0.0
 40
0.1089
  1
MATL SUP
  7
ARIAL
100
AcDbText
  0
TEXT
  5
1A2A
330
18
100
AcDbEntity
  8
FORMAT
100
AcDbText
 10
26.981046
 20
1.27217
 30
0.0
 40
0.1089
  1
QUALITY
  7
ARIAL
100
AcDbText
  0
LWPOLYLINE
  5
1A2B
330
18
100
AcDbEntity
  8
FORMAT
100
AcDbPolyline
 90
        2
 70
     0
 43
0.01452
 10
36.3055
 20
0.9129999999999999
 10
36.3055
 20
1.434268
  0
TEXT
  5
1A2F
330
18
100
AcDbEntity
  8
FORMAT
100
AcDbText
 10
36.38983404092769
 20
1.276
 30
0.0
 40
0.12342
  1
REV.
  7
ARIAL
 72
     1
 11
36.591044
 21
1.276
 31
0.0
100
AcDbText
  0
LWPOLYLINE
  5
1A30
330
18
100
AcDbEntity
  8
FORMAT
100
AcDbPolyline
 90
        2
 70
     0
 43
0.01452
 10
32.867251
 20
0.9129999999999999
 10
32.867251
 20
1.434268
  0
TEXT
  5
1A34
330
18
100
AcDbEntity
  8
FORMAT
100
AcDbText
 10
32.91935
 20
1.276
 30
0.0
 40
0.12342
  1
DWG. NO.
  7
ARIAL
100
AcDbText
  0
LWPOLYLINE
  5
1A35
330
18
100
AcDbEntity
  8
FORMAT
100
AcDbPolyline
 90
        2
 70
     0
 43
0.01452
 10
31.246151
 20
0.9129999999999999
 10
31.246151
 20
1.434268
  0
TEXT
  5
1A39
330
18
100
AcDbEntity
  8
FORMAT
100
AcDbText
 10
30.76812199999999
 20
1.276
 30
0.0
 40
0.12342
  1
SIZE
  7
ARIAL
100
AcDbText
  0
LWPOLYLINE
  5
1A3A
330
18
100
AcDbEntity
  8
FORMAT
100
AcDbPolyline
 90
        2
 70
     0
 43
0.01452
 10
29.27006099999999
 20
0.8894629999999999
 10
29.436332
 20
0.8894629999999999
  0
LWPOLYLINE
  5
1A3E
330
18
100
AcDbEntity
  8
FORMAT
100
AcDbPolyline
 90
        2
 70
     0
 43
0.02178
 10
29.794296
 20
1.18142
 10
29.794296
 20
3.514508999999999
  0
TEXT
  5
1A42
330
18
100
AcDbEntity
  8
FORMAT
100
AcDbText
 10
29.916612
 20
3.352104
 30
0.0
 40
0.09801
  1
REV APPR
  7
ARIAL
100
AcDbText
  0
LWPOLYLINE
  5
1A43
330
18
100
AcDbEntity
  8
FORMAT
  6
CENTER
100
AcDbPolyline
 90
        2
 70
     0
 43
0.01452
 10
29.467487
 20
0.8894629999999999
 10
30.180188
 20
0.8894629999999999
  0
LWPOLYLINE
  5
1A47
330
18
100
AcDbEntity
  8
FORMAT
100
AcDbPolyline
 90
        2
 70
     0
 43
0.01452
 10
28.962392
 20
0.8894629999999999
 10
29.14084799999999
 20
0.8894629999999999
  0
LWPOLYLINE
  5
1A4B
330
18
100
AcDbEntity
  8
FORMAT
100
AcDbPolyline
 90
        2
 70
     0
 43
0.02178
 10
28.909738
 20
1.18142
 10
28.909738
 20
3.514508999999999
  0
LWPOLYLINE
  5
1A4F
330
18
100
AcDbEntity
  8
FORMAT
100
AcDbPolyline
 90
        2
 70
     0
 43
0.02178
 10
27.979296
 20
1.18142
 10
27.979296
 20
3.514508999999999
  0
TEXT
  5
1A53
330
18
100
AcDbEntity
  8
FORMAT
100
AcDbText
 10
29.03816799999999
 20
3.352104
 30
0.0
 40
0.09801
  1
REL DATE
  7
ARIAL
100
AcDbText
  0
TEXT
  5
1A54
330
18
100
AcDbEntity
  8
FORMAT
100
AcDbText
 10
26.981046
 20
3.019455999999999
 30
0.0
 40
0.1089
  1
DRAWN
  7
ARIAL
100
AcDbText
  0
TEXT
  5
1A55
330
18
100
AcDbEntity
  8
FORMAT
100
AcDbText
 10
26.981046
 20
2.676681
 30
0.0
 40
0.1089
  1
ENGR SERV
  7
ARIAL
100
AcDbText
  0
TEXT
  5
1A56
330
18
100
AcDbEntity
  8
FORMAT
100
AcDbText
 10
26.981046
 20
1.975375
 30
0.0
 40
0.1089
  1
PROD ENGR
  7
ARIAL
100
AcDbText
  0
TEXT
  5
1A57
330
18
100
AcDbEntity
  8
FORMAT
100
AcDbText
 10
26.981046
 20
2.319811
 30
0.0
 40
0.1089
  1
ENGINEER
  7
ARIAL
100
AcDbText
  0
TEXT
  5
1A58
330
18
100
AcDbEntity
  8
FORMAT
100
AcDbText
 10
27.416206
 20
0.9712759999999999
 30
0.0
 40
0.1089
  1
THIRD ANGLE
  7
ARIAL
100
AcDbText
  0
LWPOLYLINE
  5
1A59
330
18
100
AcDbEntity
  8
FORMAT
100
AcDbPolyline
 90
        2
 70
     0
 43
0.02178
 10
26.86749999999999
 20
2.928706
 10
30.679
 20
2.928706
  0
LWPOLYLINE
  5
1A5D
330
18
100
AcDbEntity
  8
FORMAT
100
AcDbPolyline
 90
        2
 70
     0
 43
0.02178
 10
26.86749999999999
 20
3.278162999999999
 10
30.679
 20
3.278162999999999
  0
LWPOLYLINE
  5
1A61
330
18
100
AcDbEntity
  8
FORMAT
100
AcDbPolyline
 90
        2
 70
     0
 43
0.02178
 10
26.86749999999999
 20
2.579249
 10
30.679
 20
2.579249
  0
LWPOLYLINE
  5
1A65
330
18
100
AcDbEntity
  8
FORMAT
100
AcDbPolyline
 90
        2
 70
     0
 43
0.02178
 10
26.86749999999999
 20
2.229791999999999
 10
30.679
 20
2.229791999999999
  0
LWPOLYLINE
  5
1A69
330
18
100
AcDbEntity
  8
FORMAT
100
AcDbPolyline
 90
        2
 70
     0
 43
0.02178
 10
26.86749999999999
 20
1.530877
 10
30.679
 20
1.530877
  0
LWPOLYLINE
  5
1A6D
330
18
100
AcDbEntity
  8
FORMAT
100
AcDbPolyline
 90
        2
 70
     0
 43
0.02178
 10
26.86749999999999
 20
1.880333999999999
 10
30.679
 20
1.880333999999999
  0
LWPOLYLINE
  5
1A71
330
18
100
AcDbEntity
  8
FORMAT
100
AcDbPolyline
 90
        2
 70
     0
 43
0.02178
 10
26.86749999999999
 20
1.18142
 10
30.679
 20
1.18142
  0
TEXT
  5
1A75
330
18
100
AcDbEntity
  8
FORMAT
100
AcDbText
 10
28.095706
 20
3.352104
 30
0.0
 40
0.09801
  1
REL APPR
  7
ARIAL
100
AcDbText
  0
LWPOLYLINE
  5
1A76
330
18
100
AcDbEntity
  8
FORMAT
100
AcDbPolyline
 90
        2
 70
     1
 43
0.01452
 10
29.292575
 20
0.8894629999999999
 42
1.0
 10
29.118335
 20
0.8894629999999999
 42
1.0
  0
LWPOLYLINE
  5
1A7A
330
18
100
AcDbEntity
  8
FORMAT
100
AcDbPolyline
 90
        2
 70
     0
 43
0.01452
 10
29.205455
 20
1.141605999999999
 10
29.205455
 20
0.9540690000000001
  0
LWPOLYLINE
  5
1A7E
330
18
100
AcDbEntity
  8
FORMAT
100
AcDbPolyline
 90
        2
 70
     0
 43
0.01452
 10
29.177148
 20
0.8894629999999999
 10
29.233761
 20
0.8894629999999999
  0
LWPOLYLINE
  5
1A82
330
18
100
AcDbEntity
  8
FORMAT
100
AcDbPolyline
 90
        2
 70
     0
 43
0.01452
 10
29.205455
 20
0.917769
 10
29.205455
 20
0.861157
  0
TEXT
  5
1A86
330
18
100
AcDbEntity
  8
FORMAT
100
AcDbText
 10
30.87035999999999
 20
0.9746459999999999
 30
0.0
 40
0.22
  1
D
  7
ARIAL
100
AcDbText
  0
LWPOLYLINE
  5
1A87
330
18
100
AcDbEntity
  8
FORMAT
100
AcDbPolyline
 90
        2
 70
     0
 43
0.02178
 10
30.679
 20
2.757515
 10
36.85014499999999
 20
2.757515
  0
LWPOLYLINE
  5
1A8B
330
18
100
AcDbEntity
  8
FORMAT
100
AcDbPolyline
 90
        2
 70
     0
 43
0.01452
 10
30.678855
 20
1.434268
 10
36.85
 20
1.434268
  0
LWPOLYLINE
  5
1A8F
330
18
100
AcDbEntity
  8
FORMAT
100
AcDbPolyline
 90
        2
 70
     0
 43
0.02178
 10
30.678855
 20
0.9129999999999999
 10
36.85
 20
0.9129999999999999
  0
TEXT
  5
1A93
330
18
100
AcDbEntity
  8
FORMAT
100
AcDbText
 10
31.333508
 20
1.270491
 30
0.0
 40
0.12342
  1
SCALE:
  7
ARIAL
100
AcDbText
  0
TEXT
  5
1A98
330
18
100
AcDbEntity
  8
FORMAT
100
AcDbText
 10
35.56581459072305
 20
23.000764
 30
0.0
 40
0.13068
  1
APPROVED
  7
ARIAL
 72
     1
 11
36.072935
 21
23.000764
 31
0.0
100
AcDbText
  0
TEXT
  5
1A9D
330
18
100
AcDbEntity
  8
FORMAT
100
AcDbText
 10
34.4682422442019
 20
23.000764
 30
0.0
 40
0.13068
  1
DATE
  7
ARIAL
 72
     1
 11
34.71168499999999
 21
23.000764
 31
0.0
100
AcDbText
  0
TEXT
  5
1AA2
330
18
100
AcDbEntity
  8
FORMAT
100
AcDbText
 10
28.55487063847203
 20
23.000764
 30
0.0
 40
0.13068
  1
REV
  7
ARIAL
 72
     1
 11
28.742556
 21
23.000764
 31
0.0
100
AcDbText
  0
TEXT
  5
1AAB
330
18
100
AcDbEntity
  8
FORMAT
100
AcDbText
 10
29.18508419918144
 20
23.000764
 30
0.0
 40
0.13068
  1
ECN
  7
ARIAL
 72
     1
 11
29.37780599999999
 21
23.000764
 31
0.0
100
AcDbText
  0
LWPOLYLINE
  5
1AAC
330
18
100
AcDbEntity
  8
FORMAT
100
AcDbPolyline
 90
        2
 70
     0
 43
0.02178
 10
28.421103
 20
23.24256899999999
 10
36.85
 20
23.24256899999999
  0
LWPOLYLINE
  5
1AB0
330
18
100
AcDbEntity
  8
FORMAT
100
AcDbPolyline
 90
        2
 70
     0
 43
0.02178
 10
28.421103
 20
22.856046
 10
36.85
 20
22.856046
  0
TEXT
  5
1AB4
330
18
100
AcDbEntity
  8
FORMAT
100
AcDbText
 10
31.29571665211459
 20
23.000764
 30
0.0
 40
0.13068
  1
DESCRIPTION
  7
ARIAL
 72
     1
 11
31.91952199999999
 21
23.000764
 31
0.0
100
AcDbText
  0
TEXT
  5
1AB5
330
18
100
AcDbEntity
  8
FORMAT
100
AcDbText
 10
31.98132953206003
 20
23.35218199999999
 30
0.0
 40
0.17424
  1
REVISIONS
  7
ARIAL
 72
     1
 11
32.644119
 21
23.35218199999999
 31
0.0
100
AcDbText
  0
INSERT
  5
1AB6
330
18
100
AcDbEntity
  8
TB-TXT
100
AcDbBlockReference
 66
     1
  2
REV-BLOCK
 10
36.85
 20
22.856046
 30
0.0
 41
1.1
 42
1.1
 43
1.1
  0
ATTRIB
  5
1AB7
330
1AB6
100
AcDbEntity
  8
TB-TXT
100
AcDbText
 10
28.67811638744884
 20
22.55449599999999
 30
0.0
 40
0.154
  1
B
  7
ARIAL
 72
     1
 11
28.749864
 21
22.63149599999999
 31
0.0
100
AcDbAttribute
  2
REV
 70
     0
 74
     2
  0
ATTRIB
  5
1AB8
330
1AB6
100
AcDbEntity
  8
TB-TXT
100
AcDbText
 10
29.126241
 20
22.567667
 30
0.0
 40
0.154
  1
3133
  7
ARIAL
100
AcDbAttribute
  2
ECN
 70
     0
  0
ATTRIB
  5
1AB9
330
1AB6
100
AcDbEntity
  8
TB-TXT
100
AcDbText
 10
29.827454
 20
22.567667
 30
0.0
 40
0.154
  1
RELEASED
  7
ARIAL
100
AcDbAttribute
  2
DESCRIPTION
 70
     0
  0
ATTRIB
  5
1ABA
330
1AB6
100
AcDbEntity
  8
TB-TXT
100
AcDbText
 10
34.32773367257844
 20
22.55449599999999
 30
0.0
 40
0.154
  1
11/30/01
  7
ARIAL
 72
     1
 11
34.74645399999999
 21
22.63149599999999
 31
0.0
100
AcDbAttribute
  2
REV-DATE
 70
     0
 74
     2
  0
ATTRIB
  5
1ABB
330
1AB6
100
AcDbEntity
  8
TB-TXT
100
AcDbText
 10
36.07902999999999
 20
22.55449599999999
 30
0.0
 40
0.154
  1

  7
ARIAL
 72
     1
 11
36.07902999999999
 21
22.63149599999999
 31
0.0
100
AcDbAttribute
  2
APPR
 70
     0
 74
     2
  0
SEQEND
  5
1ABC
330
1AB6
100
AcDbEntity
  8
TB-TXT
  0
INSERT
  5
1ABD
330
18
100
AcDbEntity
  8
TB-TXT
100
AcDbBlockReference
 66
     1
  2
TITLE-BLOCK
 10
36.85
 20
0.55
 30
0.0
 41
1.1
 42
1.1
 43
1.1
  0
ATTRIB
  5
1ABE
330
1ABD
100
AcDbEntity
  8
TB-TXT
100
AcDbText
 10
30.85272299999999
 20
2.447100999999999
 30
0.0
 40
0.175956
  1
WIRING
  7
ARIAL
100
AcDbAttribute
  2
LINE1
 70
     0
  0
ATTRIB
  5
1ABF
330
1ABD
100
AcDbEntity
  8
TB-TXT
100
AcDbText
 10
30.85272299999999
 20
2.16222
 30
0.0
 40
0.175956
  1
ENC6B & ENC12B
  7
ARIAL
100
AcDbAttribute
  2
LINE2
 70
     0
  0
ATTRIB
  5
1AC0
330
1ABD
100
AcDbEntity
  8
TB-TXT
100
AcDbText
 10
30.85272299999999
 20
1.877338999999999
 30
0.0
 40
0.175956
  1
INPUT TERMINAL BLOCK
  7
ARIAL
100
AcDbAttribute
  2
LINE3
 70
     0
  0
ATTRIB
  5
1AC1
330
1ABD
100
AcDbEntity
  8
TB-TXT
100
AcDbText
 10
30.85272299999999
 20
1.592457999999999
 30
0.0
 40
0.175956
  1

  7
ARIAL
100
AcDbAttribute
  2
LINE4
 70
     0
  0
ATTRIB
  5
1AC2
330
1ABD
100
AcDbEntity
  8
TB-TXT
100
AcDbText
 10
33.814805
 20
1.021425
 30
0.0
 40
0.2057
  1
LW-10300-2
  7
ARIAL
100
AcDbAttribute
  2
DWG#
 70
     0
  0
ATTRIB
  5
1AC3
330
1ABD
100
AcDbEntity
  8
TB-TXT
100
AcDbText
 10
30.79240399999999
 20
0.674969
 30
0.0
 40
0.132
  1
LW103002
  7
ARIAL
100
AcDbAttribute
  2
FILE#
 70
     0
  0
ATTRIB
  5
1AC4
330
1ABD
100
AcDbEntity
  8
TB-TXT
100
AcDbText
 10
36.49352548431105
 20
0.9907
 30
0.0
 40
0.1925
  1
B
  7
ARIAL
 72
     4
 11
36.58321
 21
1.08695
 31
0.0
100
AcDbAttribute
  2
REV
 70
     0
  0
ATTRIB
  5
1AC5
330
1ABD
100
AcDbEntity
  8
TB-TXT
100
AcDbText
 10
31.923002
 20
1.021425
 30
0.0
 40
0.1925
  1
NONE
  7
ARIAL
100
AcDbAttribute
  2
SCALE
 70
     0
  0
ATTRIB
  5
1AC6
330
1ABD
100
AcDbEntity
  8
TB-TXT
100
AcDbText
 10
35.744979
 20
0.6508530000000001
 30
0.0
 40
0.132
  1
1 OF 1
  7
ARIAL
100
AcDbAttribute
  2
SHT#
 70
     0
  0
SEQEND
  5
1AC7
330
1ABD
100
AcDbEntity
  8
TB-TXT
  0
TEXT
  5
1AC8
330
18
100
AcDbEntity
  8
FORMAT
  6
BYBLOCK
100
AcDbText
 10
34.316701
 20
3.060423
 30
0.0
 40
0.117508
  1
3000 RESEARCH DRIVE
 41
1.011837
  7
ARIAL
100
AcDbText
  0
TEXT
  5
1AC9
330
18
100
AcDbEntity
  8
FORMAT
  6
BYBLOCK
100
AcDbText
 10
34.311139
 20
2.858982
 30
0.0
 40
0.117508
  1
RICHARDSON, TX 75082
 41
1.018885
  7
ARIAL
100
AcDbText
  0
HATCH
  5
1ACA
330
18
100
AcDbEntity
  8
FORMAT
100
AcDbHatch
 10
0.0
 20
0.0
 30
0.0
210
0.0
220
0.0
230
1.0
  2
SOLID
 70
     1
 71
     1
 91
        5
 92
        1
 93
        4
 72
     1
 10
31.76686899999999
 20
3.373762
 11
31.881216
 21
3.079088999999999
 72
     2
 10
32.368064
 20
0.5116030000000001
 40
2.613236999999999
 50
100.736988
 51
115.844585
 73
     1
 72
     1
 10
31.228871
 20
2.863463
 11
31.570595
 21
3.373762
 72
     1
 10
31.570595
 20
3.373762
 11
31.76686899999999
 21
3.373762
 97
        1
330
1AE9
 92
       16
 93
        4
 72
     1
 10
31.688609
 20
3.074749999999999
 11
31.688859
 21
3.074508999999999
 72
     1
 10
31.688859
 20
3.074508999999999
 11
31.644428
 21
3.200830999999999
 72
     1
 10
31.644428
 20
3.200830999999999
 11
31.56397899999999
 21
3.074508999999999
 72
     1
 10
31.56397899999999
 20
3.074508999999999
 11
31.688609
 21
3.074749999999999
 97
        1
330
1AE3
 92
        1
 93
        7
 72
     1
 10
31.719856
 20
2.987252
 11
31.76378099999999
 21
2.863463
 72
     1
 10
31.76378099999999
 20
2.863463
 11
32.140243
 21
2.863463
 72
     1
 10
32.140243
 20
2.863463
 11
32.17319899999999
 21
3.061201
 72
     2
 10
32.843295
 20
-2.54942
 40
5.650495999999999
 50
96.81077100000001
 51
98.76581899999999
 73
     1
 72
     1
 10
31.98218
 20
3.035074999999999
 11
31.956988
 21
2.883824
 72
     1
 10
31.956988
 20
2.883824
 11
31.90352199999999
 21
3.021606
 72
     2
 10
32.398477
 20
-0.132733
 40
3.192934999999999
 50
98.91769899999999
 51
102.271142
 73
     1
 97
        1
330
1ADA
 92
        1
 93
       13
 72
     1
 10
33.455056
 20
3.373762
 11
33.23874699999999
 21
3.191999
 72
     2
 10
33.873156
 20
-37.07187
 40
40.268866
 50
90.902694
 51
91.427673
 73
     1
 72
     1
 10
32.86985599999999
 20
3.184495999999999
 11
32.715963
 21
3.361420999999999
 72
     1
 10
32.715963
 20
3.361420999999999
 11
32.685095
 21
3.176210999999999
 72
     2
 10
33.020674
 20
-3.154275
 40
6.339373999999999
 50
93.034409
 51
99.32746899999999
 73
     1
 72
     1
 10
31.993208
 20
3.101281
 11
32.03859299999999
 21
3.373762
 72
     1
 10
32.03859299999999
 20
3.373762
 11
32.194819
 21
3.373762
 72
     1
 10
32.194819
 20
3.373762
 11
32.34904199999999
 21
3.204966999999999
 72
     1
 10
32.34904199999999
 20
3.204966999999999
 11
32.559757
 21
3.373762
 72
     1
 10
32.559757
 20
3.373762
 11
32.947544
 21
3.373762
 72
     1
 10
32.947544
 20
3.373762
 11
33.059539
 21
3.245004999999999
 72
     1
 10
33.059539
 20
3.245004999999999
 11
33.212767
 21
3.373762
 72
     1
 10
33.212767
 20
3.373762
 11
33.455056
 21
3.373762
 97
        1
330
1ACB
 92
        1
 93
       10
 72
     1
 10
32.84777
 20
2.863463
 11
33.021856
 21
3.009746999999999
 72
     1
 10
33.021856
 20
3.009746999999999
 11
33.14909699999999
 21
2.863463
 72
     1
 10
33.14909699999999
 20
2.863463
 11
33.39141099999999
 21
2.863463
 72
     1
 10
33.39141099999999
 20
2.863463
 11
33.178852
 21
3.107836
 72
     2
 10
33.08255399999999
 20
-3.659097
 40
6.767616999999999
 50
89.18470400000002
 51
91.59664199999999
 73
     1
 72
     1
 10
32.893988
 20
3.105893
 11
32.63744699999999
 21
2.890324
 72
     1
 10
32.63744699999999
 20
2.890324
 11
32.67214
 21
3.098483
 72
     2
 10
32.843295
 20
-2.54942
 40
5.650495999999999
 50
91.73576399999999
 51
93.643485
 73
     1
 72
     1
 10
32.484217
 20
3.089653999999999
 11
32.446519
 21
2.863463
 72
     1
 10
32.446519
 20
2.863463
 11
32.84777
 21
2.863463
 97
        1
330
1AEF
 75
     0
 76
     1
 98
        1
 10
31.209052
 20
2.593395
  0
LWPOLYLINE
  5
1ACB
102
{ACAD_REACTORS
330
1ACA
102
}
330
18
100
AcDbEntity
  8
FORMAT
100
AcDbPolyline
 90
       13
 70
     1
 43
0.0
 10
33.455056
 20
3.373762
 10
33.23874699999999
 20
3.191999
 42
0.002291
 10
32.86985599999999
 20
3.184495999999999
 10
32.715963
 20
3.361420999999999
 10
32.685095
 20
3.176210999999999
 42
0.027466
 10
31.993208
 20
3.101281
 10
32.03859299999999
 20
3.373762
 10
32.194819
 20
3.373762
 10
32.34904199999999
 20
3.204966999999999
 10
32.559757
 20
3.373762
 10
32.947544
 20
3.373762
 10
33.059539
 20
3.245004999999999
 10
33.212767
 20
3.373762
  0
LWPOLYLINE
  5
1ADA
102
{ACAD_REACTORS
330
1ACA
102
}
330
18
100
AcDbEntity
  8
FORMAT
100
AcDbPolyline
 90
        7
 70
     1
 43
0.0
 10
31.719856
 20
2.987252
 10
31.76378099999999
 20
2.863463
 10
32.140243
 20
2.863463
 10
32.17319899999999
 20
3.061201
 42
0.008531
 10
31.98218
 20
3.035074999999999
 10
31.956988
 20
2.883824
 10
31.90352199999999
 20
3.021606
 42
0.014633
  0
LWPOLYLINE
  5
1AE3
102
{ACAD_REACTORS
330
1ACA
102
}
330
18
100
AcDbEntity
  8
FORMAT
100
AcDbPolyline
 90
        4
 70
     1
 43
0.0
 10
31.688609
 20
3.074749999999999
 10
31.688859
 20
3.074508999999999
 10
31.644428
 20
3.200830999999999
 10
31.56397899999999
 20
3.074508999999999
  0
LWPOLYLINE
  5
1AE9
102
{ACAD_REACTORS
330
1ACA
102
}
330
18
100
AcDbEntity
  8
FORMAT
100
AcDbPolyline
 90
        4
 70
     1
 43
0.0
 10
31.76686899999999
 20
3.373762
 10
31.881216
 20
3.079088999999999
 42
0.066015
 10
31.228871
 20
2.863463
 10
31.570595
 20
3.373762
  0
LWPOLYLINE
  5
1AEF
102
{ACAD_REACTORS
330
1ACA
102
}
330
18
100
AcDbEntity
  8
FORMAT
100
AcDbPolyline
 90
       10
 70
     1
 43
0.0
 10
32.84777
 20
2.863463
 10
33.021856
 20
3.009746999999999
 10
33.14909699999999
 20
2.863463
 10
33.39141099999999
 20
2.863463
 10
33.178852
 20
3.107836
 42
0.010524
 10
32.893988
 20
3.105893
 10
32.63744699999999
 20
2.890324
 10
32.67214
 20
3.098483
 42
0.008324
 10
32.484217
 20
3.089653999999999
 10
32.446519
 20
2.863463
  0
TEXT
  5
1AFB
330
18
100
AcDbEntity
  8
FORMAT
  6
BYBLOCK
100
AcDbText
 10
34.316701
 20
3.261865
 30
0.0
 40
0.117508
  1
AMX CORPORATION
 41
1.011837
  7
ARIAL
100
AcDbText
  0
TEXT
  5
1AFC
330
18
100
AcDbEntity
  8
FORMAT
100
AcDbText
 10
33.44616699999999
 20
2.865185499999999
 30
0.0
 40
0.066163
  1
TM
  7
ARIAL
 11
33.44616699999999
 21
2.898266999999999
 31
0.0
100
AcDbText
 73
     2
  0
INSERT
  5
1AFD
330
18
100
AcDbEntity
  8
FORMAT
100
AcDbBlockReference
 66
     1
  2
APPR-BLOCK
 10
27.979296
 20
3.278162999999999
 30
0.0
 41
1.1
 42
1.1
 43
1.1
  0
ATTRIB
  5
1AFE
330
1AFD
100
AcDbEntity
  8
TB-TXT
100
AcDbText
 10
28.092698
 20
3.019455999999999
 30
0.0
 40
0.132
  1
RBF
  7
ARIAL
100
AcDbAttribute
  2
REL-DR
 70
     0
  0
ATTRIB
  5
1AFF
330
1AFD
100
AcDbEntity
  8
TB-TXT
100
AcDbText
 10
29.023139
 20
3.019455999999999
 30
0.0
 40
0.132
  1
3/13/01
  7
ARIAL
100
AcDbAttribute
  2
DATE-DR
 70
     0
  0
ATTRIB
  5
1B00
330
1AFD
100
AcDbEntity
  8
TB-TXT
100
AcDbText
 10
28.092698
 20
2.669999
 30
0.0
 40
0.132
  1

  7
ARIAL
100
AcDbAttribute
  2
REL-ES
 70
     0
  0
ATTRIB
  5
1B01
330
1AFD
100
AcDbEntity
  8
TB-TXT
100
AcDbText
 10
29.023139
 20
2.669999
 30
0.0
 40
0.132
  1

  7
ARIAL
100
AcDbAttribute
  2
DATE-ES
 70
     0
  0
ATTRIB
  5
1B02
330
1AFD
100
AcDbEntity
  8
TB-TXT
100
AcDbText
 10
28.092698
 20
2.320541999999999
 30
0.0
 40
0.132
  1
GA
  7
ARIAL
100
AcDbAttribute
  2
REL-ENGR
 70
     0
  0
ATTRIB
  5
1B03
330
1AFD
100
AcDbEntity
  8
TB-TXT
100
AcDbText
 10
29.023139
 20
2.320541999999999
 30
0.0
 40
0.132
  1
5/1/01
  7
ARIAL
100
AcDbAttribute
  2
DATE-ENGR
 70
     0
  0
ATTRIB
  5
1B04
330
1AFD
100
AcDbEntity
  8
TB-TXT
100
AcDbText
 10
28.092698
 20
1.971084
 30
0.0
 40
0.132
  1

  7
ARIAL
100
AcDbAttribute
  2
REL-PROD
 70
     0
  0
ATTRIB
  5
1B05
330
1AFD
100
AcDbEntity
  8
TB-TXT
100
AcDbText
 10
29.023139
 20
1.971084
 30
0.0
 40
0.132
  1

  7
ARIAL
100
AcDbAttribute
  2
DATE-PROD
 70
     0
  0
ATTRIB
  5
1B06
330
1AFD
100
AcDbEntity
  8
TB-TXT
100
AcDbText
 10
28.092698
 20
1.621627
 30
0.0
 40
0.132
  1

  7
ARIAL
100
AcDbAttribute
  2
REL-MATL
 70
     0
  0
ATTRIB
  5
1B07
330
1AFD
100
AcDbEntity
  8
TB-TXT
100
AcDbText
 10
29.023139
 20
1.621627
 30
0.0
 40
0.132
  1

  7
ARIAL
100
AcDbAttribute
  2
DATE-MATL
 70
     0
  0
ATTRIB
  5
1B08
330
1AFD
100
AcDbEntity
  8
TB-TXT
100
AcDbText
 10
28.092698
 20
1.27217
 30
0.0
 40
0.132
  1
DLR
  7
ARIAL
100
AcDbAttribute
  2
REL-QUAL
 70
     0
  0
ATTRIB
  5
1B09
330
1AFD
100
AcDbEntity
  8
TB-TXT
100
AcDbText
 10
29.023139
 20
1.27217
 30
0.0
 40
0.132
  1
5/1/01
  7
ARIAL
100
AcDbAttribute
  2
DATE-QUAL
 70
     0
  0
SEQEND
  5
1B0A
330
1AFD
100
AcDbEntity
  8
FORMAT
  0
LWPOLYLINE
  5
267E
330
18
100
AcDbEntity
  8
FORMAT
100
AcDbPolyline
 90
        2
 70
     0
 43
0.02904
 10
28.421103
 20
23.64999999999999
 10
28.421103
 20
22.409479
  0
LWPOLYLINE
  5
2682
330
18
100
AcDbEntity
  8
FORMAT
100
AcDbPolyline
 90
        2
 70
     0
 43
0.02178
 10
29.056353
 20
22.409479
 10
29.056353
 20
23.24256899999999
  0
LWPOLYLINE
  5
2686
330
18
100
AcDbEntity
  8
FORMAT
100
AcDbPolyline
 90
        2
 70
     0
 43
0.02178
 10
29.691603
 20
22.409479
 10
29.691603
 20
23.24256899999999
  0
LWPOLYLINE
  5
268A
330
18
100
AcDbEntity
  8
FORMAT
100
AcDbPolyline
 90
        2
 70
     0
 43
0.02178
 10
34.099086
 20
22.409479
 10
34.099086
 20
23.24256899999999
  0
LWPOLYLINE
  5
268E
330
18
100
AcDbEntity
  8
FORMAT
100
AcDbPolyline
 90
        2
 70
     0
 43
0.02178
 10
35.369586
 20
22.409479
 10
35.369586
 20
23.24256899999999
  0
ENDSEC
  0
SECTION
  2
OBJECTS
  0
DICTIONARY
  5
C
330
0
100
AcDbDictionary
  3
ACAD_GROUP
350
D
  3
ACAD_LAYOUT
350
DC2
  3
ACAD_MLINESTYLE
350
1B
  3
ACAD_PLOTSETTINGS
350
DC3
  3
ACAD_PLOTSTYLENAME
350
DC0
  3
ACDBHEADERROUNDTRIPXREC
350
26A2
  3
ACDBVARIABLEDICTIONARY
350
C7A
  0
DICTIONARY
  5
DF5
330
18
100
AcDbDictionary
280
     1
  3
ACAD_LAYOUTSELFREF
360
26C3
  0
DICTIONARY
  5
DF3
330
15
100
AcDbDictionary
280
     1
  3
ACAD_LAYOUTSELFREF
360
26C2
  0
DICTIONARY
  5
D
102
{ACAD_REACTORS
330
C
102
}
330
C
100
AcDbDictionary
  0
DICTIONARY
  5
DC2
102
{ACAD_REACTORS
330
C
102
}
330
C
100
AcDbDictionary
  0
DICTIONARY
  5
1B
102
{ACAD_REACTORS
330
C
102
}
330
C
100
AcDbDictionary
  3
STANDARD
350
1C
  0
DICTIONARY
  5
DC3
102
{ACAD_REACTORS
330
C
102
}
330
C
100
AcDbDictionary
  0
ACDBDICTIONARYWDFLT
  5
DC0
102
{ACAD_REACTORS
330
C
102
}
330
C
100
AcDbDictionary
281
     1
  3
Normal
350
DC1
100
AcDbDictionaryWithDefault
340
DC1
  0
DICTIONARY
  5
26A2
102
{ACAD_REACTORS
330
C
102
}
330
C
100
AcDbDictionary
  3
CEPSNTYPE
350
26AC
  3
FINGERPRINTGUID
350
26AD
  3
HYPERLINKBASE
350
26A5
  3
INSUNITS
350
26AB
  3
LAYOUTDICT
350
26A7
  3
LWETCUNION
350
26AA
  3
PLOTSETDICT
350
26A8
  3
PLOTSTYLNAMDICT
350
26A9
  3
PSVPSCALE
350
26AF
  3
PUCSBASE
350
26B2
  3
PUCSORGBACK
350
26B8
  3
PUCSORGBOTTOM
350
26B4
  3
PUCSORGFRONT
350
26B7
  3
PUCSORGLEFT
350
26B5
  3
PUCSORGRIGHT
350
26B6
  3
PUCSORGTOP
350
26B3
  3
PUCSORTHOREF
350
26B0
  3
PUCSORTHOVIEW
350
26B1
  3
STYLESHEET
350
26A6
  3
TSTACKALIGN
350
26A3
  3
TSTACKSIZE
350
26A4
  3
UCSBASE
350
26BB
  3
UCSORGBACK
350
26C1
  3
UCSORGBOTTOM
350
26BD
  3
UCSORGFRONT
350
26C0
  3
UCSORGLEFT
350
26BE
  3
UCSORGRIGHT
350
26BF
  3
UCSORGTOP
350
26BC
  3
UCSORTHOREF
350
26B9
  3
UCSORTHOVIEW
350
26BA
  3
VERSIONGUID
350
26AE
  0
DICTIONARY
  5
C7A
102
{ACAD_REACTORS
330
C
102
}
330
C
100
AcDbDictionary
  3
DIMADEC
350
C7B
  3
INDEXCTL
350
C7C
  3
SORTENTS
350
C7D
  0
XRECORD
  5
26C3
102
{ACAD_REACTORS
330
DF5
102
}
330
DF5
100
AcDbXrecord
340
18
  0
XRECORD
  5
26C2
102
{ACAD_REACTORS
330
DF3
102
}
330
DF3
100
AcDbXrecord
340
15
  0
MLINESTYLE
  5
1C
102
{ACAD_REACTORS
330
1B
102
}
330
1B
100
AcDbMlineStyle
  2
STANDARD
 70
     0
  3

 62
   256
 51
90.0
 52
90.0
 71
     2
 49
0.5
 62
   256
  6
BYLAYER
 49
-0.5
 62
   256
  6
BYLAYER
  0
ACDBPLACEHOLDER
  5
DC1
102
{ACAD_REACTORS
330
DC0
102
}
330
DC0
100
AcDbPlaceHolder
280
     0
  0
XRECORD
  5
26AC
102
{ACAD_REACTORS
330
26A2
102
}
330
26A2
100
AcDbXrecord
 90
        0
  0
XRECORD
  5
26AD
102
{ACAD_REACTORS
330
26A2
102
}
330
26A2
100
AcDbXrecord
  1
{419EE30D-D2C5-43B7-9C22-5DCE44A15DE5}
  0
XRECORD
  5
26A5
102
{ACAD_REACTORS
330
26A2
102
}
330
26A2
100
AcDbXrecord
  1

  0
XRECORD
  5
26AB
102
{ACAD_REACTORS
330
26A2
102
}
330
26A2
100
AcDbXrecord
 90
        0
  0
XRECORD
  5
26A7
102
{ACAD_REACTORS
330
26A2
102
}
330
26A2
100
AcDbXrecord
340
DC2
  0
XRECORD
  5
26AA
102
{ACAD_REACTORS
330
26A2
102
}
330
26A2
100
AcDbXrecord
 90
    14877
  0
XRECORD
  5
26A8
102
{ACAD_REACTORS
330
26A2
102
}
330
26A2
100
AcDbXrecord
340
DC3
  0
XRECORD
  5
26A9
102
{ACAD_REACTORS
330
26A2
102
}
330
26A2
100
AcDbXrecord
340
DC0
  0
XRECORD
  5
26AF
102
{ACAD_REACTORS
330
26A2
102
}
330
26A2
100
AcDbXrecord
 40
0.0
  0
XRECORD
  5
26B2
102
{ACAD_REACTORS
330
26A2
102
}
330
26A2
100
AcDbXrecord
340
0
  0
XRECORD
  5
26B8
102
{ACAD_REACTORS
330
26A2
102
}
330
26A2
100
AcDbXrecord
 10
0.0
 20
0.0
 30
0.0
  0
XRECORD
  5
26B4
102
{ACAD_REACTORS
330
26A2
102
}
330
26A2
100
AcDbXrecord
 10
0.0
 20
0.0
 30
0.0
  0
XRECORD
  5
26B7
102
{ACAD_REACTORS
330
26A2
102
}
330
26A2
100
AcDbXrecord
 10
0.0
 20
0.0
 30
0.0
  0
XRECORD
  5
26B5
102
{ACAD_REACTORS
330
26A2
102
}
330
26A2
100
AcDbXrecord
 10
0.0
 20
0.0
 30
0.0
  0
XRECORD
  5
26B6
102
{ACAD_REACTORS
330
26A2
102
}
330
26A2
100
AcDbXrecord
 10
0.0
 20
0.0
 30
0.0
  0
XRECORD
  5
26B3
102
{ACAD_REACTORS
330
26A2
102
}
330
26A2
100
AcDbXrecord
 10
0.0
 20
0.0
 30
0.0
  0
XRECORD
  5
26B0
102
{ACAD_REACTORS
330
26A2
102
}
330
26A2
100
AcDbXrecord
340
0
  0
XRECORD
  5
26B1
102
{ACAD_REACTORS
330
26A2
102
}
330
26A2
100
AcDbXrecord
 70
     0
  0
XRECORD
  5
26A6
102
{ACAD_REACTORS
330
26A2
102
}
330
26A2
100
AcDbXrecord
  1

  0
XRECORD
  5
26A3
102
{ACAD_REACTORS
330
26A2
102
}
330
26A2
100
AcDbXrecord
 90
        1
  0
XRECORD
  5
26A4
102
{ACAD_REACTORS
330
26A2
102
}
330
26A2
100
AcDbXrecord
 90
       70
  0
XRECORD
  5
26BB
102
{ACAD_REACTORS
330
26A2
102
}
330
26A2
100
AcDbXrecord
340
0
  0
XRECORD
  5
26C1
102
{ACAD_REACTORS
330
26A2
102
}
330
26A2
100
AcDbXrecord
 10
0.0
 20
0.0
 30
0.0
  0
XRECORD
  5
26BD
102
{ACAD_REACTORS
330
26A2
102
}
330
26A2
100
AcDbXrecord
 10
0.0
 20
0.0
 30
0.0
  0
XRECORD
  5
26C0
102
{ACAD_REACTORS
330
26A2
102
}
330
26A2
100
AcDbXrecord
 10
0.0
 20
0.0
 30
0.0
  0
XRECORD
  5
26BE
102
{ACAD_REACTORS
330
26A2
102
}
330
26A2
100
AcDbXrecord
 10
0.0
 20
0.0
 30
0.0
  0
XRECORD
  5
26BF
102
{ACAD_REACTORS
330
26A2
102
}
330
26A2
100
AcDbXrecord
 10
0.0
 20
0.0
 30
0.0
  0
XRECORD
  5
26BC
102
{ACAD_REACTORS
330
26A2
102
}
330
26A2
100
AcDbXrecord
 10
0.0
 20
0.0
 30
0.0
  0
XRECORD
  5
26B9
102
{ACAD_REACTORS
330
26A2
102
}
330
26A2
100
AcDbXrecord
340
0
  0
XRECORD
  5
26BA
102
{ACAD_REACTORS
330
26A2
102
}
330
26A2
100
AcDbXrecord
 70
     0
  0
XRECORD
  5
26AE
102
{ACAD_REACTORS
330
26A2
102
}
330
26A2
100
AcDbXrecord
  1
{C948DC2F-4A2A-4797-9057-FE0C22E79447}
  0
DICTIONARYVAR
  5
C7B
102
{ACAD_REACTORS
330
C7A
102
}
330
C7A
100
DictionaryVariables
280
     0
  1
-1
  0
DICTIONARYVAR
  5
C7C
102
{ACAD_REACTORS
330
C7A
102
}
330
C7A
100
DictionaryVariables
280
     0
  1
0
  0
DICTIONARYVAR
  5
C7D
102
{ACAD_REACTORS
330
C7A
102
}
330
C7A
100
DictionaryVariables
280
     0
  1
96
  0
ENDSEC
  0
EOF
