  0
SECTION
  2
HEADER
  9
$ACADVER
  1
AC1014
  9
$ACADMAINTVER
 70
     9
  9
$DWGCODEPAGE
  3
ANSI_1252
  9
$INSBASE
 10
0.0
 20
0.0
 30
0.0
  9
$EXTMIN
 10
-6.012023999999999
 20
-10.92787
 30
-0.8516379999999998
  9
$EXTMAX
 10
10.33310153574398
 20
0.0
 30
21.27924777163718
  9
$LIMMIN
 10
0.0
 20
0.0
  9
$LIMMAX
 10
12.0
 20
9.0
  9
$ORTHOMODE
 70
     0
  9
$REGENMODE
 70
     1
  9
$FILLMODE
 70
     1
  9
$QTEXTMODE
 70
     0
  9
$MIRRTEXT
 70
     1
  9
$DRAGMODE
 70
     2
  9
$LTSCALE
 40
1.0
  9
$OSMODE
 70
    39
  9
$ATTMODE
 70
     1
  9
$TEXTSIZE
 40
0.2
  9
$TRACEWID
 40
0.05
  9
$TEXTSTYLE
  7
STANDARD
  9
$CLAYER
  8
0
  9
$CELTYPE
  6
CONTINUOUS
  9
$CECOLOR
 62
   256
  9
$CELTSCALE
 40
1.0
  9
$DELOBJ
 70
     1
  9
$DISPSILH
 70
     0
  9
$DIMSCALE
 40
1.0
  9
$DIMASZ
 40
0.18
  9
$DIMEXO
 40
0.0625
  9
$DIMDLI
 40
0.38
  9
$DIMRND
 40
0.0
  9
$DIMDLE
 40
0.0
  9
$DIMEXE
 40
0.18
  9
$DIMTP
 40
0.0
  9
$DIMTM
 40
0.0
  9
$DIMTXT
 40
0.18
  9
$DIMCEN
 40
0.09
  9
$DIMTSZ
 40
0.0
  9
$DIMTOL
 70
     0
  9
$DIMLIM
 70
     0
  9
$DIMTIH
 70
     1
  9
$DIMTOH
 70
     1
  9
$DIMSE1
 70
     0
  9
$DIMSE2
 70
     0
  9
$DIMTAD
 70
     0
  9
$DIMZIN
 70
     0
  9
$DIMBLK
  1

  9
$DIMASO
 70
     1
  9
$DIMSHO
 70
     1
  9
$DIMPOST
  1

  9
$DIMAPOST
  1

  9
$DIMALT
 70
     0
  9
$DIMALTD
 70
     2
  9
$DIMALTF
 40
25.4
  9
$DIMLFAC
 40
1.0
  9
$DIMTOFL
 70
     0
  9
$DIMTVP
 40
0.0
  9
$DIMTIX
 70
     0
  9
$DIMSOXD
 70
     0
  9
$DIMSAH
 70
     0
  9
$DIMBLK1
  1

  9
$DIMBLK2
  1

  9
$DIMSTYLE
  2
STANDARD
  9
$DIMCLRD
 70
     0
  9
$DIMCLRE
 70
     0
  9
$DIMCLRT
 70
     0
  9
$DIMTFAC
 40
1.0
  9
$DIMGAP
 40
0.09
  9
$DIMJUST
 70
     0
  9
$DIMSD1
 70
     0
  9
$DIMSD2
 70
     0
  9
$DIMTOLJ
 70
     1
  9
$DIMTZIN
 70
     0
  9
$DIMALTZ
 70
     0
  9
$DIMALTTZ
 70
     0
  9
$DIMFIT
 70
     3
  9
$DIMUPT
 70
     0
  9
$DIMUNIT
 70
     2
  9
$DIMDEC
 70
     4
  9
$DIMTDEC
 70
     4
  9
$DIMALTU
 70
     2
  9
$DIMALTTD
 70
     2
  9
$DIMTXSTY
  7
STANDARD
  9
$DIMAUNIT
 70
     0
  9
$LUNITS
 70
     2
  9
$LUPREC
 70
     4
  9
$SKETCHINC
 40
0.1
  9
$FILLETRAD
 40
0.0
  9
$AUNITS
 70
     0
  9
$AUPREC
 70
     0
  9
$MENU
  1
.
  9
$ELEVATION
 40
0.0
  9
$PELEVATION
 40
0.0
  9
$THICKNESS
 40
0.0
  9
$LIMCHECK
 70
     0
  9
$BLIPMODE
 70
     0
  9
$CHAMFERA
 40
0.0
  9
$CHAMFERB
 40
0.0
  9
$CHAMFERC
 40
0.0
  9
$CHAMFERD
 40
0.0
  9
$SKPOLY
 70
     0
  9
$TDCREATE
 40
2452880.650762615
  9
$TDUPDATE
 40
2452880.662254584
  9
$TDINDWG
 40
0.0114932407
  9
$TDUSRTIMER
 40
0.0114932407
  9
$USRTIMER
 70
     1
  9
$ANGBASE
 50
0.0
  9
$ANGDIR
 70
     0
  9
$PDMODE
 70
    34
  9
$PDSIZE
 40
-3.0
  9
$PLINEWID
 40
0.0
  9
$COORDS
 70
     2
  9
$SPLFRAME
 70
     0
  9
$SPLINETYPE
 70
     6
  9
$SPLINESEGS
 70
     8
  9
$ATTDIA
 70
     0
  9
$ATTREQ
 70
     1
  9
$HANDLING
 70
 22529
  9
$HANDSEED
  5
638
  9
$SURFTAB1
 70
     6
  9
$SURFTAB2
 70
     6
  9
$SURFTYPE
 70
     6
  9
$SURFU
 70
     6
  9
$SURFV
 70
     6
  9
$UCSNAME
  2

  9
$UCSORG
 10
0.0
 20
0.0
 30
0.0
  9
$UCSXDIR
 10
1.0
 20
0.0
 30
0.0
  9
$UCSYDIR
 10
0.0
 20
0.0
 30
1.0
  9
$PUCSNAME
  2

  9
$PUCSORG
 10
0.0
 20
0.0
 30
0.0
  9
$PUCSXDIR
 10
1.0
 20
0.0
 30
0.0
  9
$PUCSYDIR
 10
0.0
 20
1.0
 30
0.0
  9
$USERI1
 70
     0
  9
$USERI2
 70
     0
  9
$USERI3
 70
     0
  9
$USERI4
 70
     0
  9
$USERI5
 70
     0
  9
$USERR1
 40
0.0
  9
$USERR2
 40
0.0
  9
$USERR3
 40
0.0
  9
$USERR4
 40
0.0
  9
$USERR5
 40
0.0
  9
$WORLDVIEW
 70
     1
  9
$SHADEDGE
 70
     3
  9
$SHADEDIF
 70
    70
  9
$TILEMODE
 70
     1
  9
$MAXACTVP
 70
    64
  9
$PINSBASE
 10
0.0
 20
0.0
 30
0.0
  9
$PLIMCHECK
 70
     0
  9
$PEXTMIN
 10
1.000000000000000E+20
 20
1.000000000000000E+20
 30
1.000000000000000E+20
  9
$PEXTMAX
 10
-1.000000000000000E+20
 20
-1.000000000000000E+20
 30
-1.000000000000000E+20
  9
$PLIMMIN
 10
0.0
 20
0.0
  9
$PLIMMAX
 10
12.0
 20
9.0
  9
$UNITMODE
 70
     0
  9
$VISRETAIN
 70
     1
  9
$PLINEGEN
 70
     0
  9
$PSLTSCALE
 70
     1
  9
$TREEDEPTH
 70
  3020
  9
$PICKSTYLE
 70
     1
  9
$CMLSTYLE
  2
STANDARD
  9
$CMLJUST
 70
     0
  9
$CMLSCALE
 40
1.0
  9
$PROXYGRAPHICS
 70
     1
  9
$MEASUREMENT
 70
     0
  0
ENDSEC
  0
SECTION
  2
CLASSES
  0
CLASS
  1
ACDBDICTIONARYWDFLT
  2
AcDbDictionaryWithDefault
  3
AutoCAD 2000
 90
        0
280
     0
281
     0
  0
CLASS
  1
ACDBPLACEHOLDER
  2
AcDbPlaceHolder
  3
AutoCAD 2000
 90
        0
280
     0
281
     0
  0
CLASS
  1
LAYOUT
  2
AcDbLayout
  3
AutoCAD 2000
 90
        0
280
     0
281
     0
  0
CLASS
  1
DICTIONARYVAR
  2
AcDbDictionaryVar
  3
AutoCAD 2000
 90
        0
280
     0
281
     0
  0
CLASS
  1
LONG_TRANSACTION
  2
AcDbLongTransaction
  3
AutoCAD 2000
 90
        0
280
     0
281
     0
  0
CLASS
  1
LWPOLYLINE
  2
AcDbPolyline
  3
AutoCAD 2000
 90
        0
280
     0
281
     1
  0
CLASS
  1
HATCH
  2
AcDbHatch
  3
AutoCAD 2000
 90
        0
280
     0
281
     1
  0
CLASS
  1
XRECORD
  2
AcDbXrecord
  3
AutoCAD 2000
 90
        0
280
     0
281
     0
  0
ENDSEC
  0
SECTION
  2
TABLES
  0
TABLE
  2
VPORT
  5
8
330
0
100
AcDbSymbolTable
 70
     2
  0
VPORT
  5
613
330
8
100
AcDbSymbolTableRecord
100
AcDbViewportTableRecord
  2
*ACTIVE
 70
     0
 10
0.0
 20
0.0
 11
1.0
 21
1.0
 12
0.0
 22
0.0
 13
0.0
 23
0.0
 14
10.0
 24
10.0
 15
10.0
 25
10.0
 16
34.45906207344943
 26
-52.36375334614931
 36
14.97723966151981
 17
-2.056749223123635
 27
-2.163850617695157
 37
7.108557471020937
 40
27.1564440492389
 41
1.724584103512014
 42
50.00000000000039
 43
0.0
 44
0.0
 50
0.0
 51
2.048412715911398
 71
     0
 72
   100
 73
     1
 74
     3
 75
     0
 76
     0
 77
     0
 78
     0
  0
ENDTAB
  0
TABLE
  2
LTYPE
  5
5
330
0
100
AcDbSymbolTable
 70
     1
  0
LTYPE
  5
13
330
5
100
AcDbSymbolTableRecord
100
AcDbLinetypeTableRecord
  2
BYBLOCK
 70
     0
  3

 72
    65
 73
     0
 40
0.0
  0
LTYPE
  5
14
330
5
100
AcDbSymbolTableRecord
100
AcDbLinetypeTableRecord
  2
BYLAYER
 70
     0
  3

 72
    65
 73
     0
 40
0.0
  0
LTYPE
  5
15
330
5
100
AcDbSymbolTableRecord
100
AcDbLinetypeTableRecord
  2
CONTINUOUS
 70
     0
  3
Solid line
 72
    65
 73
     0
 40
0.0
  0
ENDTAB
  0
TABLE
  2
LAYER
  5
2
330
0
100
AcDbSymbolTable
 70
     3
  0
LAYER
  5
10
330
2
100
AcDbSymbolTableRecord
100
AcDbLayerTableRecord
  2
0
 70
     0
 62
     7
  6
CONTINUOUS
  0
LAYER
  5
23
330
2
100
AcDbSymbolTableRecord
100
AcDbLayerTableRecord
  2
EASE-$ABSORBER
 70
     0
 62
     7
  6
CONTINUOUS
  0
LAYER
  5
5F5
330
2
100
AcDbSymbolTableRecord
100
AcDbLayerTableRecord
  2
DEFPOINTS
 70
     0
 62
     7
  6
CONTINUOUS
  0
ENDTAB
  0
TABLE
  2
STYLE
  5
3
330
0
100
AcDbSymbolTable
 70
     1
  0
STYLE
  5
11
330
3
100
AcDbSymbolTableRecord
100
AcDbTextStyleTableRecord
  2
STANDARD
 70
     0
 40
0.0
 41
1.0
 50
0.0
 71
     0
 42
0.2
  3
txt
  4

  0
ENDTAB
  0
TABLE
  2
VIEW
  5
6
330
0
100
AcDbSymbolTable
 70
     0
  0
ENDTAB
  0
TABLE
  2
UCS
  5
7
330
0
100
AcDbSymbolTable
 70
     0
  0
ENDTAB
  0
TABLE
  2
APPID
  5
9
330
0
100
AcDbSymbolTable
 70
     1
  0
APPID
  5
12
330
9
100
AcDbSymbolTableRecord
100
AcDbRegAppTableRecord
  2
ACAD
 70
     0
  0
ENDTAB
  0
TABLE
  2
DIMSTYLE
  5
A
330
0
100
AcDbSymbolTable
 70
     1
  0
DIMSTYLE
105
5F2
330
A
100
AcDbSymbolTableRecord
100
AcDbDimStyleTableRecord
  2
STANDARD
 70
     0
  3

  4

  5

  6

  7

 40
1.0
 41
0.18
 42
0.0625
 43
0.38
 44
0.18
 45
0.0
 46
0.0
 47
0.0
 48
0.0
140
0.18
141
0.09
142
0.0
143
25.4
144
1.0
145
0.0
146
1.0
147
0.09
 71
     0
 72
     0
 73
     1
 74
     1
 75
     0
 76
     0
 77
     0
 78
     0
170
     0
171
     2
172
     0
173
     0
174
     0
175
     0
176
     0
177
     0
178
     0
270
     2
271
     4
272
     4
273
     2
274
     2
340
11
275
     0
280
     0
281
     0
282
     0
283
     1
284
     0
285
     0
286
     0
287
     3
288
     0
  0
ENDTAB
  0
TABLE
  2
BLOCK_RECORD
  5
1
330
0
100
AcDbSymbolTable
 70
     3
  0
BLOCK_RECORD
  5
1E
102
{ACAD_XDICTIONARY
360
636
102
}
330
1
100
AcDbSymbolTableRecord
100
AcDbBlockTableRecord
  2
*MODEL_SPACE
  0
BLOCK_RECORD
  5
1A
102
{ACAD_XDICTIONARY
360
634
102
}
330
1
100
AcDbSymbolTableRecord
100
AcDbBlockTableRecord
  2
*PAPER_SPACE
  0
BLOCK_RECORD
  5
25
330
1
100
AcDbSymbolTableRecord
100
AcDbBlockTableRecord
  2
SEAT
  0
BLOCK_RECORD
  5
5F6
330
1
100
AcDbSymbolTableRecord
100
AcDbBlockTableRecord
  2
*D1
  0
BLOCK_RECORD
  5
604
330
1
100
AcDbSymbolTableRecord
100
AcDbBlockTableRecord
  2
*D2
  0
ENDTAB
  0
ENDSEC
  0
SECTION
  2
BLOCKS
  0
BLOCK
  5
1F
330
1E
100
AcDbEntity
  8
0
100
AcDbBlockBegin
  2
*MODEL_SPACE
 70
     0
 10
0.0
 20
0.0
 30
0.0
  3
*MODEL_SPACE
  1

  0
ENDBLK
  5
20
330
1E
100
AcDbEntity
  8
0
100
AcDbBlockEnd
  0
BLOCK
  5
1B
330
1A
100
AcDbEntity
 67
     1
  8
0
100
AcDbBlockBegin
  2
*PAPER_SPACE
 70
     0
 10
0.0
 20
0.0
 30
0.0
  3
*PAPER_SPACE
  1

  0
ENDBLK
  5
1C
330
1A
100
AcDbEntity
 67
     1
  8
0
100
AcDbBlockEnd
  0
BLOCK
  5
26
330
25
100
AcDbEntity
  8
0
100
AcDbBlockBegin
  2
SEAT
 70
     0
 10
0.0
 20
0.0
 30
0.0
  3
SEAT
  1

  0
LINE
  5
27
330
25
100
AcDbEntity
  8
0
 62
     0
100
AcDbLine
 10
-0.175
 20
0.1
 30
-0.75
 11
-0.175
 21
0.15
 31
-0.25
  0
LINE
  5
28
330
25
100
AcDbEntity
  8
0
 62
     0
100
AcDbLine
 10
0.175
 20
0.1
 30
-0.75
 11
0.175
 21
0.15
 31
-0.25
  0
LINE
  5
29
330
25
100
AcDbEntity
  8
0
 62
     0
100
AcDbLine
 10
-0.05
 20
0.15
 30
-0.25
 11
-0.05
 21
0.1
 31
-0.75
  0
LINE
  5
2A
330
25
100
AcDbEntity
  8
0
 62
     0
100
AcDbLine
 10
0.05
 20
0.15
 30
-0.25
 11
0.05
 21
0.1
 31
-0.75
  0
LINE
  5
2B
330
25
100
AcDbEntity
  8
0
 62
     0
100
AcDbLine
 10
0.225
 20
-0.3
 30
-1.199999999999999
 11
0.225
 21
-0.3
 31
-0.75
  0
LINE
  5
2C
330
25
100
AcDbEntity
  8
0
 62
     0
100
AcDbLine
 10
-0.225
 20
-0.3
 30
-1.199999999999999
 11
-0.225
 21
-0.3
 31
-0.75
  0
LINE
  5
2D
330
25
100
AcDbEntity
  8
0
 62
     0
100
AcDbLine
 10
0.175
 20
0.1
 30
-1.199999999999999
 11
0.175
 21
0.1
 31
-0.75
  0
LINE
  5
2E
330
25
100
AcDbEntity
  8
0
 62
     0
100
AcDbLine
 10
-0.175
 20
0.1
 30
-1.199999999999999
 11
-0.175
 21
0.1
 31
-0.75
  0
3DFACE
  5
2F
330
25
100
AcDbEntity
  8
0
 62
     0
100
AcDbFace
 10
-0.225
 20
-0.3
 30
-0.75
 11
0.225
 21
-0.3
 31
-0.75
 12
0.175
 22
0.1
 32
-0.75
 13
-0.175
 23
0.1
 33
-0.75
  0
LINE
  5
30
330
25
100
AcDbEntity
  8
0
 62
     0
100
AcDbLine
 10
0.175
 20
0.15
 30
-0.25
 11
-0.175
 21
0.15
 31
-0.25
  0
ENDBLK
  5
31
330
25
100
AcDbEntity
  8
0
100
AcDbBlockEnd
  0
BLOCK
  5
601
330
5F6
100
AcDbEntity
  8
0
100
AcDbBlockBegin
  2
*D1
 70
     1
 10
0.0
 20
0.0
 30
0.0
  3
*D1
  1

  0
LINE
  5
5F7
330
5F6
100
AcDbEntity
  8
0
  6
CONTINUOUS
 62
     0
100
AcDbLine
 10
0.05020165
 20
19.649935
 30
0.0
 11
10.03310153574399
 21
19.64993499999999
 31
0.0
  0
LINE
  5
5F8
330
5F6
100
AcDbEntity
  8
0
  6
CONTINUOUS
 62
     0
100
AcDbLine
 10
0.066070799
 20
-0.8500712
 30
0.0
 11
10.03310153574398
 21
-0.8500712000000028
 31
0.0
  0
LINE
  5
5F9
330
5F6
100
AcDbEntity
  8
0
  6
CONTINUOUS
 62
     0
100
AcDbLine
 10
9.853101535743991
 20
19.46993499999999
 30
0.0
 11
9.85310153574399
 21
9.579931899999998
 31
0.0
  0
LINE
  5
5FA
330
5F6
100
AcDbEntity
  8
0
  6
CONTINUOUS
 62
     0
100
AcDbLine
 10
9.853101535743988
 20
-0.6700712000000026
 30
0.0
 11
9.85310153574399
 21
9.219931899999998
 31
0.0
  0
SOLID
  5
5FB
330
5F6
100
AcDbEntity
  8
0
  6
CONTINUOUS
 62
     0
100
AcDbTrace
 10
9.823101535743992
 20
19.46993499999999
 30
0.0
 11
9.883101535743991
 21
19.46993499999999
 31
0.0
 12
9.853101535743991
 22
19.64993499999999
 32
0.0
 13
9.853101535743991
 23
19.64993499999999
 33
0.0
  0
SOLID
  5
5FC
330
5F6
100
AcDbEntity
  8
0
  6
CONTINUOUS
 62
     0
100
AcDbTrace
 10
9.823101535743989
 20
-0.6700712000000026
 30
0.0
 11
9.883101535743987
 21
-0.6700712000000026
 31
0.0
 12
9.853101535743988
 22
-0.8500712000000026
 32
0.0
 13
9.853101535743988
 23
-0.8500712000000026
 33
0.0
  0
MTEXT
  5
5FD
330
5F6
100
AcDbEntity
  8
0
  6
CONTINUOUS
 62
     0
100
AcDbMText
 10
9.853101535743988
 20
9.3999319
 30
0.0
 40
0.18
 41
0.0
 71
     5
 72
     1
  1
\A1;20.5000
1001
ACAD
1000
MTEXTBEGIN
1070
    73
1070
     1
1070
    44
1040
1.0
1070
    74
1070
     0
1000
MTEXTEND
  0
POINT
  5
5FE
330
5F6
100
AcDbEntity
  8
DEFPOINTS
  6
CONTINUOUS
 62
     0
100
AcDbPoint
 10
-0.01229835
 20
19.649935
 30
2.500000999999999
  0
POINT
  5
5FF
330
5F6
100
AcDbEntity
  8
DEFPOINTS
  6
CONTINUOUS
 62
     0
100
AcDbPoint
 10
0.003570799
 20
-0.8500712
 30
10.92787
  0
POINT
  5
600
330
5F6
100
AcDbEntity
  8
DEFPOINTS
  6
CONTINUOUS
 62
     0
100
AcDbPoint
 10
9.853101535743988
 20
-0.8500712000000026
 30
0.0
  0
ENDBLK
  5
602
330
5F6
100
AcDbEntity
  8
0
100
AcDbBlockEnd
  0
BLOCK
  5
60F
330
604
100
AcDbEntity
  8
0
100
AcDbBlockBegin
  2
*D2
 70
     1
 10
0.0
 20
0.0
 30
0.0
  3
*D2
  1

  0
LINE
  5
605
330
604
100
AcDbEntity
  8
0
  6
CONTINUOUS
 62
     0
100
AcDbLine
 10
-6.005884499999999
 20
9.4586755
 30
0.0
 11
-6.005884499999998
 21
21.27924777163718
 31
0.0
  0
LINE
  5
606
330
604
100
AcDbEntity
  8
0
  6
CONTINUOUS
 62
     0
100
AcDbLine
 10
6.005884499999999
 20
9.4586755
 30
0.0
 11
6.0058845
 21
21.27924777163718
 31
0.0
  0
LINE
  5
607
330
604
100
AcDbEntity
  8
0
  6
CONTINUOUS
 62
     0
100
AcDbLine
 10
-5.825884499999999
 20
21.09924777163719
 30
0.0
 11
-0.5249999999999992
 21
21.09924777163719
 31
0.0
  0
LINE
  5
608
330
604
100
AcDbEntity
  8
0
  6
CONTINUOUS
 62
     0
100
AcDbLine
 10
5.8258845
 20
21.09924777163719
 30
0.0
 11
0.5250000000000009
 21
21.09924777163719
 31
0.0
  0
SOLID
  5
609
330
604
100
AcDbEntity
  8
0
  6
CONTINUOUS
 62
     0
100
AcDbTrace
 10
-5.825884499999999
 20
21.12924777163719
 30
0.0
 11
-5.825884499999999
 21
21.06924777163718
 31
0.0
 12
-6.005884499999998
 22
21.09924777163719
 32
0.0
 13
-6.005884499999998
 23
21.09924777163719
 33
0.0
  0
SOLID
  5
60A
330
604
100
AcDbEntity
  8
0
  6
CONTINUOUS
 62
     0
100
AcDbTrace
 10
5.8258845
 20
21.12924777163719
 30
0.0
 11
5.8258845
 21
21.06924777163718
 31
0.0
 12
6.0058845
 22
21.09924777163719
 32
0.0
 13
6.0058845
 23
21.09924777163719
 33
0.0
  0
MTEXT
  5
60B
330
604
100
AcDbEntity
  8
0
  6
CONTINUOUS
 62
     0
100
AcDbMText
 10
0.0000000000000009
 20
21.09924777163719
 30
0.0
 40
0.18
 41
0.0
 71
     5
 72
     1
  1
\A1;12.0118
1001
ACAD
1000
MTEXTBEGIN
1070
    73
1070
     1
1070
    44
1040
1.0
1070
    74
1070
     0
1000
MTEXTEND
  0
POINT
  5
60C
330
604
100
AcDbEntity
  8
DEFPOINTS
  6
CONTINUOUS
 62
     0
100
AcDbPoint
 10
-6.005884499999999
 20
9.3961755
 30
9.000003999999998
  0
POINT
  5
60D
330
604
100
AcDbEntity
  8
DEFPOINTS
  6
CONTINUOUS
 62
     0
100
AcDbPoint
 10
6.005884499999999
 20
9.3961755
 30
9.000003999999998
  0
POINT
  5
60E
330
604
100
AcDbEntity
  8
DEFPOINTS
  6
CONTINUOUS
 62
     0
100
AcDbPoint
 10
6.0058845
 20
21.09924777163719
 30
0.0
  0
ENDBLK
  5
610
330
604
100
AcDbEntity
  8
0
100
AcDbBlockEnd
  0
ENDSEC
  0
SECTION
  2
ENTITIES
  0
POLYLINE
  5
32
330
1E
100
AcDbEntity
  8
EASE-$ABSORBER
100
AcDb3dPolyline
 66
     1
 10
0.0
 20
0.0
 30
0.0
 70
     9
  0
VERTEX
  5
33
330
32
100
AcDbEntity
  8
EASE-$ABSORBER
100
AcDbVertex
100
AcDb3dPolylineVertex
 10
-1.286938999999999
 20
-2.800000999999999
 30
-0.8508786
 70
    32
  0
VERTEX
  5
34
330
32
100
AcDbEntity
  8
EASE-$ABSORBER
100
AcDbVertex
100
AcDb3dPolylineVertex
 10
-2.499468
 20
-10.78262
 30
-0.8516379999999998
 70
    32
  0
VERTEX
  5
35
330
32
100
AcDbEntity
  8
EASE-$ABSORBER
100
AcDbVertex
100
AcDb3dPolylineVertex
 10
2.500534999999999
 20
-10.78262
 30
-0.8485043999999998
 70
    32
  0
VERTEX
  5
36
330
32
100
AcDbEntity
  8
EASE-$ABSORBER
100
AcDbVertex
100
AcDb3dPolylineVertex
 10
1.288000999999999
 20
-2.800000999999999
 30
-0.8492638000000001
 70
    32
  0
VERTEX
  5
37
330
32
100
AcDbEntity
  8
EASE-$ABSORBER
100
AcDbVertex
100
AcDb3dPolylineVertex
 10
0.9336845999999999
 20
-2.500000999999999
 30
-0.8494849
 70
    32
  0
VERTEX
  5
38
330
32
100
AcDbEntity
  8
EASE-$ABSORBER
100
AcDbVertex
100
AcDb3dPolylineVertex
 10
-0.9326176999999999
 20
-2.500000999999999
 30
-0.8506527
 70
    32
  0
SEQEND
  5
39
330
32
100
AcDbEntity
  8
EASE-$ABSORBER
  0
POLYLINE
  5
3A
330
1E
100
AcDbEntity
  8
EASE-$ABSORBER
100
AcDb3dPolyline
 66
     1
 10
0.0
 20
0.0
 30
0.0
 70
     9
  0
VERTEX
  5
3B
330
3A
100
AcDbEntity
  8
EASE-$ABSORBER
100
AcDbVertex
100
AcDb3dPolylineVertex
 10
0.9326176999999999
 20
-2.500000999999999
 30
-0.8506527
 70
    32
  0
VERTEX
  5
3C
330
3A
100
AcDbEntity
  8
EASE-$ABSORBER
100
AcDbVertex
100
AcDb3dPolylineVertex
 10
-0.9336845999999999
 20
-2.500000999999999
 30
-0.8494849
 70
    32
  0
VERTEX
  5
3D
330
3A
100
AcDbEntity
  8
EASE-$ABSORBER
100
AcDbVertex
100
AcDb3dPolylineVertex
 10
-1.288000999999999
 20
-2.800000999999999
 30
-0.8492638000000001
 70
    32
  0
VERTEX
  5
3E
330
3A
100
AcDbEntity
  8
EASE-$ABSORBER
100
AcDbVertex
100
AcDb3dPolylineVertex
 10
-2.500534999999999
 20
-10.78262
 30
-0.8485043999999998
 70
    32
  0
VERTEX
  5
3F
330
3A
100
AcDbEntity
  8
EASE-$ABSORBER
100
AcDbVertex
100
AcDb3dPolylineVertex
 10
2.499468
 20
-10.78262
 30
-0.8516379999999998
 70
    32
  0
VERTEX
  5
40
330
3A
100
AcDbEntity
  8
EASE-$ABSORBER
100
AcDbVertex
100
AcDb3dPolylineVertex
 10
1.286938999999999
 20
-2.800000999999999
 30
-0.8508786
 70
    32
  0
SEQEND
  5
41
330
3A
100
AcDbEntity
  8
EASE-$ABSORBER
  0
POLYLINE
  5
42
330
1E
100
AcDbEntity
  8
EASE-$ABSORBER
 62
     7
100
AcDb3dPolyline
 66
     1
 10
0.0
 20
0.0
 30
0.0
 70
     9
  0
VERTEX
  5
43
330
42
100
AcDbEntity
  8
EASE-$ABSORBER
 62
     7
100
AcDbVertex
100
AcDb3dPolylineVertex
 10
3.388237
 20
0.0
 30
18.80199
 70
    32
  0
VERTEX
  5
44
330
42
100
AcDbEntity
  8
EASE-$ABSORBER
 62
     7
100
AcDbVertex
100
AcDb3dPolylineVertex
 10
-3.411766
 20
0.0
 30
18.79774
 70
    32
  0
VERTEX
  5
45
330
42
100
AcDbEntity
  8
EASE-$ABSORBER
 62
     7
100
AcDbVertex
100
AcDb3dPolylineVertex
 10
-3.400001
 20
0.0
 30
-0.002129023
 70
    32
  0
VERTEX
  5
46
330
42
100
AcDbEntity
  8
EASE-$ABSORBER
 62
     7
100
AcDbVertex
100
AcDb3dPolylineVertex
 10
3.400001
 20
0.0
 30
0.002129023
 70
    32
  0
SEQEND
  5
47
330
42
100
AcDbEntity
  8
EASE-$ABSORBER
 62
     7
  0
POLYLINE
  5
48
330
1E
100
AcDbEntity
  8
EASE-$ABSORBER
 62
     7
100
AcDb3dPolyline
 66
     1
 10
0.0
 20
0.0
 30
0.0
 70
     9
  0
VERTEX
  5
49
330
48
100
AcDbEntity
  8
EASE-$ABSORBER
 62
     7
100
AcDbVertex
100
AcDb3dPolylineVertex
 10
-3.400001
 20
0.0
 30
0.002129023
 70
    32
  0
VERTEX
  5
4A
330
48
100
AcDbEntity
  8
EASE-$ABSORBER
 62
     7
100
AcDbVertex
100
AcDb3dPolylineVertex
 10
3.400001
 20
0.0
 30
-0.002129023
 70
    32
  0
VERTEX
  5
4B
330
48
100
AcDbEntity
  8
EASE-$ABSORBER
 62
     7
100
AcDbVertex
100
AcDb3dPolylineVertex
 10
3.411766
 20
0.0
 30
18.79774
 70
    32
  0
VERTEX
  5
4C
330
48
100
AcDbEntity
  8
EASE-$ABSORBER
 62
     7
100
AcDbVertex
100
AcDb3dPolylineVertex
 10
-3.388237
 20
0.0
 30
18.80199
 70
    32
  0
SEQEND
  5
4D
330
48
100
AcDbEntity
  8
EASE-$ABSORBER
 62
     7
  0
POLYLINE
  5
4E
330
1E
100
AcDbEntity
  8
EASE-$ABSORBER
100
AcDb3dPolyline
 66
     1
 10
0.0
 20
0.0
 30
0.0
 70
     9
  0
VERTEX
  5
4F
330
4E
100
AcDbEntity
  8
EASE-$ABSORBER
100
AcDbVertex
100
AcDb3dPolylineVertex
 10
0.9334395
 20
-2.500000999999999
 30
-0.4631225000000001
 70
    32
  0
VERTEX
  5
50
330
4E
100
AcDbEntity
  8
EASE-$ABSORBER
100
AcDbVertex
100
AcDb3dPolylineVertex
 10
-0.9328578999999999
 20
-2.500000999999999
 30
-0.4642904000000001
 70
    32
  0
VERTEX
  5
51
330
4E
100
AcDbEntity
  8
EASE-$ABSORBER
100
AcDbVertex
100
AcDb3dPolylineVertex
 10
-0.9326176999999999
 20
-2.500000999999999
 30
-0.8506527
 70
    32
  0
VERTEX
  5
52
330
4E
100
AcDbEntity
  8
EASE-$ABSORBER
100
AcDbVertex
100
AcDb3dPolylineVertex
 10
0.9336845999999999
 20
-2.500000999999999
 30
-0.8494849
 70
    32
  0
SEQEND
  5
53
330
4E
100
AcDbEntity
  8
EASE-$ABSORBER
  0
POLYLINE
  5
54
330
1E
100
AcDbEntity
  8
EASE-$ABSORBER
100
AcDb3dPolyline
 66
     1
 10
0.0
 20
0.0
 30
0.0
 70
     9
  0
VERTEX
  5
55
330
54
100
AcDbEntity
  8
EASE-$ABSORBER
100
AcDbVertex
100
AcDb3dPolylineVertex
 10
-0.9336845999999999
 20
-2.500000999999999
 30
-0.8494849
 70
    32
  0
VERTEX
  5
56
330
54
100
AcDbEntity
  8
EASE-$ABSORBER
100
AcDbVertex
100
AcDb3dPolylineVertex
 10
0.9326176999999999
 20
-2.500000999999999
 30
-0.8506527
 70
    32
  0
VERTEX
  5
57
330
54
100
AcDbEntity
  8
EASE-$ABSORBER
100
AcDbVertex
100
AcDb3dPolylineVertex
 10
0.9328578999999999
 20
-2.500000999999999
 30
-0.4642904000000001
 70
    32
  0
VERTEX
  5
58
330
54
100
AcDbEntity
  8
EASE-$ABSORBER
100
AcDbVertex
100
AcDb3dPolylineVertex
 10
-0.9334395
 20
-2.500000999999999
 30
-0.4631225000000001
 70
    32
  0
SEQEND
  5
59
330
54
100
AcDbEntity
  8
EASE-$ABSORBER
  0
POLYLINE
  5
5A
330
1E
100
AcDbEntity
  8
EASE-$ABSORBER
100
AcDb3dPolyline
 66
     1
 10
0.0
 20
0.0
 30
0.0
 70
     9
  0
VERTEX
  5
5B
330
5A
100
AcDbEntity
  8
EASE-$ABSORBER
100
AcDbVertex
100
AcDb3dPolylineVertex
 10
-5.655838
 20
-9.009524
 30
19.55593
 70
    32
  0
VERTEX
  5
5C
330
5A
100
AcDbEntity
  8
EASE-$ABSORBER
100
AcDbVertex
100
AcDb3dPolylineVertex
 10
-3.827137
 20
-0.7814186
 30
19.18307
 70
    32
  0
VERTEX
  5
5D
330
5A
100
AcDbEntity
  8
EASE-$ABSORBER
100
AcDbVertex
100
AcDb3dPolylineVertex
 10
-3.288863999999999
 20
-0.3496402999999999
 30
19.16377999999999
 70
    32
  0
SEQEND
  5
5E
330
5A
100
AcDbEntity
  8
EASE-$ABSORBER
  0
POLYLINE
  5
5F
330
1E
100
AcDbEntity
  8
EASE-$ABSORBER
100
AcDb3dPolyline
 66
     1
 10
0.0
 20
0.0
 30
0.0
 70
     9
  0
VERTEX
  5
60
330
5F
100
AcDbEntity
  8
EASE-$ABSORBER
100
AcDbVertex
100
AcDb3dPolylineVertex
 10
3.288863999999999
 20
-0.3496402999999999
 30
19.16377999999999
 70
    32
  0
VERTEX
  5
61
330
5F
100
AcDbEntity
  8
EASE-$ABSORBER
100
AcDbVertex
100
AcDb3dPolylineVertex
 10
3.827137
 20
-0.7814186
 30
19.18307
 70
    32
  0
VERTEX
  5
62
330
5F
100
AcDbEntity
  8
EASE-$ABSORBER
100
AcDbVertex
100
AcDb3dPolylineVertex
 10
5.655838
 20
-9.009524
 30
19.55593
 70
    32
  0
SEQEND
  5
63
330
5F
100
AcDbEntity
  8
EASE-$ABSORBER
  0
POLYLINE
  5
64
330
1E
100
AcDbEntity
  8
EASE-$ABSORBER
100
AcDb3dPolyline
 66
     1
 10
0.0
 20
0.0
 30
0.0
 70
     9
  0
VERTEX
  5
65
330
64
100
AcDbEntity
  8
EASE-$ABSORBER
100
AcDbVertex
100
AcDb3dPolylineVertex
 10
6.000258999999999
 20
-9.000003999999998
 30
-0.4050574000000001
 70
    32
  0
VERTEX
  5
66
330
64
100
AcDbEntity
  8
EASE-$ABSORBER
100
AcDbVertex
100
AcDb3dPolylineVertex
 10
5.760011
 20
-10.44175
 30
-0.4707399000000001
 70
    32
  0
VERTEX
  5
67
330
64
100
AcDbEntity
  8
EASE-$ABSORBER
100
AcDbVertex
100
AcDb3dPolylineVertex
 10
5.74765
 20
-10.44175
 30
19.27781
 70
    32
  0
SEQEND
  5
68
330
64
100
AcDbEntity
  8
EASE-$ABSORBER
  0
POLYLINE
  5
69
330
1E
100
AcDbEntity
  8
EASE-$ABSORBER
100
AcDb3dPolyline
 66
     1
 10
0.0
 20
0.0
 30
0.0
 70
     9
  0
VERTEX
  5
6A
330
69
100
AcDbEntity
  8
EASE-$ABSORBER
100
AcDbVertex
100
AcDb3dPolylineVertex
 10
-5.74765
 20
-10.44175
 30
19.27781
 70
    32
  0
VERTEX
  5
6B
330
69
100
AcDbEntity
  8
EASE-$ABSORBER
100
AcDbVertex
100
AcDb3dPolylineVertex
 10
-5.760011
 20
-10.44175
 30
-0.4707399000000001
 70
    32
  0
VERTEX
  5
6C
330
69
100
AcDbEntity
  8
EASE-$ABSORBER
100
AcDbVertex
100
AcDb3dPolylineVertex
 10
-6.000258999999999
 20
-9.000003999999998
 30
-0.4050574000000001
 70
    32
  0
SEQEND
  5
6D
330
69
100
AcDbEntity
  8
EASE-$ABSORBER
  0
POLYLINE
  5
6E
330
1E
100
AcDbEntity
  8
EASE-$ABSORBER
100
AcDb3dPolyline
 66
     1
 10
0.0
 20
0.0
 30
0.0
 70
     9
  0
VERTEX
  5
6F
330
6E
100
AcDbEntity
  8
EASE-$ABSORBER
100
AcDbVertex
100
AcDb3dPolylineVertex
 10
1.28777
 20
-2.800000999999999
 30
-0.4765359000000001
 70
    32
  0
VERTEX
  5
70
330
6E
100
AcDbEntity
  8
EASE-$ABSORBER
100
AcDbVertex
100
AcDb3dPolylineVertex
 10
0.9334395
 20
-2.500000999999999
 30
-0.4631225000000001
 70
    32
  0
VERTEX
  5
71
330
6E
100
AcDbEntity
  8
EASE-$ABSORBER
100
AcDbVertex
100
AcDb3dPolylineVertex
 10
0.9336845999999999
 20
-2.500000999999999
 30
-0.8494849
 70
    32
  0
VERTEX
  5
72
330
6E
100
AcDbEntity
  8
EASE-$ABSORBER
100
AcDbVertex
100
AcDb3dPolylineVertex
 10
1.288000999999999
 20
-2.800000999999999
 30
-0.8492638000000001
 70
    32
  0
SEQEND
  5
73
330
6E
100
AcDbEntity
  8
EASE-$ABSORBER
  0
POLYLINE
  5
74
330
1E
100
AcDbEntity
  8
EASE-$ABSORBER
100
AcDb3dPolyline
 66
     1
 10
0.0
 20
0.0
 30
0.0
 70
     9
  0
VERTEX
  5
75
330
74
100
AcDbEntity
  8
EASE-$ABSORBER
100
AcDbVertex
100
AcDb3dPolylineVertex
 10
-1.288000999999999
 20
-2.800000999999999
 30
-0.8492638000000001
 70
    32
  0
VERTEX
  5
76
330
74
100
AcDbEntity
  8
EASE-$ABSORBER
100
AcDbVertex
100
AcDb3dPolylineVertex
 10
-0.9336845999999999
 20
-2.500000999999999
 30
-0.8494849
 70
    32
  0
VERTEX
  5
77
330
74
100
AcDbEntity
  8
EASE-$ABSORBER
100
AcDbVertex
100
AcDb3dPolylineVertex
 10
-0.9334395
 20
-2.500000999999999
 30
-0.4631225000000001
 70
    32
  0
VERTEX
  5
78
330
74
100
AcDbEntity
  8
EASE-$ABSORBER
100
AcDbVertex
100
AcDb3dPolylineVertex
 10
-1.28777
 20
-2.800000999999999
 30
-0.4765359000000001
 70
    32
  0
SEQEND
  5
79
330
74
100
AcDbEntity
  8
EASE-$ABSORBER
  0
POLYLINE
  5
7A
330
1E
100
AcDbEntity
  8
EASE-$ABSORBER
100
AcDb3dPolyline
 66
     1
 10
0.0
 20
0.0
 30
0.0
 70
     9
  0
VERTEX
  5
7B
330
7A
100
AcDbEntity
  8
EASE-$ABSORBER
100
AcDbVertex
100
AcDb3dPolylineVertex
 10
-5.771776
 20
-10.44175
 30
19.27061
 70
    32
  0
VERTEX
  5
7C
330
7A
100
AcDbEntity
  8
EASE-$ABSORBER
100
AcDbVertex
100
AcDb3dPolylineVertex
 10
-6.012023999999999
 20
-9.000003999999998
 30
19.20492
 70
    32
  0
VERTEX
  5
7D
330
7A
100
AcDbEntity
  8
EASE-$ABSORBER
100
AcDbVertex
100
AcDb3dPolylineVertex
 10
-5.655838
 20
-9.009524
 30
19.55593
 70
    32
  0
VERTEX
  5
7E
330
7A
100
AcDbEntity
  8
EASE-$ABSORBER
100
AcDbVertex
100
AcDb3dPolylineVertex
 10
-5.41088
 20
-10.47951
 30
19.6229
 70
    32
  0
SEQEND
  5
7F
330
7A
100
AcDbEntity
  8
EASE-$ABSORBER
  0
POLYLINE
  5
80
330
1E
100
AcDbEntity
  8
EASE-$ABSORBER
100
AcDb3dPolyline
 66
     1
 10
0.0
 20
0.0
 30
0.0
 70
     9
  0
VERTEX
  5
81
330
80
100
AcDbEntity
  8
EASE-$ABSORBER
100
AcDbVertex
100
AcDb3dPolylineVertex
 10
5.41088
 20
-10.47951
 30
19.6229
 70
    32
  0
VERTEX
  5
82
330
80
100
AcDbEntity
  8
EASE-$ABSORBER
100
AcDbVertex
100
AcDb3dPolylineVertex
 10
5.655838
 20
-9.009524
 30
19.55593
 70
    32
  0
VERTEX
  5
83
330
80
100
AcDbEntity
  8
EASE-$ABSORBER
100
AcDbVertex
100
AcDb3dPolylineVertex
 10
6.012023999999999
 20
-9.000003999999998
 30
19.20492
 70
    32
  0
VERTEX
  5
84
330
80
100
AcDbEntity
  8
EASE-$ABSORBER
100
AcDbVertex
100
AcDb3dPolylineVertex
 10
5.771776
 20
-10.44175
 30
19.27061
 70
    32
  0
SEQEND
  5
85
330
80
100
AcDbEntity
  8
EASE-$ABSORBER
  0
POLYLINE
  5
86
330
1E
100
AcDbEntity
  8
EASE-$ABSORBER
100
AcDb3dPolyline
 66
     1
 10
0.0
 20
0.0
 30
0.0
 70
     9
  0
VERTEX
  5
87
330
86
100
AcDbEntity
  8
EASE-$ABSORBER
100
AcDbVertex
100
AcDb3dPolylineVertex
 10
-6.012023999999999
 20
-9.000003999999998
 30
19.20492
 70
    32
  0
VERTEX
  5
88
330
86
100
AcDbEntity
  8
EASE-$ABSORBER
100
AcDbVertex
100
AcDb3dPolylineVertex
 10
-4.141938999999999
 20
-0.585712
 30
18.82372999999999
 70
    32
  0
VERTEX
  5
89
330
86
100
AcDbEntity
  8
EASE-$ABSORBER
100
AcDbVertex
100
AcDb3dPolylineVertex
 10
-3.827137
 20
-0.7814186
 30
19.18307
 70
    32
  0
SEQEND
  5
8A
330
86
100
AcDbEntity
  8
EASE-$ABSORBER
  0
POLYLINE
  5
8B
330
1E
100
AcDbEntity
  8
EASE-$ABSORBER
100
AcDb3dPolyline
 66
     1
 10
0.0
 20
0.0
 30
0.0
 70
     9
  0
VERTEX
  5
8C
330
8B
100
AcDbEntity
  8
EASE-$ABSORBER
100
AcDbVertex
100
AcDb3dPolylineVertex
 10
3.827137
 20
-0.7814186
 30
19.18307
 70
    32
  0
VERTEX
  5
8D
330
8B
100
AcDbEntity
  8
EASE-$ABSORBER
100
AcDbVertex
100
AcDb3dPolylineVertex
 10
4.141938999999999
 20
-0.585712
 30
18.82372999999999
 70
    32
  0
VERTEX
  5
8E
330
8B
100
AcDbEntity
  8
EASE-$ABSORBER
100
AcDbVertex
100
AcDb3dPolylineVertex
 10
6.012023999999999
 20
-9.000003999999998
 30
19.20492
 70
    32
  0
SEQEND
  5
8F
330
8B
100
AcDbEntity
  8
EASE-$ABSORBER
  0
POLYLINE
  5
90
330
1E
100
AcDbEntity
  8
EASE-$ABSORBER
100
AcDb3dPolyline
 66
     1
 10
0.0
 20
0.0
 30
0.0
 70
     9
  0
VERTEX
  5
91
330
90
100
AcDbEntity
  8
EASE-$ABSORBER
100
AcDbVertex
100
AcDb3dPolylineVertex
 10
-6.012023999999999
 20
-9.000003999999998
 30
19.20492
 70
    32
  0
VERTEX
  5
92
330
90
100
AcDbEntity
  8
EASE-$ABSORBER
100
AcDbVertex
100
AcDb3dPolylineVertex
 10
-3.827137
 20
-0.7814186
 30
19.18307
 70
    32
  0
VERTEX
  5
93
330
90
100
AcDbEntity
  8
EASE-$ABSORBER
100
AcDbVertex
100
AcDb3dPolylineVertex
 10
-5.655838
 20
-9.009524
 30
19.55593
 70
    32
  0
SEQEND
  5
94
330
90
100
AcDbEntity
  8
EASE-$ABSORBER
  0
POLYLINE
  5
95
330
1E
100
AcDbEntity
  8
EASE-$ABSORBER
100
AcDb3dPolyline
 66
     1
 10
0.0
 20
0.0
 30
0.0
 70
     9
  0
VERTEX
  5
96
330
95
100
AcDbEntity
  8
EASE-$ABSORBER
100
AcDbVertex
100
AcDb3dPolylineVertex
 10
5.655838
 20
-9.009524
 30
19.55593
 70
    32
  0
VERTEX
  5
97
330
95
100
AcDbEntity
  8
EASE-$ABSORBER
100
AcDbVertex
100
AcDb3dPolylineVertex
 10
3.827137
 20
-0.7814186
 30
19.18307
 70
    32
  0
VERTEX
  5
98
330
95
100
AcDbEntity
  8
EASE-$ABSORBER
100
AcDbVertex
100
AcDb3dPolylineVertex
 10
6.012023999999999
 20
-9.000003999999998
 30
19.20492
 70
    32
  0
SEQEND
  5
99
330
95
100
AcDbEntity
  8
EASE-$ABSORBER
  0
POLYLINE
  5
9A
330
1E
100
AcDbEntity
  8
EASE-$ABSORBER
100
AcDb3dPolyline
 66
     1
 10
0.0
 20
0.0
 30
0.0
 70
     9
  0
VERTEX
  5
9B
330
9A
100
AcDbEntity
  8
EASE-$ABSORBER
100
AcDbVertex
100
AcDb3dPolylineVertex
 10
-4.141938999999999
 20
-0.585712
 30
18.82372999999999
 70
    32
  0
VERTEX
  5
9C
330
9A
100
AcDbEntity
  8
EASE-$ABSORBER
100
AcDbVertex
100
AcDb3dPolylineVertex
 10
-3.411766
 20
0.0
 30
18.79774
 70
    32
  0
VERTEX
  5
9D
330
9A
100
AcDbEntity
  8
EASE-$ABSORBER
100
AcDbVertex
100
AcDb3dPolylineVertex
 10
-3.288863999999999
 20
-0.3496402999999999
 30
19.16377999999999
 70
    32
  0
SEQEND
  5
9E
330
9A
100
AcDbEntity
  8
EASE-$ABSORBER
  0
POLYLINE
  5
9F
330
1E
100
AcDbEntity
  8
EASE-$ABSORBER
100
AcDb3dPolyline
 66
     1
 10
0.0
 20
0.0
 30
0.0
 70
     9
  0
VERTEX
  5
A0
330
9F
100
AcDbEntity
  8
EASE-$ABSORBER
100
AcDbVertex
100
AcDb3dPolylineVertex
 10
3.288863999999999
 20
-0.3496402999999999
 30
19.16377999999999
 70
    32
  0
VERTEX
  5
A1
330
9F
100
AcDbEntity
  8
EASE-$ABSORBER
100
AcDbVertex
100
AcDb3dPolylineVertex
 10
3.411766
 20
0.0
 30
18.79774
 70
    32
  0
VERTEX
  5
A2
330
9F
100
AcDbEntity
  8
EASE-$ABSORBER
100
AcDbVertex
100
AcDb3dPolylineVertex
 10
4.141938999999999
 20
-0.585712
 30
18.82372999999999
 70
    32
  0
SEQEND
  5
A3
330
9F
100
AcDbEntity
  8
EASE-$ABSORBER
  0
POLYLINE
  5
A4
330
1E
100
AcDbEntity
  8
EASE-$ABSORBER
100
AcDb3dPolyline
 66
     1
 10
0.0
 20
0.0
 30
0.0
 70
     9
  0
VERTEX
  5
A5
330
A4
100
AcDbEntity
  8
EASE-$ABSORBER
100
AcDbVertex
100
AcDb3dPolylineVertex
 10
-4.141938999999999
 20
-0.585712
 30
18.82372999999999
 70
    32
  0
VERTEX
  5
A6
330
A4
100
AcDbEntity
  8
EASE-$ABSORBER
100
AcDbVertex
100
AcDb3dPolylineVertex
 10
-3.288863999999999
 20
-0.3496402999999999
 30
19.16377999999999
 70
    32
  0
VERTEX
  5
A7
330
A4
100
AcDbEntity
  8
EASE-$ABSORBER
100
AcDbVertex
100
AcDb3dPolylineVertex
 10
-3.827137
 20
-0.7814186
 30
19.18307
 70
    32
  0
SEQEND
  5
A8
330
A4
100
AcDbEntity
  8
EASE-$ABSORBER
  0
POLYLINE
  5
A9
330
1E
100
AcDbEntity
  8
EASE-$ABSORBER
100
AcDb3dPolyline
 66
     1
 10
0.0
 20
0.0
 30
0.0
 70
     9
  0
VERTEX
  5
AA
330
A9
100
AcDbEntity
  8
EASE-$ABSORBER
100
AcDbVertex
100
AcDb3dPolylineVertex
 10
3.827137
 20
-0.7814186
 30
19.18307
 70
    32
  0
VERTEX
  5
AB
330
A9
100
AcDbEntity
  8
EASE-$ABSORBER
100
AcDbVertex
100
AcDb3dPolylineVertex
 10
3.288863999999999
 20
-0.3496402999999999
 30
19.16377999999999
 70
    32
  0
VERTEX
  5
AC
330
A9
100
AcDbEntity
  8
EASE-$ABSORBER
100
AcDbVertex
100
AcDb3dPolylineVertex
 10
4.141938999999999
 20
-0.585712
 30
18.82372999999999
 70
    32
  0
SEQEND
  5
AD
330
A9
100
AcDbEntity
  8
EASE-$ABSORBER
  0
POLYLINE
  5
AE
330
1E
100
AcDbEntity
  8
EASE-$ABSORBER
100
AcDb3dPolyline
 66
     1
 10
0.0
 20
0.0
 30
0.0
 70
     9
  0
VERTEX
  5
AF
330
AE
100
AcDbEntity
  8
EASE-$ABSORBER
100
AcDbVertex
100
AcDb3dPolylineVertex
 10
-3.411766
 20
0.0
 30
18.79774
 70
    32
  0
VERTEX
  5
B0
330
AE
100
AcDbEntity
  8
EASE-$ABSORBER
100
AcDbVertex
100
AcDb3dPolylineVertex
 10
3.388237
 20
0.0
 30
18.80199
 70
    32
  0
VERTEX
  5
B1
330
AE
100
AcDbEntity
  8
EASE-$ABSORBER
100
AcDbVertex
100
AcDb3dPolylineVertex
 10
3.264873
 20
-0.3496402999999999
 30
19.16788
 70
    32
  0
VERTEX
  5
B2
330
AE
100
AcDbEntity
  8
EASE-$ABSORBER
100
AcDbVertex
100
AcDb3dPolylineVertex
 10
-3.288863999999999
 20
-0.3496402999999999
 30
19.16377999999999
 70
    32
  0
SEQEND
  5
B3
330
AE
100
AcDbEntity
  8
EASE-$ABSORBER
  0
POLYLINE
  5
B4
330
1E
100
AcDbEntity
  8
EASE-$ABSORBER
100
AcDb3dPolyline
 66
     1
 10
0.0
 20
0.0
 30
0.0
 70
     9
  0
VERTEX
  5
B5
330
B4
100
AcDbEntity
  8
EASE-$ABSORBER
100
AcDbVertex
100
AcDb3dPolylineVertex
 10
3.288863999999999
 20
-0.3496402999999999
 30
19.16377999999999
 70
    32
  0
VERTEX
  5
B6
330
B4
100
AcDbEntity
  8
EASE-$ABSORBER
100
AcDbVertex
100
AcDb3dPolylineVertex
 10
-3.264873
 20
-0.3496402999999999
 30
19.16788
 70
    32
  0
VERTEX
  5
B7
330
B4
100
AcDbEntity
  8
EASE-$ABSORBER
100
AcDbVertex
100
AcDb3dPolylineVertex
 10
-3.388237
 20
0.0
 30
18.80199
 70
    32
  0
VERTEX
  5
B8
330
B4
100
AcDbEntity
  8
EASE-$ABSORBER
100
AcDbVertex
100
AcDb3dPolylineVertex
 10
3.411766
 20
0.0
 30
18.79774
 70
    32
  0
SEQEND
  5
B9
330
B4
100
AcDbEntity
  8
EASE-$ABSORBER
  0
POLYLINE
  5
BA
330
1E
100
AcDbEntity
  8
EASE-$ABSORBER
100
AcDb3dPolyline
 66
     1
 10
0.0
 20
0.0
 30
0.0
 70
     9
  0
VERTEX
  5
BB
330
BA
100
AcDbEntity
  8
EASE-$ABSORBER
100
AcDbVertex
100
AcDb3dPolylineVertex
 10
3.388237
 20
0.0
 30
18.80199
 70
    32
  0
VERTEX
  5
BC
330
BA
100
AcDbEntity
  8
EASE-$ABSORBER
100
AcDbVertex
100
AcDb3dPolylineVertex
 10
4.118376
 20
-0.585712
 30
18.8289
 70
    32
  0
VERTEX
  5
BD
330
BA
100
AcDbEntity
  8
EASE-$ABSORBER
100
AcDbVertex
100
AcDb3dPolylineVertex
 10
3.803122
 20
-0.7814186
 30
19.18783999999999
 70
    32
  0
SEQEND
  5
BE
330
BA
100
AcDbEntity
  8
EASE-$ABSORBER
  0
POLYLINE
  5
BF
330
1E
100
AcDbEntity
  8
EASE-$ABSORBER
100
AcDb3dPolyline
 66
     1
 10
0.0
 20
0.0
 30
0.0
 70
     9
  0
VERTEX
  5
C0
330
BF
100
AcDbEntity
  8
EASE-$ABSORBER
100
AcDbVertex
100
AcDb3dPolylineVertex
 10
-3.803122
 20
-0.7814186
 30
19.18783999999999
 70
    32
  0
VERTEX
  5
C1
330
BF
100
AcDbEntity
  8
EASE-$ABSORBER
100
AcDbVertex
100
AcDb3dPolylineVertex
 10
-4.118376
 20
-0.585712
 30
18.8289
 70
    32
  0
VERTEX
  5
C2
330
BF
100
AcDbEntity
  8
EASE-$ABSORBER
100
AcDbVertex
100
AcDb3dPolylineVertex
 10
-3.388237
 20
0.0
 30
18.80199
 70
    32
  0
SEQEND
  5
C3
330
BF
100
AcDbEntity
  8
EASE-$ABSORBER
  0
POLYLINE
  5
C4
330
1E
100
AcDbEntity
  8
EASE-$ABSORBER
100
AcDb3dPolyline
 66
     1
 10
0.0
 20
0.0
 30
0.0
 70
     9
  0
VERTEX
  5
C5
330
C4
100
AcDbEntity
  8
EASE-$ABSORBER
100
AcDbVertex
100
AcDb3dPolylineVertex
 10
3.388237
 20
0.0
 30
18.80199
 70
    32
  0
VERTEX
  5
C6
330
C4
100
AcDbEntity
  8
EASE-$ABSORBER
100
AcDbVertex
100
AcDb3dPolylineVertex
 10
3.803122
 20
-0.7814186
 30
19.18783999999999
 70
    32
  0
VERTEX
  5
C7
330
C4
100
AcDbEntity
  8
EASE-$ABSORBER
100
AcDbVertex
100
AcDb3dPolylineVertex
 10
3.264873
 20
-0.3496402999999999
 30
19.16788
 70
    32
  0
SEQEND
  5
C8
330
C4
100
AcDbEntity
  8
EASE-$ABSORBER
  0
POLYLINE
  5
C9
330
1E
100
AcDbEntity
  8
EASE-$ABSORBER
100
AcDb3dPolyline
 66
     1
 10
0.0
 20
0.0
 30
0.0
 70
     9
  0
VERTEX
  5
CA
330
C9
100
AcDbEntity
  8
EASE-$ABSORBER
100
AcDbVertex
100
AcDb3dPolylineVertex
 10
-3.264873
 20
-0.3496402999999999
 30
19.16788
 70
    32
  0
VERTEX
  5
CB
330
C9
100
AcDbEntity
  8
EASE-$ABSORBER
100
AcDbVertex
100
AcDb3dPolylineVertex
 10
-3.803122
 20
-0.7814186
 30
19.18783999999999
 70
    32
  0
VERTEX
  5
CC
330
C9
100
AcDbEntity
  8
EASE-$ABSORBER
100
AcDbVertex
100
AcDb3dPolylineVertex
 10
-3.388237
 20
0.0
 30
18.80199
 70
    32
  0
SEQEND
  5
CD
330
C9
100
AcDbEntity
  8
EASE-$ABSORBER
  0
POLYLINE
  5
CE
330
1E
100
AcDbEntity
  8
EASE-$ABSORBER
100
AcDb3dPolyline
 66
     1
 10
0.0
 20
0.0
 30
0.0
 70
     9
  0
VERTEX
  5
CF
330
CE
100
AcDbEntity
  8
EASE-$ABSORBER
100
AcDbVertex
100
AcDb3dPolylineVertex
 10
5.98798
 20
-9.000003999999998
 30
19.21242999999999
 70
    32
  0
VERTEX
  5
D0
330
CE
100
AcDbEntity
  8
EASE-$ABSORBER
100
AcDbVertex
100
AcDb3dPolylineVertex
 10
5.631355999999999
 20
-9.009524
 30
19.56298999999999
 70
    32
  0
VERTEX
  5
D1
330
CE
100
AcDbEntity
  8
EASE-$ABSORBER
100
AcDbVertex
100
AcDb3dPolylineVertex
 10
3.803122
 20
-0.7814186
 30
19.18783999999999
 70
    32
  0
SEQEND
  5
D2
330
CE
100
AcDbEntity
  8
EASE-$ABSORBER
  0
POLYLINE
  5
D3
330
1E
100
AcDbEntity
  8
EASE-$ABSORBER
100
AcDb3dPolyline
 66
     1
 10
0.0
 20
0.0
 30
0.0
 70
     9
  0
VERTEX
  5
D4
330
D3
100
AcDbEntity
  8
EASE-$ABSORBER
100
AcDbVertex
100
AcDb3dPolylineVertex
 10
-3.803122
 20
-0.7814186
 30
19.18783999999999
 70
    32
  0
VERTEX
  5
D5
330
D3
100
AcDbEntity
  8
EASE-$ABSORBER
100
AcDbVertex
100
AcDb3dPolylineVertex
 10
-5.631355999999999
 20
-9.009524
 30
19.56298999999999
 70
    32
  0
VERTEX
  5
D6
330
D3
100
AcDbEntity
  8
EASE-$ABSORBER
100
AcDbVertex
100
AcDb3dPolylineVertex
 10
-5.98798
 20
-9.000003999999998
 30
19.21242999999999
 70
    32
  0
SEQEND
  5
D7
330
D3
100
AcDbEntity
  8
EASE-$ABSORBER
  0
POLYLINE
  5
D8
330
1E
100
AcDbEntity
  8
EASE-$ABSORBER
100
AcDb3dPolyline
 66
     1
 10
0.0
 20
0.0
 30
0.0
 70
     9
  0
VERTEX
  5
D9
330
D8
100
AcDbEntity
  8
EASE-$ABSORBER
100
AcDbVertex
100
AcDb3dPolylineVertex
 10
4.118376
 20
-0.585712
 30
18.8289
 70
    32
  0
VERTEX
  5
DA
330
D8
100
AcDbEntity
  8
EASE-$ABSORBER
100
AcDbVertex
100
AcDb3dPolylineVertex
 10
5.98798
 20
-9.000003999999998
 30
19.21242999999999
 70
    32
  0
VERTEX
  5
DB
330
D8
100
AcDbEntity
  8
EASE-$ABSORBER
100
AcDbVertex
100
AcDb3dPolylineVertex
 10
3.803122
 20
-0.7814186
 30
19.18783999999999
 70
    32
  0
SEQEND
  5
DC
330
D8
100
AcDbEntity
  8
EASE-$ABSORBER
  0
POLYLINE
  5
DD
330
1E
100
AcDbEntity
  8
EASE-$ABSORBER
100
AcDb3dPolyline
 66
     1
 10
0.0
 20
0.0
 30
0.0
 70
     9
  0
VERTEX
  5
DE
330
DD
100
AcDbEntity
  8
EASE-$ABSORBER
100
AcDbVertex
100
AcDb3dPolylineVertex
 10
-3.803122
 20
-0.7814186
 30
19.18783999999999
 70
    32
  0
VERTEX
  5
DF
330
DD
100
AcDbEntity
  8
EASE-$ABSORBER
100
AcDbVertex
100
AcDb3dPolylineVertex
 10
-5.98798
 20
-9.000003999999998
 30
19.21242999999999
 70
    32
  0
VERTEX
  5
E0
330
DD
100
AcDbEntity
  8
EASE-$ABSORBER
100
AcDbVertex
100
AcDb3dPolylineVertex
 10
-4.118376
 20
-0.585712
 30
18.8289
 70
    32
  0
SEQEND
  5
E1
330
DD
100
AcDbEntity
  8
EASE-$ABSORBER
  0
POLYLINE
  5
E2
330
1E
100
AcDbEntity
  8
EASE-$ABSORBER
100
AcDb3dPolyline
 66
     1
 10
0.0
 20
0.0
 30
0.0
 70
     9
  0
VERTEX
  5
E3
330
E2
100
AcDbEntity
  8
EASE-$ABSORBER
100
AcDbVertex
100
AcDb3dPolylineVertex
 10
5.98798
 20
-9.000003999999998
 30
19.21242999999999
 70
    32
  0
VERTEX
  5
E4
330
E2
100
AcDbEntity
  8
EASE-$ABSORBER
100
AcDbVertex
100
AcDb3dPolylineVertex
 10
5.74765
 20
-10.44175
 30
19.27781
 70
    32
  0
VERTEX
  5
E5
330
E2
100
AcDbEntity
  8
EASE-$ABSORBER
100
AcDbVertex
100
AcDb3dPolylineVertex
 10
5.386317
 20
-10.47951
 30
19.62966
 70
    32
  0
VERTEX
  5
E6
330
E2
100
AcDbEntity
  8
EASE-$ABSORBER
100
AcDbVertex
100
AcDb3dPolylineVertex
 10
5.631355999999999
 20
-9.009524
 30
19.56298999999999
 70
    32
  0
SEQEND
  5
E7
330
E2
100
AcDbEntity
  8
EASE-$ABSORBER
  0
POLYLINE
  5
E8
330
1E
100
AcDbEntity
  8
EASE-$ABSORBER
100
AcDb3dPolyline
 66
     1
 10
0.0
 20
0.0
 30
0.0
 70
     9
  0
VERTEX
  5
E9
330
E8
100
AcDbEntity
  8
EASE-$ABSORBER
100
AcDbVertex
100
AcDb3dPolylineVertex
 10
-5.631355999999999
 20
-9.009524
 30
19.56298999999999
 70
    32
  0
VERTEX
  5
EA
330
E8
100
AcDbEntity
  8
EASE-$ABSORBER
100
AcDbVertex
100
AcDb3dPolylineVertex
 10
-5.386317
 20
-10.47951
 30
19.62966
 70
    32
  0
VERTEX
  5
EB
330
E8
100
AcDbEntity
  8
EASE-$ABSORBER
100
AcDbVertex
100
AcDb3dPolylineVertex
 10
-5.74765
 20
-10.44175
 30
19.27781
 70
    32
  0
VERTEX
  5
EC
330
E8
100
AcDbEntity
  8
EASE-$ABSORBER
100
AcDbVertex
100
AcDb3dPolylineVertex
 10
-5.98798
 20
-9.000003999999998
 30
19.21242999999999
 70
    32
  0
SEQEND
  5
ED
330
E8
100
AcDbEntity
  8
EASE-$ABSORBER
  0
POLYLINE
  5
EE
330
1E
100
AcDbEntity
  8
EASE-$ABSORBER
100
AcDb3dPolyline
 66
     1
 10
0.0
 20
0.0
 30
0.0
 70
     9
  0
VERTEX
  5
EF
330
EE
100
AcDbEntity
  8
EASE-$ABSORBER
100
AcDbVertex
100
AcDb3dPolylineVertex
 10
1.275174
 20
-2.800000999999999
 30
19.65073999999999
 70
    32
  0
VERTEX
  5
F0
330
EE
100
AcDbEntity
  8
EASE-$ABSORBER
100
AcDbVertex
100
AcDb3dPolylineVertex
 10
1.275404999999999
 20
-2.800000999999999
 30
19.27801
 70
    32
  0
VERTEX
  5
F1
330
EE
100
AcDbEntity
  8
EASE-$ABSORBER
100
AcDbVertex
100
AcDb3dPolylineVertex
 10
2.487708
 20
-10.78262
 30
19.64161999999999
 70
    32
  0
SEQEND
  5
F2
330
EE
100
AcDbEntity
  8
EASE-$ABSORBER
  0
POLYLINE
  5
F3
330
1E
100
AcDbEntity
  8
EASE-$ABSORBER
100
AcDb3dPolyline
 66
     1
 10
0.0
 20
0.0
 30
0.0
 70
     9
  0
VERTEX
  5
F4
330
F3
100
AcDbEntity
  8
EASE-$ABSORBER
100
AcDbVertex
100
AcDb3dPolylineVertex
 10
-2.487708
 20
-10.78262
 30
19.64161999999999
 70
    32
  0
VERTEX
  5
F5
330
F3
100
AcDbEntity
  8
EASE-$ABSORBER
100
AcDbVertex
100
AcDb3dPolylineVertex
 10
-1.275404999999999
 20
-2.800000999999999
 30
19.27801
 70
    32
  0
VERTEX
  5
F6
330
F3
100
AcDbEntity
  8
EASE-$ABSORBER
100
AcDbVertex
100
AcDb3dPolylineVertex
 10
-1.275174
 20
-2.800000999999999
 30
19.65073999999999
 70
    32
  0
SEQEND
  5
F7
330
F3
100
AcDbEntity
  8
EASE-$ABSORBER
  0
POLYLINE
  5
F8
330
1E
100
AcDbEntity
  8
EASE-$ABSORBER
100
AcDb3dPolyline
 66
     1
 10
0.0
 20
0.0
 30
0.0
 70
     9
  0
VERTEX
  5
F9
330
F8
100
AcDbEntity
  8
EASE-$ABSORBER
100
AcDbVertex
100
AcDb3dPolylineVertex
 10
0.9210930000000001
 20
-2.500000999999999
 30
19.26416
 70
    32
  0
VERTEX
  5
FA
330
F8
100
AcDbEntity
  8
EASE-$ABSORBER
100
AcDbVertex
100
AcDb3dPolylineVertex
 10
1.275404999999999
 20
-2.800000999999999
 30
19.27801
 70
    32
  0
VERTEX
  5
FB
330
F8
100
AcDbEntity
  8
EASE-$ABSORBER
100
AcDbVertex
100
AcDb3dPolylineVertex
 10
1.275174
 20
-2.800000999999999
 30
19.65073999999999
 70
    32
  0
VERTEX
  5
FC
330
F8
100
AcDbEntity
  8
EASE-$ABSORBER
100
AcDbVertex
100
AcDb3dPolylineVertex
 10
0.9208528000000001
 20
-2.500000999999999
 30
19.65052
 70
    32
  0
SEQEND
  5
FD
330
F8
100
AcDbEntity
  8
EASE-$ABSORBER
  0
POLYLINE
  5
FE
330
1E
100
AcDbEntity
  8
EASE-$ABSORBER
100
AcDb3dPolyline
 66
     1
 10
0.0
 20
0.0
 30
0.0
 70
     9
  0
VERTEX
  5
FF
330
FE
100
AcDbEntity
  8
EASE-$ABSORBER
100
AcDbVertex
100
AcDb3dPolylineVertex
 10
-0.9208528000000001
 20
-2.500000999999999
 30
19.65052
 70
    32
  0
VERTEX
  5
100
330
FE
100
AcDbEntity
  8
EASE-$ABSORBER
100
AcDbVertex
100
AcDb3dPolylineVertex
 10
-1.275174
 20
-2.800000999999999
 30
19.65073999999999
 70
    32
  0
VERTEX
  5
101
330
FE
100
AcDbEntity
  8
EASE-$ABSORBER
100
AcDbVertex
100
AcDb3dPolylineVertex
 10
-1.275404999999999
 20
-2.800000999999999
 30
19.27801
 70
    32
  0
VERTEX
  5
102
330
FE
100
AcDbEntity
  8
EASE-$ABSORBER
100
AcDbVertex
100
AcDb3dPolylineVertex
 10
-0.9210930000000001
 20
-2.500000999999999
 30
19.26416
 70
    32
  0
SEQEND
  5
103
330
FE
100
AcDbEntity
  8
EASE-$ABSORBER
  0
POLYLINE
  5
104
330
1E
100
AcDbEntity
  8
EASE-$ABSORBER
100
AcDb3dPolyline
 66
     1
 10
0.0
 20
0.0
 30
0.0
 70
     9
  0
VERTEX
  5
105
330
104
100
AcDbEntity
  8
EASE-$ABSORBER
100
AcDbVertex
100
AcDb3dPolylineVertex
 10
-0.9454495000000001
 20
-2.500000999999999
 30
19.64934999999999
 70
    32
  0
VERTEX
  5
106
330
104
100
AcDbEntity
  8
EASE-$ABSORBER
100
AcDbVertex
100
AcDb3dPolylineVertex
 10
-0.9452043999999999
 20
-2.500000999999999
 30
19.26299
 70
    32
  0
VERTEX
  5
107
330
104
100
AcDbEntity
  8
EASE-$ABSORBER
100
AcDbVertex
100
AcDb3dPolylineVertex
 10
0.9210930000000001
 20
-2.500000999999999
 30
19.26416
 70
    32
  0
VERTEX
  5
108
330
104
100
AcDbEntity
  8
EASE-$ABSORBER
100
AcDbVertex
100
AcDb3dPolylineVertex
 10
0.9208528000000001
 20
-2.500000999999999
 30
19.65052
 70
    32
  0
SEQEND
  5
109
330
104
100
AcDbEntity
  8
EASE-$ABSORBER
  0
POLYLINE
  5
10A
330
1E
100
AcDbEntity
  8
EASE-$ABSORBER
100
AcDb3dPolyline
 66
     1
 10
0.0
 20
0.0
 30
0.0
 70
     9
  0
VERTEX
  5
10B
330
10A
100
AcDbEntity
  8
EASE-$ABSORBER
100
AcDbVertex
100
AcDb3dPolylineVertex
 10
-0.9208528000000001
 20
-2.500000999999999
 30
19.65052
 70
    32
  0
VERTEX
  5
10C
330
10A
100
AcDbEntity
  8
EASE-$ABSORBER
100
AcDbVertex
100
AcDb3dPolylineVertex
 10
-0.9210930000000001
 20
-2.500000999999999
 30
19.26416
 70
    32
  0
VERTEX
  5
10D
330
10A
100
AcDbEntity
  8
EASE-$ABSORBER
100
AcDbVertex
100
AcDb3dPolylineVertex
 10
0.9452043999999999
 20
-2.500000999999999
 30
19.26299
 70
    32
  0
VERTEX
  5
10E
330
10A
100
AcDbEntity
  8
EASE-$ABSORBER
100
AcDbVertex
100
AcDb3dPolylineVertex
 10
0.9454495000000001
 20
-2.500000999999999
 30
19.64934999999999
 70
    32
  0
SEQEND
  5
10F
330
10A
100
AcDbEntity
  8
EASE-$ABSORBER
  0
POLYLINE
  5
110
330
1E
100
AcDbEntity
  8
EASE-$ABSORBER
100
AcDb3dPolyline
 66
     1
 10
0.0
 20
0.0
 30
0.0
 70
     9
  0
VERTEX
  5
111
330
110
100
AcDbEntity
  8
EASE-$ABSORBER
100
AcDbVertex
100
AcDb3dPolylineVertex
 10
-1.299765999999999
 20
-2.800000999999999
 30
19.64913
 70
    32
  0
VERTEX
  5
112
330
110
100
AcDbEntity
  8
EASE-$ABSORBER
100
AcDbVertex
100
AcDb3dPolylineVertex
 10
-1.299535
 20
-2.800000999999999
 30
19.2764
 70
    32
  0
VERTEX
  5
113
330
110
100
AcDbEntity
  8
EASE-$ABSORBER
100
AcDbVertex
100
AcDb3dPolylineVertex
 10
-0.9452043999999999
 20
-2.500000999999999
 30
19.26299
 70
    32
  0
VERTEX
  5
114
330
110
100
AcDbEntity
  8
EASE-$ABSORBER
100
AcDbVertex
100
AcDb3dPolylineVertex
 10
-0.9454495000000001
 20
-2.500000999999999
 30
19.64934999999999
 70
    32
  0
SEQEND
  5
115
330
110
100
AcDbEntity
  8
EASE-$ABSORBER
  0
POLYLINE
  5
116
330
1E
100
AcDbEntity
  8
EASE-$ABSORBER
100
AcDb3dPolyline
 66
     1
 10
0.0
 20
0.0
 30
0.0
 70
     9
  0
VERTEX
  5
117
330
116
100
AcDbEntity
  8
EASE-$ABSORBER
100
AcDbVertex
100
AcDb3dPolylineVertex
 10
0.9454495000000001
 20
-2.500000999999999
 30
19.64934999999999
 70
    32
  0
VERTEX
  5
118
330
116
100
AcDbEntity
  8
EASE-$ABSORBER
100
AcDbVertex
100
AcDb3dPolylineVertex
 10
0.9452043999999999
 20
-2.500000999999999
 30
19.26299
 70
    32
  0
VERTEX
  5
119
330
116
100
AcDbEntity
  8
EASE-$ABSORBER
100
AcDbVertex
100
AcDb3dPolylineVertex
 10
1.299535
 20
-2.800000999999999
 30
19.2764
 70
    32
  0
VERTEX
  5
11A
330
116
100
AcDbEntity
  8
EASE-$ABSORBER
100
AcDbVertex
100
AcDb3dPolylineVertex
 10
1.299765999999999
 20
-2.800000999999999
 30
19.64913
 70
    32
  0
SEQEND
  5
11B
330
116
100
AcDbEntity
  8
EASE-$ABSORBER
  0
POLYLINE
  5
11C
330
1E
100
AcDbEntity
  8
EASE-$ABSORBER
100
AcDb3dPolyline
 66
     1
 10
0.0
 20
0.0
 30
0.0
 70
     9
  0
VERTEX
  5
11D
330
11C
100
AcDbEntity
  8
EASE-$ABSORBER
100
AcDbVertex
100
AcDb3dPolylineVertex
 10
-2.51229
 20
-10.78262
 30
19.63849
 70
    32
  0
VERTEX
  5
11E
330
11C
100
AcDbEntity
  8
EASE-$ABSORBER
100
AcDbVertex
100
AcDb3dPolylineVertex
 10
-1.299535
 20
-2.800000999999999
 30
19.2764
 70
    32
  0
VERTEX
  5
11F
330
11C
100
AcDbEntity
  8
EASE-$ABSORBER
100
AcDbVertex
100
AcDb3dPolylineVertex
 10
-1.299765999999999
 20
-2.800000999999999
 30
19.64913
 70
    32
  0
SEQEND
  5
120
330
11C
100
AcDbEntity
  8
EASE-$ABSORBER
  0
POLYLINE
  5
121
330
1E
100
AcDbEntity
  8
EASE-$ABSORBER
100
AcDb3dPolyline
 66
     1
 10
0.0
 20
0.0
 30
0.0
 70
     9
  0
VERTEX
  5
122
330
121
100
AcDbEntity
  8
EASE-$ABSORBER
100
AcDbVertex
100
AcDb3dPolylineVertex
 10
1.299765999999999
 20
-2.800000999999999
 30
19.64913
 70
    32
  0
VERTEX
  5
123
330
121
100
AcDbEntity
  8
EASE-$ABSORBER
100
AcDbVertex
100
AcDb3dPolylineVertex
 10
1.299535
 20
-2.800000999999999
 30
19.2764
 70
    32
  0
VERTEX
  5
124
330
121
100
AcDbEntity
  8
EASE-$ABSORBER
100
AcDbVertex
100
AcDb3dPolylineVertex
 10
2.51229
 20
-10.78262
 30
19.63849
 70
    32
  0
SEQEND
  5
125
330
121
100
AcDbEntity
  8
EASE-$ABSORBER
  0
POLYLINE
  5
126
330
1E
100
AcDbEntity
  8
EASE-$ABSORBER
100
AcDb3dPolyline
 66
     1
 10
0.0
 20
0.0
 30
0.0
 70
     9
  0
VERTEX
  5
127
330
126
100
AcDbEntity
  8
EASE-$ABSORBER
100
AcDbVertex
100
AcDb3dPolylineVertex
 10
5.386317
 20
-10.47951
 30
19.62966
 70
    32
  0
VERTEX
  5
128
330
126
100
AcDbEntity
  8
EASE-$ABSORBER
100
AcDbVertex
100
AcDb3dPolylineVertex
 10
2.487708
 20
-10.78262
 30
19.64161999999999
 70
    32
  0
VERTEX
  5
129
330
126
100
AcDbEntity
  8
EASE-$ABSORBER
100
AcDbVertex
100
AcDb3dPolylineVertex
 10
1.275404999999999
 20
-2.800000999999999
 30
19.27801
 70
    32
  0
VERTEX
  5
12A
330
126
100
AcDbEntity
  8
EASE-$ABSORBER
100
AcDbVertex
100
AcDb3dPolylineVertex
 10
5.631355999999999
 20
-9.009524
 30
19.56298999999999
 70
    32
  0
SEQEND
  5
12B
330
126
100
AcDbEntity
  8
EASE-$ABSORBER
  0
POLYLINE
  5
12C
330
1E
100
AcDbEntity
  8
EASE-$ABSORBER
100
AcDb3dPolyline
 66
     1
 10
0.0
 20
0.0
 30
0.0
 70
     9
  0
VERTEX
  5
12D
330
12C
100
AcDbEntity
  8
EASE-$ABSORBER
100
AcDbVertex
100
AcDb3dPolylineVertex
 10
-5.631355999999999
 20
-9.009524
 30
19.56298999999999
 70
    32
  0
VERTEX
  5
12E
330
12C
100
AcDbEntity
  8
EASE-$ABSORBER
100
AcDbVertex
100
AcDb3dPolylineVertex
 10
-1.275404999999999
 20
-2.800000999999999
 30
19.27801
 70
    32
  0
VERTEX
  5
12F
330
12C
100
AcDbEntity
  8
EASE-$ABSORBER
100
AcDbVertex
100
AcDb3dPolylineVertex
 10
-2.487708
 20
-10.78262
 30
19.64161999999999
 70
    32
  0
VERTEX
  5
130
330
12C
100
AcDbEntity
  8
EASE-$ABSORBER
100
AcDbVertex
100
AcDb3dPolylineVertex
 10
-5.386317
 20
-10.47951
 30
19.62966
 70
    32
  0
SEQEND
  5
131
330
12C
100
AcDbEntity
  8
EASE-$ABSORBER
  0
POLYLINE
  5
132
330
1E
100
AcDbEntity
  8
EASE-$ABSORBER
100
AcDb3dPolyline
 66
     1
 10
0.0
 20
0.0
 30
0.0
 70
     9
  0
VERTEX
  5
133
330
132
100
AcDbEntity
  8
EASE-$ABSORBER
100
AcDbVertex
100
AcDb3dPolylineVertex
 10
5.631355999999999
 20
-9.009524
 30
19.56298999999999
 70
    32
  0
VERTEX
  5
134
330
132
100
AcDbEntity
  8
EASE-$ABSORBER
100
AcDbVertex
100
AcDb3dPolylineVertex
 10
1.275404999999999
 20
-2.800000999999999
 30
19.27801
 70
    32
  0
VERTEX
  5
135
330
132
100
AcDbEntity
  8
EASE-$ABSORBER
100
AcDbVertex
100
AcDb3dPolylineVertex
 10
3.264873
 20
-0.3496402999999999
 30
19.16788
 70
    32
  0
VERTEX
  5
136
330
132
100
AcDbEntity
  8
EASE-$ABSORBER
100
AcDbVertex
100
AcDb3dPolylineVertex
 10
3.803122
 20
-0.7814186
 30
19.18783999999999
 70
    32
  0
SEQEND
  5
137
330
132
100
AcDbEntity
  8
EASE-$ABSORBER
  0
POLYLINE
  5
138
330
1E
100
AcDbEntity
  8
EASE-$ABSORBER
100
AcDb3dPolyline
 66
     1
 10
0.0
 20
0.0
 30
0.0
 70
     9
  0
VERTEX
  5
139
330
138
100
AcDbEntity
  8
EASE-$ABSORBER
100
AcDbVertex
100
AcDb3dPolylineVertex
 10
-3.803122
 20
-0.7814186
 30
19.18783999999999
 70
    32
  0
VERTEX
  5
13A
330
138
100
AcDbEntity
  8
EASE-$ABSORBER
100
AcDbVertex
100
AcDb3dPolylineVertex
 10
-3.264873
 20
-0.3496402999999999
 30
19.16788
 70
    32
  0
VERTEX
  5
13B
330
138
100
AcDbEntity
  8
EASE-$ABSORBER
100
AcDbVertex
100
AcDb3dPolylineVertex
 10
-1.275404999999999
 20
-2.800000999999999
 30
19.27801
 70
    32
  0
VERTEX
  5
13C
330
138
100
AcDbEntity
  8
EASE-$ABSORBER
100
AcDbVertex
100
AcDb3dPolylineVertex
 10
-5.631355999999999
 20
-9.009524
 30
19.56298999999999
 70
    32
  0
SEQEND
  5
13D
330
138
100
AcDbEntity
  8
EASE-$ABSORBER
  0
POLYLINE
  5
13E
330
1E
100
AcDbEntity
  8
EASE-$ABSORBER
100
AcDb3dPolyline
 66
     1
 10
0.0
 20
0.0
 30
0.0
 70
     9
  0
VERTEX
  5
13F
330
13E
100
AcDbEntity
  8
EASE-$ABSORBER
100
AcDbVertex
100
AcDb3dPolylineVertex
 10
3.264873
 20
-0.3496402999999999
 30
19.16788
 70
    32
  0
VERTEX
  5
140
330
13E
100
AcDbEntity
  8
EASE-$ABSORBER
100
AcDbVertex
100
AcDb3dPolylineVertex
 10
1.275404999999999
 20
-2.800000999999999
 30
19.27801
 70
    32
  0
VERTEX
  5
141
330
13E
100
AcDbEntity
  8
EASE-$ABSORBER
100
AcDbVertex
100
AcDb3dPolylineVertex
 10
0.9210930000000001
 20
-2.500000999999999
 30
19.26416
 70
    32
  0
VERTEX
  5
142
330
13E
100
AcDbEntity
  8
EASE-$ABSORBER
100
AcDbVertex
100
AcDb3dPolylineVertex
 10
0.9211556000000001
 20
-0.3496402999999999
 30
19.16641
 70
    32
  0
SEQEND
  5
143
330
13E
100
AcDbEntity
  8
EASE-$ABSORBER
  0
POLYLINE
  5
144
330
1E
100
AcDbEntity
  8
EASE-$ABSORBER
100
AcDb3dPolyline
 66
     1
 10
0.0
 20
0.0
 30
0.0
 70
     9
  0
VERTEX
  5
145
330
144
100
AcDbEntity
  8
EASE-$ABSORBER
100
AcDbVertex
100
AcDb3dPolylineVertex
 10
-0.9211556000000001
 20
-0.3496402999999999
 30
19.16641
 70
    32
  0
VERTEX
  5
146
330
144
100
AcDbEntity
  8
EASE-$ABSORBER
100
AcDbVertex
100
AcDb3dPolylineVertex
 10
-0.9210930000000001
 20
-2.500000999999999
 30
19.26416
 70
    32
  0
VERTEX
  5
147
330
144
100
AcDbEntity
  8
EASE-$ABSORBER
100
AcDbVertex
100
AcDb3dPolylineVertex
 10
-1.275404999999999
 20
-2.800000999999999
 30
19.27801
 70
    32
  0
VERTEX
  5
148
330
144
100
AcDbEntity
  8
EASE-$ABSORBER
100
AcDbVertex
100
AcDb3dPolylineVertex
 10
-3.264873
 20
-0.3496402999999999
 30
19.16788
 70
    32
  0
SEQEND
  5
149
330
144
100
AcDbEntity
  8
EASE-$ABSORBER
  0
POLYLINE
  5
14A
330
1E
100
AcDbEntity
  8
EASE-$ABSORBER
100
AcDb3dPolyline
 66
     1
 10
0.0
 20
0.0
 30
0.0
 70
     9
  0
VERTEX
  5
14B
330
14A
100
AcDbEntity
  8
EASE-$ABSORBER
100
AcDbVertex
100
AcDb3dPolylineVertex
 10
0.9211556000000001
 20
-0.3496402999999999
 30
19.16641
 70
    32
  0
VERTEX
  5
14C
330
14A
100
AcDbEntity
  8
EASE-$ABSORBER
100
AcDbVertex
100
AcDb3dPolylineVertex
 10
0.9210930000000001
 20
-2.500000999999999
 30
19.26416
 70
    32
  0
VERTEX
  5
14D
330
14A
100
AcDbEntity
  8
EASE-$ABSORBER
100
AcDbVertex
100
AcDb3dPolylineVertex
 10
-0.9452043999999999
 20
-2.500000999999999
 30
19.26299
 70
    32
  0
VERTEX
  5
14E
330
14A
100
AcDbEntity
  8
EASE-$ABSORBER
100
AcDbVertex
100
AcDb3dPolylineVertex
 10
-0.9451418999999999
 20
-0.3496402999999999
 30
19.16524
 70
    32
  0
SEQEND
  5
14F
330
14A
100
AcDbEntity
  8
EASE-$ABSORBER
  0
POLYLINE
  5
150
330
1E
100
AcDbEntity
  8
EASE-$ABSORBER
100
AcDb3dPolyline
 66
     1
 10
0.0
 20
0.0
 30
0.0
 70
     9
  0
VERTEX
  5
151
330
150
100
AcDbEntity
  8
EASE-$ABSORBER
100
AcDbVertex
100
AcDb3dPolylineVertex
 10
0.9451418999999999
 20
-0.3496402999999999
 30
19.16524
 70
    32
  0
VERTEX
  5
152
330
150
100
AcDbEntity
  8
EASE-$ABSORBER
100
AcDbVertex
100
AcDb3dPolylineVertex
 10
0.9452043999999999
 20
-2.500000999999999
 30
19.26299
 70
    32
  0
VERTEX
  5
153
330
150
100
AcDbEntity
  8
EASE-$ABSORBER
100
AcDbVertex
100
AcDb3dPolylineVertex
 10
-0.9210930000000001
 20
-2.500000999999999
 30
19.26416
 70
    32
  0
VERTEX
  5
154
330
150
100
AcDbEntity
  8
EASE-$ABSORBER
100
AcDbVertex
100
AcDb3dPolylineVertex
 10
-0.9211556000000001
 20
-0.3496402999999999
 30
19.16641
 70
    32
  0
SEQEND
  5
155
330
150
100
AcDbEntity
  8
EASE-$ABSORBER
  0
POLYLINE
  5
156
330
1E
100
AcDbEntity
  8
EASE-$ABSORBER
100
AcDb3dPolyline
 66
     1
 10
0.0
 20
0.0
 30
0.0
 70
     9
  0
VERTEX
  5
157
330
156
100
AcDbEntity
  8
EASE-$ABSORBER
100
AcDbVertex
100
AcDb3dPolylineVertex
 10
-0.9451418999999999
 20
-0.3496402999999999
 30
19.16524
 70
    32
  0
VERTEX
  5
158
330
156
100
AcDbEntity
  8
EASE-$ABSORBER
100
AcDbVertex
100
AcDb3dPolylineVertex
 10
-0.9452043999999999
 20
-2.500000999999999
 30
19.26299
 70
    32
  0
VERTEX
  5
159
330
156
100
AcDbEntity
  8
EASE-$ABSORBER
100
AcDbVertex
100
AcDb3dPolylineVertex
 10
-1.299535
 20
-2.800000999999999
 30
19.2764
 70
    32
  0
VERTEX
  5
15A
330
156
100
AcDbEntity
  8
EASE-$ABSORBER
100
AcDbVertex
100
AcDb3dPolylineVertex
 10
-3.288863999999999
 20
-0.3496402999999999
 30
19.16377999999999
 70
    32
  0
SEQEND
  5
15B
330
156
100
AcDbEntity
  8
EASE-$ABSORBER
  0
POLYLINE
  5
15C
330
1E
100
AcDbEntity
  8
EASE-$ABSORBER
100
AcDb3dPolyline
 66
     1
 10
0.0
 20
0.0
 30
0.0
 70
     9
  0
VERTEX
  5
15D
330
15C
100
AcDbEntity
  8
EASE-$ABSORBER
100
AcDbVertex
100
AcDb3dPolylineVertex
 10
3.288863999999999
 20
-0.3496402999999999
 30
19.16377999999999
 70
    32
  0
VERTEX
  5
15E
330
15C
100
AcDbEntity
  8
EASE-$ABSORBER
100
AcDbVertex
100
AcDb3dPolylineVertex
 10
1.299535
 20
-2.800000999999999
 30
19.2764
 70
    32
  0
VERTEX
  5
15F
330
15C
100
AcDbEntity
  8
EASE-$ABSORBER
100
AcDbVertex
100
AcDb3dPolylineVertex
 10
0.9452043999999999
 20
-2.500000999999999
 30
19.26299
 70
    32
  0
VERTEX
  5
160
330
15C
100
AcDbEntity
  8
EASE-$ABSORBER
100
AcDbVertex
100
AcDb3dPolylineVertex
 10
0.9451418999999999
 20
-0.3496402999999999
 30
19.16524
 70
    32
  0
SEQEND
  5
161
330
15C
100
AcDbEntity
  8
EASE-$ABSORBER
  0
POLYLINE
  5
162
330
1E
100
AcDbEntity
  8
EASE-$ABSORBER
100
AcDb3dPolyline
 66
     1
 10
0.0
 20
0.0
 30
0.0
 70
     9
  0
VERTEX
  5
163
330
162
100
AcDbEntity
  8
EASE-$ABSORBER
100
AcDbVertex
100
AcDb3dPolylineVertex
 10
-3.827137
 20
-0.7814186
 30
19.18307
 70
    32
  0
VERTEX
  5
164
330
162
100
AcDbEntity
  8
EASE-$ABSORBER
100
AcDbVertex
100
AcDb3dPolylineVertex
 10
-3.288863999999999
 20
-0.3496402999999999
 30
19.16377999999999
 70
    32
  0
VERTEX
  5
165
330
162
100
AcDbEntity
  8
EASE-$ABSORBER
100
AcDbVertex
100
AcDb3dPolylineVertex
 10
-1.299535
 20
-2.800000999999999
 30
19.2764
 70
    32
  0
VERTEX
  5
166
330
162
100
AcDbEntity
  8
EASE-$ABSORBER
100
AcDbVertex
100
AcDb3dPolylineVertex
 10
-4.135965
 20
-2.170977999999999
 30
19.24604
 70
    32
  0
SEQEND
  5
167
330
162
100
AcDbEntity
  8
EASE-$ABSORBER
  0
POLYLINE
  5
168
330
1E
100
AcDbEntity
  8
EASE-$ABSORBER
100
AcDb3dPolyline
 66
     1
 10
0.0
 20
0.0
 30
0.0
 70
     9
  0
VERTEX
  5
169
330
168
100
AcDbEntity
  8
EASE-$ABSORBER
100
AcDbVertex
100
AcDb3dPolylineVertex
 10
4.135965
 20
-2.170977999999999
 30
19.24604
 70
    32
  0
VERTEX
  5
16A
330
168
100
AcDbEntity
  8
EASE-$ABSORBER
100
AcDbVertex
100
AcDb3dPolylineVertex
 10
1.299535
 20
-2.800000999999999
 30
19.2764
 70
    32
  0
VERTEX
  5
16B
330
168
100
AcDbEntity
  8
EASE-$ABSORBER
100
AcDbVertex
100
AcDb3dPolylineVertex
 10
3.288863999999999
 20
-0.3496402999999999
 30
19.16377999999999
 70
    32
  0
VERTEX
  5
16C
330
168
100
AcDbEntity
  8
EASE-$ABSORBER
100
AcDbVertex
100
AcDb3dPolylineVertex
 10
3.827137
 20
-0.7814186
 30
19.18307
 70
    32
  0
SEQEND
  5
16D
330
168
100
AcDbEntity
  8
EASE-$ABSORBER
  0
POLYLINE
  5
16E
330
1E
100
AcDbEntity
  8
EASE-$ABSORBER
100
AcDb3dPolyline
 66
     1
 10
0.0
 20
0.0
 30
0.0
 70
     9
  0
VERTEX
  5
16F
330
16E
100
AcDbEntity
  8
EASE-$ABSORBER
100
AcDbVertex
100
AcDb3dPolylineVertex
 10
-5.655838
 20
-9.009524
 30
19.55593
 70
    32
  0
VERTEX
  5
170
330
16E
100
AcDbEntity
  8
EASE-$ABSORBER
100
AcDbVertex
100
AcDb3dPolylineVertex
 10
-4.135965
 20
-2.170977999999999
 30
19.24604
 70
    32
  0
VERTEX
  5
171
330
16E
100
AcDbEntity
  8
EASE-$ABSORBER
100
AcDbVertex
100
AcDb3dPolylineVertex
 10
-1.299535
 20
-2.800000999999999
 30
19.2764
 70
    32
  0
VERTEX
  5
172
330
16E
100
AcDbEntity
  8
EASE-$ABSORBER
100
AcDbVertex
100
AcDb3dPolylineVertex
 10
-2.069986999999999
 20
-7.871280999999999
 30
19.50642999999999
 70
    32
  0
SEQEND
  5
173
330
16E
100
AcDbEntity
  8
EASE-$ABSORBER
  0
POLYLINE
  5
174
330
1E
100
AcDbEntity
  8
EASE-$ABSORBER
100
AcDb3dPolyline
 66
     1
 10
0.0
 20
0.0
 30
0.0
 70
     9
  0
VERTEX
  5
175
330
174
100
AcDbEntity
  8
EASE-$ABSORBER
100
AcDbVertex
100
AcDb3dPolylineVertex
 10
2.069986999999999
 20
-7.871280999999999
 30
19.50642999999999
 70
    32
  0
VERTEX
  5
176
330
174
100
AcDbEntity
  8
EASE-$ABSORBER
100
AcDbVertex
100
AcDb3dPolylineVertex
 10
1.299535
 20
-2.800000999999999
 30
19.2764
 70
    32
  0
VERTEX
  5
177
330
174
100
AcDbEntity
  8
EASE-$ABSORBER
100
AcDbVertex
100
AcDb3dPolylineVertex
 10
4.135965
 20
-2.170977999999999
 30
19.24604
 70
    32
  0
VERTEX
  5
178
330
174
100
AcDbEntity
  8
EASE-$ABSORBER
100
AcDbVertex
100
AcDb3dPolylineVertex
 10
5.655838
 20
-9.009524
 30
19.55593
 70
    32
  0
SEQEND
  5
179
330
174
100
AcDbEntity
  8
EASE-$ABSORBER
  0
POLYLINE
  5
17A
330
1E
100
AcDbEntity
  8
EASE-$ABSORBER
100
AcDb3dPolyline
 66
     1
 10
0.0
 20
0.0
 30
0.0
 70
     9
  0
VERTEX
  5
17B
330
17A
100
AcDbEntity
  8
EASE-$ABSORBER
100
AcDbVertex
100
AcDb3dPolylineVertex
 10
6.000258999999999
 20
-9.000003999999998
 30
-0.4050574000000001
 70
    32
  0
VERTEX
  5
17C
330
17A
100
AcDbEntity
  8
EASE-$ABSORBER
100
AcDbVertex
100
AcDb3dPolylineVertex
 10
5.760011
 20
-10.44175
 30
-0.4707399000000001
 70
    32
  0
VERTEX
  5
17D
330
17A
100
AcDbEntity
  8
EASE-$ABSORBER
100
AcDbVertex
100
AcDb3dPolylineVertex
 10
5.74765
 20
-10.44175
 30
19.27781
 70
    32
  0
VERTEX
  5
17E
330
17A
100
AcDbEntity
  8
EASE-$ABSORBER
100
AcDbVertex
100
AcDb3dPolylineVertex
 10
5.98798
 20
-9.000003999999998
 30
19.21242999999999
 70
    32
  0
SEQEND
  5
17F
330
17A
100
AcDbEntity
  8
EASE-$ABSORBER
  0
POLYLINE
  5
180
330
1E
100
AcDbEntity
  8
EASE-$ABSORBER
100
AcDb3dPolyline
 66
     1
 10
0.0
 20
0.0
 30
0.0
 70
     9
  0
VERTEX
  5
181
330
180
100
AcDbEntity
  8
EASE-$ABSORBER
100
AcDbVertex
100
AcDb3dPolylineVertex
 10
-5.98798
 20
-9.000003999999998
 30
19.21242999999999
 70
    32
  0
VERTEX
  5
182
330
180
100
AcDbEntity
  8
EASE-$ABSORBER
100
AcDbVertex
100
AcDb3dPolylineVertex
 10
-5.74765
 20
-10.44175
 30
19.27781
 70
    32
  0
VERTEX
  5
183
330
180
100
AcDbEntity
  8
EASE-$ABSORBER
100
AcDbVertex
100
AcDb3dPolylineVertex
 10
-5.760011
 20
-10.44175
 30
-0.4707399000000001
 70
    32
  0
VERTEX
  5
184
330
180
100
AcDbEntity
  8
EASE-$ABSORBER
100
AcDbVertex
100
AcDb3dPolylineVertex
 10
-6.000258999999999
 20
-9.000003999999998
 30
-0.4050574000000001
 70
    32
  0
SEQEND
  5
185
330
180
100
AcDbEntity
  8
EASE-$ABSORBER
  0
POLYLINE
  5
186
330
1E
100
AcDbEntity
  8
EASE-$ABSORBER
 62
     7
100
AcDb3dPolyline
 66
     1
 10
0.0
 20
0.0
 30
0.0
 70
     9
  0
VERTEX
  5
187
330
186
100
AcDbEntity
  8
EASE-$ABSORBER
 62
     7
100
AcDbVertex
100
AcDb3dPolylineVertex
 10
5.98798
 20
-9.000003999999998
 30
19.21242999999999
 70
    32
  0
VERTEX
  5
188
330
186
100
AcDbEntity
  8
EASE-$ABSORBER
 62
     7
100
AcDbVertex
100
AcDb3dPolylineVertex
 10
4.118376
 20
-0.585712
 30
18.8289
 70
    32
  0
VERTEX
  5
189
330
186
100
AcDbEntity
  8
EASE-$ABSORBER
 62
     7
100
AcDbVertex
100
AcDb3dPolylineVertex
 10
4.130175
 20
-0.585712
 30
-0.0238662
 70
    32
  0
VERTEX
  5
18A
330
186
100
AcDbEntity
  8
EASE-$ABSORBER
 62
     7
100
AcDbVertex
100
AcDb3dPolylineVertex
 10
6.000258999999999
 20
-9.000003999999998
 30
-0.4050574000000001
 70
    32
  0
SEQEND
  5
18B
330
186
100
AcDbEntity
  8
EASE-$ABSORBER
 62
     7
  0
POLYLINE
  5
18C
330
1E
100
AcDbEntity
  8
EASE-$ABSORBER
 62
     7
100
AcDb3dPolyline
 66
     1
 10
0.0
 20
0.0
 30
0.0
 70
     9
  0
VERTEX
  5
18D
330
18C
100
AcDbEntity
  8
EASE-$ABSORBER
 62
     7
100
AcDbVertex
100
AcDb3dPolylineVertex
 10
-6.000258999999999
 20
-9.000003999999998
 30
-0.4050574000000001
 70
    32
  0
VERTEX
  5
18E
330
18C
100
AcDbEntity
  8
EASE-$ABSORBER
 62
     7
100
AcDbVertex
100
AcDb3dPolylineVertex
 10
-4.130175
 20
-0.585712
 30
-0.0238662
 70
    32
  0
VERTEX
  5
18F
330
18C
100
AcDbEntity
  8
EASE-$ABSORBER
 62
     7
100
AcDbVertex
100
AcDb3dPolylineVertex
 10
-4.118376
 20
-0.585712
 30
18.8289
 70
    32
  0
VERTEX
  5
190
330
18C
100
AcDbEntity
  8
EASE-$ABSORBER
 62
     7
100
AcDbVertex
100
AcDb3dPolylineVertex
 10
-5.98798
 20
-9.000003999999998
 30
19.21242999999999
 70
    32
  0
SEQEND
  5
191
330
18C
100
AcDbEntity
  8
EASE-$ABSORBER
 62
     7
  0
POLYLINE
  5
192
330
1E
100
AcDbEntity
  8
EASE-$ABSORBER
100
AcDb3dPolyline
 66
     1
 10
0.0
 20
0.0
 30
0.0
 70
     9
  0
VERTEX
  5
193
330
192
100
AcDbEntity
  8
EASE-$ABSORBER
100
AcDbVertex
100
AcDb3dPolylineVertex
 10
3.400001
 20
0.0
 30
0.002129023
 70
    32
  0
VERTEX
  5
194
330
192
100
AcDbEntity
  8
EASE-$ABSORBER
100
AcDbVertex
100
AcDb3dPolylineVertex
 10
4.130175
 20
-0.585712
 30
-0.0238662
 70
    32
  0
VERTEX
  5
195
330
192
100
AcDbEntity
  8
EASE-$ABSORBER
100
AcDbVertex
100
AcDb3dPolylineVertex
 10
4.118376
 20
-0.585712
 30
18.8289
 70
    32
  0
VERTEX
  5
196
330
192
100
AcDbEntity
  8
EASE-$ABSORBER
100
AcDbVertex
100
AcDb3dPolylineVertex
 10
3.388237
 20
0.0
 30
18.80199
 70
    32
  0
SEQEND
  5
197
330
192
100
AcDbEntity
  8
EASE-$ABSORBER
  0
POLYLINE
  5
198
330
1E
100
AcDbEntity
  8
EASE-$ABSORBER
100
AcDb3dPolyline
 66
     1
 10
0.0
 20
0.0
 30
0.0
 70
     9
  0
VERTEX
  5
199
330
198
100
AcDbEntity
  8
EASE-$ABSORBER
100
AcDbVertex
100
AcDb3dPolylineVertex
 10
-3.388237
 20
0.0
 30
18.80199
 70
    32
  0
VERTEX
  5
19A
330
198
100
AcDbEntity
  8
EASE-$ABSORBER
100
AcDbVertex
100
AcDb3dPolylineVertex
 10
-4.118376
 20
-0.585712
 30
18.8289
 70
    32
  0
VERTEX
  5
19B
330
198
100
AcDbEntity
  8
EASE-$ABSORBER
100
AcDbVertex
100
AcDb3dPolylineVertex
 10
-4.130175
 20
-0.585712
 30
-0.0238662
 70
    32
  0
VERTEX
  5
19C
330
198
100
AcDbEntity
  8
EASE-$ABSORBER
100
AcDbVertex
100
AcDb3dPolylineVertex
 10
-3.400001
 20
0.0
 30
0.002129023
 70
    32
  0
SEQEND
  5
19D
330
198
100
AcDbEntity
  8
EASE-$ABSORBER
  0
POLYLINE
  5
19E
330
1E
100
AcDbEntity
  8
EASE-$ABSORBER
100
AcDb3dPolyline
 66
     1
 10
0.0
 20
0.0
 30
0.0
 70
     9
  0
VERTEX
  5
19F
330
19E
100
AcDbEntity
  8
EASE-$ABSORBER
100
AcDbVertex
100
AcDb3dPolylineVertex
 10
3.388237
 20
0.0
 30
18.80199
 70
    32
  0
VERTEX
  5
1A0
330
19E
100
AcDbEntity
  8
EASE-$ABSORBER
100
AcDbVertex
100
AcDb3dPolylineVertex
 10
-3.411766
 20
0.0
 30
18.79774
 70
    32
  0
VERTEX
  5
1A1
330
19E
100
AcDbEntity
  8
EASE-$ABSORBER
100
AcDbVertex
100
AcDb3dPolylineVertex
 10
-3.400001
 20
0.0
 30
-0.002129023
 70
    32
  0
VERTEX
  5
1A2
330
19E
100
AcDbEntity
  8
EASE-$ABSORBER
100
AcDbVertex
100
AcDb3dPolylineVertex
 10
3.400001
 20
0.0
 30
0.002129023
 70
    32
  0
SEQEND
  5
1A3
330
19E
100
AcDbEntity
  8
EASE-$ABSORBER
  0
POLYLINE
  5
1A4
330
1E
100
AcDbEntity
  8
EASE-$ABSORBER
100
AcDb3dPolyline
 66
     1
 10
0.0
 20
0.0
 30
0.0
 70
     9
  0
VERTEX
  5
1A5
330
1A4
100
AcDbEntity
  8
EASE-$ABSORBER
100
AcDbVertex
100
AcDb3dPolylineVertex
 10
-3.400001
 20
0.0
 30
0.002129023
 70
    32
  0
VERTEX
  5
1A6
330
1A4
100
AcDbEntity
  8
EASE-$ABSORBER
100
AcDbVertex
100
AcDb3dPolylineVertex
 10
3.400001
 20
0.0
 30
-0.002129023
 70
    32
  0
VERTEX
  5
1A7
330
1A4
100
AcDbEntity
  8
EASE-$ABSORBER
100
AcDbVertex
100
AcDb3dPolylineVertex
 10
3.411766
 20
0.0
 30
18.79774
 70
    32
  0
VERTEX
  5
1A8
330
1A4
100
AcDbEntity
  8
EASE-$ABSORBER
100
AcDbVertex
100
AcDb3dPolylineVertex
 10
-3.388237
 20
0.0
 30
18.80199
 70
    32
  0
SEQEND
  5
1A9
330
1A4
100
AcDbEntity
  8
EASE-$ABSORBER
  0
POLYLINE
  5
1AA
330
1E
100
AcDbEntity
  8
EASE-$ABSORBER
100
AcDb3dPolyline
 66
     1
 10
0.0
 20
0.0
 30
0.0
 70
     9
  0
VERTEX
  5
1AB
330
1AA
100
AcDbEntity
  8
EASE-$ABSORBER
100
AcDbVertex
100
AcDb3dPolylineVertex
 10
-4.130141
 20
-0.585712
 30
-0.02903737
 70
    32
  0
VERTEX
  5
1AC
330
1AA
100
AcDbEntity
  8
EASE-$ABSORBER
100
AcDbVertex
100
AcDb3dPolylineVertex
 10
-3.400001
 20
0.0
 30
-0.002129023
 70
    32
  0
VERTEX
  5
1AD
330
1AA
100
AcDbEntity
  8
EASE-$ABSORBER
100
AcDbVertex
100
AcDb3dPolylineVertex
 10
-3.411766
 20
0.0
 30
18.79774
 70
    32
  0
VERTEX
  5
1AE
330
1AA
100
AcDbEntity
  8
EASE-$ABSORBER
100
AcDbVertex
100
AcDb3dPolylineVertex
 10
-4.141938999999999
 20
-0.585712
 30
18.82372999999999
 70
    32
  0
SEQEND
  5
1AF
330
1AA
100
AcDbEntity
  8
EASE-$ABSORBER
  0
POLYLINE
  5
1B0
330
1E
100
AcDbEntity
  8
EASE-$ABSORBER
100
AcDb3dPolyline
 66
     1
 10
0.0
 20
0.0
 30
0.0
 70
     9
  0
VERTEX
  5
1B1
330
1B0
100
AcDbEntity
  8
EASE-$ABSORBER
100
AcDbVertex
100
AcDb3dPolylineVertex
 10
4.141938999999999
 20
-0.585712
 30
18.82372999999999
 70
    32
  0
VERTEX
  5
1B2
330
1B0
100
AcDbEntity
  8
EASE-$ABSORBER
100
AcDbVertex
100
AcDb3dPolylineVertex
 10
3.411766
 20
0.0
 30
18.79774
 70
    32
  0
VERTEX
  5
1B3
330
1B0
100
AcDbEntity
  8
EASE-$ABSORBER
100
AcDbVertex
100
AcDb3dPolylineVertex
 10
3.400001
 20
0.0
 30
-0.002129023
 70
    32
  0
VERTEX
  5
1B4
330
1B0
100
AcDbEntity
  8
EASE-$ABSORBER
100
AcDbVertex
100
AcDb3dPolylineVertex
 10
4.130141
 20
-0.585712
 30
-0.02903737
 70
    32
  0
SEQEND
  5
1B5
330
1B0
100
AcDbEntity
  8
EASE-$ABSORBER
  0
POLYLINE
  5
1B6
330
1E
100
AcDbEntity
  8
EASE-$ABSORBER
100
AcDb3dPolyline
 66
     1
 10
0.0
 20
0.0
 30
0.0
 70
     9
  0
VERTEX
  5
1B7
330
1B6
100
AcDbEntity
  8
EASE-$ABSORBER
100
AcDbVertex
100
AcDb3dPolylineVertex
 10
-4.141938999999999
 20
-0.585712
 30
18.82372999999999
 70
    32
  0
VERTEX
  5
1B8
330
1B6
100
AcDbEntity
  8
EASE-$ABSORBER
100
AcDbVertex
100
AcDb3dPolylineVertex
 10
-6.012023999999999
 20
-9.000003999999998
 30
19.20492
 70
    32
  0
VERTEX
  5
1B9
330
1B6
100
AcDbEntity
  8
EASE-$ABSORBER
100
AcDbVertex
100
AcDb3dPolylineVertex
 10
-5.999744999999999
 20
-9.000003999999998
 30
-0.412569
 70
    32
  0
VERTEX
  5
1BA
330
1B6
100
AcDbEntity
  8
EASE-$ABSORBER
100
AcDbVertex
100
AcDb3dPolylineVertex
 10
-4.130141
 20
-0.585712
 30
-0.02903737
 70
    32
  0
SEQEND
  5
1BB
330
1B6
100
AcDbEntity
  8
EASE-$ABSORBER
  0
POLYLINE
  5
1BC
330
1E
100
AcDbEntity
  8
EASE-$ABSORBER
100
AcDb3dPolyline
 66
     1
 10
0.0
 20
0.0
 30
0.0
 70
     9
  0
VERTEX
  5
1BD
330
1BC
100
AcDbEntity
  8
EASE-$ABSORBER
100
AcDbVertex
100
AcDb3dPolylineVertex
 10
4.130141
 20
-0.585712
 30
-0.02903737
 70
    32
  0
VERTEX
  5
1BE
330
1BC
100
AcDbEntity
  8
EASE-$ABSORBER
100
AcDbVertex
100
AcDb3dPolylineVertex
 10
5.999744999999999
 20
-9.000003999999998
 30
-0.412569
 70
    32
  0
VERTEX
  5
1BF
330
1BC
100
AcDbEntity
  8
EASE-$ABSORBER
100
AcDbVertex
100
AcDb3dPolylineVertex
 10
6.012023999999999
 20
-9.000003999999998
 30
19.20492
 70
    32
  0
VERTEX
  5
1C0
330
1BC
100
AcDbEntity
  8
EASE-$ABSORBER
100
AcDbVertex
100
AcDb3dPolylineVertex
 10
4.141938999999999
 20
-0.585712
 30
18.82372999999999
 70
    32
  0
SEQEND
  5
1C1
330
1BC
100
AcDbEntity
  8
EASE-$ABSORBER
  0
POLYLINE
  5
1C2
330
1E
100
AcDbEntity
  8
EASE-$ABSORBER
100
AcDb3dPolyline
 66
     1
 10
0.0
 20
0.0
 30
0.0
 70
     9
  0
VERTEX
  5
1C3
330
1C2
100
AcDbEntity
  8
EASE-$ABSORBER
100
AcDbVertex
100
AcDb3dPolylineVertex
 10
-6.012023999999999
 20
-9.000003999999998
 30
19.20492
 70
    32
  0
VERTEX
  5
1C4
330
1C2
100
AcDbEntity
  8
EASE-$ABSORBER
100
AcDbVertex
100
AcDb3dPolylineVertex
 10
-5.771776
 20
-10.44175
 30
19.27061
 70
    32
  0
VERTEX
  5
1C5
330
1C2
100
AcDbEntity
  8
EASE-$ABSORBER
100
AcDbVertex
100
AcDb3dPolylineVertex
 10
-5.759414999999999
 20
-10.44175
 30
-0.4779488
 70
    32
  0
VERTEX
  5
1C6
330
1C2
100
AcDbEntity
  8
EASE-$ABSORBER
100
AcDbVertex
100
AcDb3dPolylineVertex
 10
-5.999744999999999
 20
-9.000003999999998
 30
-0.412569
 70
    32
  0
SEQEND
  5
1C7
330
1C2
100
AcDbEntity
  8
EASE-$ABSORBER
  0
POLYLINE
  5
1C8
330
1E
100
AcDbEntity
  8
EASE-$ABSORBER
100
AcDb3dPolyline
 66
     1
 10
0.0
 20
0.0
 30
0.0
 70
     9
  0
VERTEX
  5
1C9
330
1C8
100
AcDbEntity
  8
EASE-$ABSORBER
100
AcDbVertex
100
AcDb3dPolylineVertex
 10
5.999744999999999
 20
-9.000003999999998
 30
-0.412569
 70
    32
  0
VERTEX
  5
1CA
330
1C8
100
AcDbEntity
  8
EASE-$ABSORBER
100
AcDbVertex
100
AcDb3dPolylineVertex
 10
5.759414999999999
 20
-10.44175
 30
-0.4779488
 70
    32
  0
VERTEX
  5
1CB
330
1C8
100
AcDbEntity
  8
EASE-$ABSORBER
100
AcDbVertex
100
AcDb3dPolylineVertex
 10
5.771776
 20
-10.44175
 30
19.27061
 70
    32
  0
VERTEX
  5
1CC
330
1C8
100
AcDbEntity
  8
EASE-$ABSORBER
100
AcDbVertex
100
AcDb3dPolylineVertex
 10
6.012023999999999
 20
-9.000003999999998
 30
19.20492
 70
    32
  0
SEQEND
  5
1CD
330
1C8
100
AcDbEntity
  8
EASE-$ABSORBER
  0
POLYLINE
  5
1CE
330
1E
100
AcDbEntity
  8
EASE-$ABSORBER
100
AcDb3dPolyline
 66
     1
 10
0.0
 20
0.0
 30
0.0
 70
     9
  0
VERTEX
  5
1CF
330
1CE
100
AcDbEntity
  8
EASE-$ABSORBER
100
AcDbVertex
100
AcDb3dPolylineVertex
 10
-5.643120999999999
 20
-9.009524
 30
-0.7631273000000001
 70
    32
  0
VERTEX
  5
1D0
330
1CE
100
AcDbEntity
  8
EASE-$ABSORBER
100
AcDbVertex
100
AcDb3dPolylineVertex
 10
-5.999744999999999
 20
-9.000003999999998
 30
-0.412569
 70
    32
  0
VERTEX
  5
1D1
330
1CE
100
AcDbEntity
  8
EASE-$ABSORBER
100
AcDbVertex
100
AcDb3dPolylineVertex
 10
-5.759414999999999
 20
-10.44175
 30
-0.4779488
 70
    32
  0
VERTEX
  5
1D2
330
1CE
100
AcDbEntity
  8
EASE-$ABSORBER
100
AcDbVertex
100
AcDb3dPolylineVertex
 10
-5.398081999999999
 20
-10.47951
 30
-0.8297902
 70
    32
  0
SEQEND
  5
1D3
330
1CE
100
AcDbEntity
  8
EASE-$ABSORBER
  0
POLYLINE
  5
1D4
330
1E
100
AcDbEntity
  8
EASE-$ABSORBER
100
AcDb3dPolyline
 66
     1
 10
0.0
 20
0.0
 30
0.0
 70
     9
  0
VERTEX
  5
1D5
330
1D4
100
AcDbEntity
  8
EASE-$ABSORBER
100
AcDbVertex
100
AcDb3dPolylineVertex
 10
5.398081999999999
 20
-10.47951
 30
-0.8297902
 70
    32
  0
VERTEX
  5
1D6
330
1D4
100
AcDbEntity
  8
EASE-$ABSORBER
100
AcDbVertex
100
AcDb3dPolylineVertex
 10
5.759414999999999
 20
-10.44175
 30
-0.4779488
 70
    32
  0
VERTEX
  5
1D7
330
1D4
100
AcDbEntity
  8
EASE-$ABSORBER
100
AcDbVertex
100
AcDb3dPolylineVertex
 10
5.999744999999999
 20
-9.000003999999998
 30
-0.412569
 70
    32
  0
VERTEX
  5
1D8
330
1D4
100
AcDbEntity
  8
EASE-$ABSORBER
100
AcDbVertex
100
AcDb3dPolylineVertex
 10
5.643120999999999
 20
-9.009524
 30
-0.7631273000000001
 70
    32
  0
SEQEND
  5
1D9
330
1D4
100
AcDbEntity
  8
EASE-$ABSORBER
  0
POLYLINE
  5
1DA
330
1E
100
AcDbEntity
  8
EASE-$ABSORBER
100
AcDb3dPolyline
 66
     1
 10
0.0
 20
0.0
 30
0.0
 70
     9
  0
VERTEX
  5
1DB
330
1DA
100
AcDbEntity
  8
EASE-$ABSORBER
100
AcDbVertex
100
AcDb3dPolylineVertex
 10
3.277099999999999
 20
-0.3496402999999999
 30
-0.3639139
 70
    32
  0
VERTEX
  5
1DC
330
1DA
100
AcDbEntity
  8
EASE-$ABSORBER
100
AcDbVertex
100
AcDb3dPolylineVertex
 10
3.400001
 20
0.0
 30
0.002129023
 70
    32
  0
VERTEX
  5
1DD
330
1DA
100
AcDbEntity
  8
EASE-$ABSORBER
100
AcDbVertex
100
AcDb3dPolylineVertex
 10
-3.400001
 20
0.0
 30
-0.002129023
 70
    32
  0
VERTEX
  5
1DE
330
1DA
100
AcDbEntity
  8
EASE-$ABSORBER
100
AcDbVertex
100
AcDb3dPolylineVertex
 10
-3.276638
 20
-0.3496402999999999
 30
-0.3680134
 70
    32
  0
SEQEND
  5
1DF
330
1DA
100
AcDbEntity
  8
EASE-$ABSORBER
  0
POLYLINE
  5
1E0
330
1E
100
AcDbEntity
  8
EASE-$ABSORBER
100
AcDb3dPolyline
 66
     1
 10
0.0
 20
0.0
 30
0.0
 70
     9
  0
VERTEX
  5
1E1
330
1E0
100
AcDbEntity
  8
EASE-$ABSORBER
100
AcDbVertex
100
AcDb3dPolylineVertex
 10
3.276638
 20
-0.3496402999999999
 30
-0.3680134
 70
    32
  0
VERTEX
  5
1E2
330
1E0
100
AcDbEntity
  8
EASE-$ABSORBER
100
AcDbVertex
100
AcDb3dPolylineVertex
 10
3.400001
 20
0.0
 30
-0.002129023
 70
    32
  0
VERTEX
  5
1E3
330
1E0
100
AcDbEntity
  8
EASE-$ABSORBER
100
AcDbVertex
100
AcDb3dPolylineVertex
 10
-3.400001
 20
0.0
 30
0.002129023
 70
    32
  0
VERTEX
  5
1E4
330
1E0
100
AcDbEntity
  8
EASE-$ABSORBER
100
AcDbVertex
100
AcDb3dPolylineVertex
 10
-3.277099999999999
 20
-0.3496402999999999
 30
-0.3639139
 70
    32
  0
SEQEND
  5
1E5
330
1E0
100
AcDbEntity
  8
EASE-$ABSORBER
  0
POLYLINE
  5
1E6
330
1E
100
AcDbEntity
  8
EASE-$ABSORBER
100
AcDb3dPolyline
 66
     1
 10
0.0
 20
0.0
 30
0.0
 70
     9
  0
VERTEX
  5
1E7
330
1E6
100
AcDbEntity
  8
EASE-$ABSORBER
100
AcDbVertex
100
AcDb3dPolylineVertex
 10
3.277099999999999
 20
-0.3496402999999999
 30
-0.3639139
 70
    32
  0
VERTEX
  5
1E8
330
1E6
100
AcDbEntity
  8
EASE-$ABSORBER
100
AcDbVertex
100
AcDb3dPolylineVertex
 10
3.815371999999999
 20
-0.7814186
 30
-0.3832
 70
    32
  0
VERTEX
  5
1E9
330
1E6
100
AcDbEntity
  8
EASE-$ABSORBER
100
AcDbVertex
100
AcDb3dPolylineVertex
 10
4.130175
 20
-0.585712
 30
-0.0238662
 70
    32
  0
SEQEND
  5
1EA
330
1E6
100
AcDbEntity
  8
EASE-$ABSORBER
  0
POLYLINE
  5
1EB
330
1E
100
AcDbEntity
  8
EASE-$ABSORBER
100
AcDb3dPolyline
 66
     1
 10
0.0
 20
0.0
 30
0.0
 70
     9
  0
VERTEX
  5
1EC
330
1EB
100
AcDbEntity
  8
EASE-$ABSORBER
100
AcDbVertex
100
AcDb3dPolylineVertex
 10
-4.130175
 20
-0.585712
 30
-0.0238662
 70
    32
  0
VERTEX
  5
1ED
330
1EB
100
AcDbEntity
  8
EASE-$ABSORBER
100
AcDbVertex
100
AcDb3dPolylineVertex
 10
-3.815371999999999
 20
-0.7814186
 30
-0.3832
 70
    32
  0
VERTEX
  5
1EE
330
1EB
100
AcDbEntity
  8
EASE-$ABSORBER
100
AcDbVertex
100
AcDb3dPolylineVertex
 10
-3.277099999999999
 20
-0.3496402999999999
 30
-0.3639139
 70
    32
  0
SEQEND
  5
1EF
330
1EB
100
AcDbEntity
  8
EASE-$ABSORBER
  0
POLYLINE
  5
1F0
330
1E
100
AcDbEntity
  8
EASE-$ABSORBER
100
AcDb3dPolyline
 66
     1
 10
0.0
 20
0.0
 30
0.0
 70
     9
  0
VERTEX
  5
1F1
330
1F0
100
AcDbEntity
  8
EASE-$ABSORBER
100
AcDbVertex
100
AcDb3dPolylineVertex
 10
3.277099999999999
 20
-0.3496402999999999
 30
-0.3639139
 70
    32
  0
VERTEX
  5
1F2
330
1F0
100
AcDbEntity
  8
EASE-$ABSORBER
100
AcDbVertex
100
AcDb3dPolylineVertex
 10
4.130175
 20
-0.585712
 30
-0.0238662
 70
    32
  0
VERTEX
  5
1F3
330
1F0
100
AcDbEntity
  8
EASE-$ABSORBER
100
AcDbVertex
100
AcDb3dPolylineVertex
 10
3.400001
 20
0.0
 30
0.002129023
 70
    32
  0
SEQEND
  5
1F4
330
1F0
100
AcDbEntity
  8
EASE-$ABSORBER
  0
POLYLINE
  5
1F5
330
1E
100
AcDbEntity
  8
EASE-$ABSORBER
100
AcDb3dPolyline
 66
     1
 10
0.0
 20
0.0
 30
0.0
 70
     9
  0
VERTEX
  5
1F6
330
1F5
100
AcDbEntity
  8
EASE-$ABSORBER
100
AcDbVertex
100
AcDb3dPolylineVertex
 10
-3.400001
 20
0.0
 30
0.002129023
 70
    32
  0
VERTEX
  5
1F7
330
1F5
100
AcDbEntity
  8
EASE-$ABSORBER
100
AcDbVertex
100
AcDb3dPolylineVertex
 10
-4.130175
 20
-0.585712
 30
-0.0238662
 70
    32
  0
VERTEX
  5
1F8
330
1F5
100
AcDbEntity
  8
EASE-$ABSORBER
100
AcDbVertex
100
AcDb3dPolylineVertex
 10
-3.277099999999999
 20
-0.3496402999999999
 30
-0.3639139
 70
    32
  0
SEQEND
  5
1F9
330
1F5
100
AcDbEntity
  8
EASE-$ABSORBER
  0
POLYLINE
  5
1FA
330
1E
100
AcDbEntity
  8
EASE-$ABSORBER
100
AcDb3dPolyline
 66
     1
 10
0.0
 20
0.0
 30
0.0
 70
     9
  0
VERTEX
  5
1FB
330
1FA
100
AcDbEntity
  8
EASE-$ABSORBER
100
AcDbVertex
100
AcDb3dPolylineVertex
 10
5.644073
 20
-9.009524
 30
-0.7560626
 70
    32
  0
VERTEX
  5
1FC
330
1FA
100
AcDbEntity
  8
EASE-$ABSORBER
100
AcDbVertex
100
AcDb3dPolylineVertex
 10
5.399115
 20
-10.47951
 30
-0.8230330999999999
 70
    32
  0
VERTEX
  5
1FD
330
1FA
100
AcDbEntity
  8
EASE-$ABSORBER
100
AcDbVertex
100
AcDb3dPolylineVertex
 10
5.760011
 20
-10.44175
 30
-0.4707399000000001
 70
    32
  0
VERTEX
  5
1FE
330
1FA
100
AcDbEntity
  8
EASE-$ABSORBER
100
AcDbVertex
100
AcDb3dPolylineVertex
 10
6.000258999999999
 20
-9.000003999999998
 30
-0.4050574000000001
 70
    32
  0
SEQEND
  5
1FF
330
1FA
100
AcDbEntity
  8
EASE-$ABSORBER
  0
POLYLINE
  5
200
330
1E
100
AcDbEntity
  8
EASE-$ABSORBER
100
AcDb3dPolyline
 66
     1
 10
0.0
 20
0.0
 30
0.0
 70
     9
  0
VERTEX
  5
201
330
200
100
AcDbEntity
  8
EASE-$ABSORBER
100
AcDbVertex
100
AcDb3dPolylineVertex
 10
-6.000258999999999
 20
-9.000003999999998
 30
-0.4050574000000001
 70
    32
  0
VERTEX
  5
202
330
200
100
AcDbEntity
  8
EASE-$ABSORBER
100
AcDbVertex
100
AcDb3dPolylineVertex
 10
-5.760011
 20
-10.44175
 30
-0.4707399000000001
 70
    32
  0
VERTEX
  5
203
330
200
100
AcDbEntity
  8
EASE-$ABSORBER
100
AcDbVertex
100
AcDb3dPolylineVertex
 10
-5.399115
 20
-10.47951
 30
-0.8230330999999999
 70
    32
  0
VERTEX
  5
204
330
200
100
AcDbEntity
  8
EASE-$ABSORBER
100
AcDbVertex
100
AcDb3dPolylineVertex
 10
-5.644073
 20
-9.009524
 30
-0.7560626
 70
    32
  0
SEQEND
  5
205
330
200
100
AcDbEntity
  8
EASE-$ABSORBER
  0
POLYLINE
  5
206
330
1E
100
AcDbEntity
  8
EASE-$ABSORBER
100
AcDb3dPolyline
 66
     1
 10
0.0
 20
0.0
 30
0.0
 70
     9
  0
VERTEX
  5
207
330
206
100
AcDbEntity
  8
EASE-$ABSORBER
100
AcDbVertex
100
AcDb3dPolylineVertex
 10
-3.276638
 20
-0.3496402999999999
 30
-0.3680134
 70
    32
  0
VERTEX
  5
208
330
206
100
AcDbEntity
  8
EASE-$ABSORBER
100
AcDbVertex
100
AcDb3dPolylineVertex
 10
-0.9328578999999999
 20
-2.500000999999999
 30
-0.4642904000000001
 70
    32
  0
VERTEX
  5
209
330
206
100
AcDbEntity
  8
EASE-$ABSORBER
100
AcDbVertex
100
AcDb3dPolylineVertex
 10
0.9334395
 20
-2.500000999999999
 30
-0.4631225000000001
 70
    32
  0
VERTEX
  5
20A
330
206
100
AcDbEntity
  8
EASE-$ABSORBER
100
AcDbVertex
100
AcDb3dPolylineVertex
 10
3.277099999999999
 20
-0.3496402999999999
 30
-0.3639139
 70
    32
  0
SEQEND
  5
20B
330
206
100
AcDbEntity
  8
EASE-$ABSORBER
  0
POLYLINE
  5
20C
330
1E
100
AcDbEntity
  8
EASE-$ABSORBER
100
AcDb3dPolyline
 66
     1
 10
0.0
 20
0.0
 30
0.0
 70
     9
  0
VERTEX
  5
20D
330
20C
100
AcDbEntity
  8
EASE-$ABSORBER
100
AcDbVertex
100
AcDb3dPolylineVertex
 10
-3.277099999999999
 20
-0.3496402999999999
 30
-0.3639139
 70
    32
  0
VERTEX
  5
20E
330
20C
100
AcDbEntity
  8
EASE-$ABSORBER
100
AcDbVertex
100
AcDb3dPolylineVertex
 10
-0.9334395
 20
-2.500000999999999
 30
-0.4631225000000001
 70
    32
  0
VERTEX
  5
20F
330
20C
100
AcDbEntity
  8
EASE-$ABSORBER
100
AcDbVertex
100
AcDb3dPolylineVertex
 10
0.9328578999999999
 20
-2.500000999999999
 30
-0.4642904000000001
 70
    32
  0
VERTEX
  5
210
330
20C
100
AcDbEntity
  8
EASE-$ABSORBER
100
AcDbVertex
100
AcDb3dPolylineVertex
 10
3.276638
 20
-0.3496402999999999
 30
-0.3680134
 70
    32
  0
SEQEND
  5
211
330
20C
100
AcDbEntity
  8
EASE-$ABSORBER
  0
POLYLINE
  5
212
330
1E
100
AcDbEntity
  8
EASE-$ABSORBER
100
AcDb3dPolyline
 66
     1
 10
0.0
 20
0.0
 30
0.0
 70
     9
  0
VERTEX
  5
213
330
212
100
AcDbEntity
  8
EASE-$ABSORBER
100
AcDbVertex
100
AcDb3dPolylineVertex
 10
-3.276638
 20
-0.3496402999999999
 30
-0.3680134
 70
    32
  0
VERTEX
  5
214
330
212
100
AcDbEntity
  8
EASE-$ABSORBER
100
AcDbVertex
100
AcDb3dPolylineVertex
 10
-3.814887
 20
-0.7814186
 30
-0.3879771999999999
 70
    32
  0
VERTEX
  5
215
330
212
100
AcDbEntity
  8
EASE-$ABSORBER
100
AcDbVertex
100
AcDb3dPolylineVertex
 10
-1.28717
 20
-2.800000999999999
 30
-0.4781506
 70
    32
  0
VERTEX
  5
216
330
212
100
AcDbEntity
  8
EASE-$ABSORBER
100
AcDbVertex
100
AcDb3dPolylineVertex
 10
-0.9328578999999999
 20
-2.500000999999999
 30
-0.4642904000000001
 70
    32
  0
SEQEND
  5
217
330
212
100
AcDbEntity
  8
EASE-$ABSORBER
  0
POLYLINE
  5
218
330
1E
100
AcDbEntity
  8
EASE-$ABSORBER
100
AcDb3dPolyline
 66
     1
 10
0.0
 20
0.0
 30
0.0
 70
     9
  0
VERTEX
  5
219
330
218
100
AcDbEntity
  8
EASE-$ABSORBER
100
AcDbVertex
100
AcDb3dPolylineVertex
 10
0.9328578999999999
 20
-2.500000999999999
 30
-0.4642904000000001
 70
    32
  0
VERTEX
  5
21A
330
218
100
AcDbEntity
  8
EASE-$ABSORBER
100
AcDbVertex
100
AcDb3dPolylineVertex
 10
1.28717
 20
-2.800000999999999
 30
-0.4781506
 70
    32
  0
VERTEX
  5
21B
330
218
100
AcDbEntity
  8
EASE-$ABSORBER
100
AcDbVertex
100
AcDb3dPolylineVertex
 10
3.814887
 20
-0.7814186
 30
-0.3879771999999999
 70
    32
  0
VERTEX
  5
21C
330
218
100
AcDbEntity
  8
EASE-$ABSORBER
100
AcDbVertex
100
AcDb3dPolylineVertex
 10
3.276638
 20
-0.3496402999999999
 30
-0.3680134
 70
    32
  0
SEQEND
  5
21D
330
218
100
AcDbEntity
  8
EASE-$ABSORBER
  0
POLYLINE
  5
21E
330
1E
100
AcDbEntity
  8
EASE-$ABSORBER
100
AcDb3dPolyline
 66
     1
 10
0.0
 20
0.0
 30
0.0
 70
     9
  0
VERTEX
  5
21F
330
21E
100
AcDbEntity
  8
EASE-$ABSORBER
100
AcDbVertex
100
AcDb3dPolylineVertex
 10
-3.814887
 20
-0.7814186
 30
-0.3879771999999999
 70
    32
  0
VERTEX
  5
220
330
21E
100
AcDbEntity
  8
EASE-$ABSORBER
100
AcDbVertex
100
AcDb3dPolylineVertex
 10
-5.643120999999999
 20
-9.009524
 30
-0.7631273000000001
 70
    32
  0
VERTEX
  5
221
330
21E
100
AcDbEntity
  8
EASE-$ABSORBER
100
AcDbVertex
100
AcDb3dPolylineVertex
 10
-2.499473
 20
-10.78262
 30
-0.8417521
 70
    32
  0
VERTEX
  5
222
330
21E
100
AcDbEntity
  8
EASE-$ABSORBER
100
AcDbVertex
100
AcDb3dPolylineVertex
 10
-1.28717
 20
-2.800000999999999
 30
-0.4781506
 70
    32
  0
SEQEND
  5
223
330
21E
100
AcDbEntity
  8
EASE-$ABSORBER
  0
POLYLINE
  5
224
330
1E
100
AcDbEntity
  8
EASE-$ABSORBER
100
AcDb3dPolyline
 66
     1
 10
0.0
 20
0.0
 30
0.0
 70
     9
  0
VERTEX
  5
225
330
224
100
AcDbEntity
  8
EASE-$ABSORBER
100
AcDbVertex
100
AcDb3dPolylineVertex
 10
1.28717
 20
-2.800000999999999
 30
-0.4781506
 70
    32
  0
VERTEX
  5
226
330
224
100
AcDbEntity
  8
EASE-$ABSORBER
100
AcDbVertex
100
AcDb3dPolylineVertex
 10
2.499473
 20
-10.78262
 30
-0.8417521
 70
    32
  0
VERTEX
  5
227
330
224
100
AcDbEntity
  8
EASE-$ABSORBER
100
AcDbVertex
100
AcDb3dPolylineVertex
 10
5.643120999999999
 20
-9.009524
 30
-0.7631273000000001
 70
    32
  0
VERTEX
  5
228
330
224
100
AcDbEntity
  8
EASE-$ABSORBER
100
AcDbVertex
100
AcDb3dPolylineVertex
 10
3.814887
 20
-0.7814186
 30
-0.3879771999999999
 70
    32
  0
SEQEND
  5
229
330
224
100
AcDbEntity
  8
EASE-$ABSORBER
  0
POLYLINE
  5
22A
330
1E
100
AcDbEntity
  8
EASE-$ABSORBER
100
AcDb3dPolyline
 66
     1
 10
0.0
 20
0.0
 30
0.0
 70
     9
  0
VERTEX
  5
22B
330
22A
100
AcDbEntity
  8
EASE-$ABSORBER
100
AcDbVertex
100
AcDb3dPolylineVertex
 10
-5.643120999999999
 20
-9.009524
 30
-0.7631273000000001
 70
    32
  0
VERTEX
  5
22C
330
22A
100
AcDbEntity
  8
EASE-$ABSORBER
100
AcDbVertex
100
AcDb3dPolylineVertex
 10
-5.398081999999999
 20
-10.47951
 30
-0.8297902
 70
    32
  0
VERTEX
  5
22D
330
22A
100
AcDbEntity
  8
EASE-$ABSORBER
100
AcDbVertex
100
AcDb3dPolylineVertex
 10
-2.499473
 20
-10.78262
 30
-0.8417521
 70
    32
  0
SEQEND
  5
22E
330
22A
100
AcDbEntity
  8
EASE-$ABSORBER
  0
POLYLINE
  5
22F
330
1E
100
AcDbEntity
  8
EASE-$ABSORBER
100
AcDb3dPolyline
 66
     1
 10
0.0
 20
0.0
 30
0.0
 70
     9
  0
VERTEX
  5
230
330
22F
100
AcDbEntity
  8
EASE-$ABSORBER
100
AcDbVertex
100
AcDb3dPolylineVertex
 10
2.499473
 20
-10.78262
 30
-0.8417521
 70
    32
  0
VERTEX
  5
231
330
22F
100
AcDbEntity
  8
EASE-$ABSORBER
100
AcDbVertex
100
AcDb3dPolylineVertex
 10
5.398081999999999
 20
-10.47951
 30
-0.8297902
 70
    32
  0
VERTEX
  5
232
330
22F
100
AcDbEntity
  8
EASE-$ABSORBER
100
AcDbVertex
100
AcDb3dPolylineVertex
 10
5.643120999999999
 20
-9.009524
 30
-0.7631273000000001
 70
    32
  0
SEQEND
  5
233
330
22F
100
AcDbEntity
  8
EASE-$ABSORBER
  0
POLYLINE
  5
234
330
1E
100
AcDbEntity
  8
EASE-$ABSORBER
100
AcDb3dPolyline
 66
     1
 10
0.0
 20
0.0
 30
0.0
 70
     9
  0
VERTEX
  5
235
330
234
100
AcDbEntity
  8
EASE-$ABSORBER
100
AcDbVertex
100
AcDb3dPolylineVertex
 10
3.277099999999999
 20
-0.3496402999999999
 30
-0.3639139
 70
    32
  0
VERTEX
  5
236
330
234
100
AcDbEntity
  8
EASE-$ABSORBER
100
AcDbVertex
100
AcDb3dPolylineVertex
 10
0.9334395
 20
-2.500000999999999
 30
-0.4631225000000001
 70
    32
  0
VERTEX
  5
237
330
234
100
AcDbEntity
  8
EASE-$ABSORBER
100
AcDbVertex
100
AcDb3dPolylineVertex
 10
1.28777
 20
-2.800000999999999
 30
-0.4765359000000001
 70
    32
  0
VERTEX
  5
238
330
234
100
AcDbEntity
  8
EASE-$ABSORBER
100
AcDbVertex
100
AcDb3dPolylineVertex
 10
3.815371999999999
 20
-0.7814186
 30
-0.3832
 70
    32
  0
SEQEND
  5
239
330
234
100
AcDbEntity
  8
EASE-$ABSORBER
  0
POLYLINE
  5
23A
330
1E
100
AcDbEntity
  8
EASE-$ABSORBER
100
AcDb3dPolyline
 66
     1
 10
0.0
 20
0.0
 30
0.0
 70
     9
  0
VERTEX
  5
23B
330
23A
100
AcDbEntity
  8
EASE-$ABSORBER
100
AcDbVertex
100
AcDb3dPolylineVertex
 10
-3.815371999999999
 20
-0.7814186
 30
-0.3832
 70
    32
  0
VERTEX
  5
23C
330
23A
100
AcDbEntity
  8
EASE-$ABSORBER
100
AcDbVertex
100
AcDb3dPolylineVertex
 10
-1.28777
 20
-2.800000999999999
 30
-0.4765359000000001
 70
    32
  0
VERTEX
  5
23D
330
23A
100
AcDbEntity
  8
EASE-$ABSORBER
100
AcDbVertex
100
AcDb3dPolylineVertex
 10
-0.9334395
 20
-2.500000999999999
 30
-0.4631225000000001
 70
    32
  0
VERTEX
  5
23E
330
23A
100
AcDbEntity
  8
EASE-$ABSORBER
100
AcDbVertex
100
AcDb3dPolylineVertex
 10
-3.277099999999999
 20
-0.3496402999999999
 30
-0.3639139
 70
    32
  0
SEQEND
  5
23F
330
23A
100
AcDbEntity
  8
EASE-$ABSORBER
  0
POLYLINE
  5
240
330
1E
100
AcDbEntity
  8
EASE-$ABSORBER
100
AcDb3dPolyline
 66
     1
 10
0.0
 20
0.0
 30
0.0
 70
     9
  0
VERTEX
  5
241
330
240
100
AcDbEntity
  8
EASE-$ABSORBER
100
AcDbVertex
100
AcDb3dPolylineVertex
 10
3.815371999999999
 20
-0.7814186
 30
-0.3832
 70
    32
  0
VERTEX
  5
242
330
240
100
AcDbEntity
  8
EASE-$ABSORBER
100
AcDbVertex
100
AcDb3dPolylineVertex
 10
1.28777
 20
-2.800000999999999
 30
-0.4765359000000001
 70
    32
  0
VERTEX
  5
243
330
240
100
AcDbEntity
  8
EASE-$ABSORBER
100
AcDbVertex
100
AcDb3dPolylineVertex
 10
2.500525
 20
-10.78262
 30
-0.8386235
 70
    32
  0
VERTEX
  5
244
330
240
100
AcDbEntity
  8
EASE-$ABSORBER
100
AcDbVertex
100
AcDb3dPolylineVertex
 10
5.644073
 20
-9.009524
 30
-0.7560626
 70
    32
  0
SEQEND
  5
245
330
240
100
AcDbEntity
  8
EASE-$ABSORBER
  0
POLYLINE
  5
246
330
1E
100
AcDbEntity
  8
EASE-$ABSORBER
100
AcDb3dPolyline
 66
     1
 10
0.0
 20
0.0
 30
0.0
 70
     9
  0
VERTEX
  5
247
330
246
100
AcDbEntity
  8
EASE-$ABSORBER
100
AcDbVertex
100
AcDb3dPolylineVertex
 10
-5.644073
 20
-9.009524
 30
-0.7560626
 70
    32
  0
VERTEX
  5
248
330
246
100
AcDbEntity
  8
EASE-$ABSORBER
100
AcDbVertex
100
AcDb3dPolylineVertex
 10
-2.500525
 20
-10.78262
 30
-0.8386235
 70
    32
  0
VERTEX
  5
249
330
246
100
AcDbEntity
  8
EASE-$ABSORBER
100
AcDbVertex
100
AcDb3dPolylineVertex
 10
-1.28777
 20
-2.800000999999999
 30
-0.4765359000000001
 70
    32
  0
VERTEX
  5
24A
330
246
100
AcDbEntity
  8
EASE-$ABSORBER
100
AcDbVertex
100
AcDb3dPolylineVertex
 10
-3.815371999999999
 20
-0.7814186
 30
-0.3832
 70
    32
  0
SEQEND
  5
24B
330
246
100
AcDbEntity
  8
EASE-$ABSORBER
  0
POLYLINE
  5
24C
330
1E
100
AcDbEntity
  8
EASE-$ABSORBER
100
AcDb3dPolyline
 66
     1
 10
0.0
 20
0.0
 30
0.0
 70
     9
  0
VERTEX
  5
24D
330
24C
100
AcDbEntity
  8
EASE-$ABSORBER
100
AcDbVertex
100
AcDb3dPolylineVertex
 10
5.644073
 20
-9.009524
 30
-0.7560626
 70
    32
  0
VERTEX
  5
24E
330
24C
100
AcDbEntity
  8
EASE-$ABSORBER
100
AcDbVertex
100
AcDb3dPolylineVertex
 10
2.500525
 20
-10.78262
 30
-0.8386235
 70
    32
  0
VERTEX
  5
24F
330
24C
100
AcDbEntity
  8
EASE-$ABSORBER
100
AcDbVertex
100
AcDb3dPolylineVertex
 10
5.399115
 20
-10.47951
 30
-0.8230330999999999
 70
    32
  0
SEQEND
  5
250
330
24C
100
AcDbEntity
  8
EASE-$ABSORBER
  0
POLYLINE
  5
251
330
1E
100
AcDbEntity
  8
EASE-$ABSORBER
100
AcDb3dPolyline
 66
     1
 10
0.0
 20
0.0
 30
0.0
 70
     9
  0
VERTEX
  5
252
330
251
100
AcDbEntity
  8
EASE-$ABSORBER
100
AcDbVertex
100
AcDb3dPolylineVertex
 10
-5.399115
 20
-10.47951
 30
-0.8230330999999999
 70
    32
  0
VERTEX
  5
253
330
251
100
AcDbEntity
  8
EASE-$ABSORBER
100
AcDbVertex
100
AcDb3dPolylineVertex
 10
-2.500525
 20
-10.78262
 30
-0.8386235
 70
    32
  0
VERTEX
  5
254
330
251
100
AcDbEntity
  8
EASE-$ABSORBER
100
AcDbVertex
100
AcDb3dPolylineVertex
 10
-5.644073
 20
-9.009524
 30
-0.7560626
 70
    32
  0
SEQEND
  5
255
330
251
100
AcDbEntity
  8
EASE-$ABSORBER
  0
POLYLINE
  5
256
330
1E
100
AcDbEntity
  8
EASE-$ABSORBER
100
AcDb3dPolyline
 66
     1
 10
0.0
 20
0.0
 30
0.0
 70
     9
  0
VERTEX
  5
257
330
256
100
AcDbEntity
  8
EASE-$ABSORBER
100
AcDbVertex
100
AcDb3dPolylineVertex
 10
-0.9326176999999999
 20
-2.500000999999999
 30
-0.8506527
 70
    32
  0
VERTEX
  5
258
330
256
100
AcDbEntity
  8
EASE-$ABSORBER
100
AcDbVertex
100
AcDb3dPolylineVertex
 10
0.9336845999999999
 20
-2.500000999999999
 30
-0.8494849
 70
    32
  0
VERTEX
  5
259
330
256
100
AcDbEntity
  8
EASE-$ABSORBER
100
AcDbVertex
100
AcDb3dPolylineVertex
 10
0.9334395
 20
-2.500000999999999
 30
-0.4631225000000001
 70
    32
  0
VERTEX
  5
25A
330
256
100
AcDbEntity
  8
EASE-$ABSORBER
100
AcDbVertex
100
AcDb3dPolylineVertex
 10
-0.9328578999999999
 20
-2.500000999999999
 30
-0.4642904000000001
 70
    32
  0
SEQEND
  5
25B
330
256
100
AcDbEntity
  8
EASE-$ABSORBER
  0
POLYLINE
  5
25C
330
1E
100
AcDbEntity
  8
EASE-$ABSORBER
100
AcDb3dPolyline
 66
     1
 10
0.0
 20
0.0
 30
0.0
 70
     9
  0
VERTEX
  5
25D
330
25C
100
AcDbEntity
  8
EASE-$ABSORBER
100
AcDbVertex
100
AcDb3dPolylineVertex
 10
0.9328578999999999
 20
-2.500000999999999
 30
-0.4642904000000001
 70
    32
  0
VERTEX
  5
25E
330
25C
100
AcDbEntity
  8
EASE-$ABSORBER
100
AcDbVertex
100
AcDb3dPolylineVertex
 10
-0.9334395
 20
-2.500000999999999
 30
-0.4631225000000001
 70
    32
  0
VERTEX
  5
25F
330
25C
100
AcDbEntity
  8
EASE-$ABSORBER
100
AcDbVertex
100
AcDb3dPolylineVertex
 10
-0.9336845999999999
 20
-2.500000999999999
 30
-0.8494849
 70
    32
  0
VERTEX
  5
260
330
25C
100
AcDbEntity
  8
EASE-$ABSORBER
100
AcDbVertex
100
AcDb3dPolylineVertex
 10
0.9326176999999999
 20
-2.500000999999999
 30
-0.8506527
 70
    32
  0
SEQEND
  5
261
330
25C
100
AcDbEntity
  8
EASE-$ABSORBER
  0
POLYLINE
  5
262
330
1E
100
AcDbEntity
  8
EASE-$ABSORBER
100
AcDb3dPolyline
 66
     1
 10
0.0
 20
0.0
 30
0.0
 70
     9
  0
VERTEX
  5
263
330
262
100
AcDbEntity
  8
EASE-$ABSORBER
100
AcDbVertex
100
AcDb3dPolylineVertex
 10
-0.9328578999999999
 20
-2.500000999999999
 30
-0.4642904000000001
 70
    32
  0
VERTEX
  5
264
330
262
100
AcDbEntity
  8
EASE-$ABSORBER
100
AcDbVertex
100
AcDb3dPolylineVertex
 10
-1.28717
 20
-2.800000999999999
 30
-0.4781506
 70
    32
  0
VERTEX
  5
265
330
262
100
AcDbEntity
  8
EASE-$ABSORBER
100
AcDbVertex
100
AcDb3dPolylineVertex
 10
-1.286938999999999
 20
-2.800000999999999
 30
-0.8508786
 70
    32
  0
VERTEX
  5
266
330
262
100
AcDbEntity
  8
EASE-$ABSORBER
100
AcDbVertex
100
AcDb3dPolylineVertex
 10
-0.9326176999999999
 20
-2.500000999999999
 30
-0.8506527
 70
    32
  0
SEQEND
  5
267
330
262
100
AcDbEntity
  8
EASE-$ABSORBER
  0
POLYLINE
  5
268
330
1E
100
AcDbEntity
  8
EASE-$ABSORBER
100
AcDb3dPolyline
 66
     1
 10
0.0
 20
0.0
 30
0.0
 70
     9
  0
VERTEX
  5
269
330
268
100
AcDbEntity
  8
EASE-$ABSORBER
100
AcDbVertex
100
AcDb3dPolylineVertex
 10
0.9326176999999999
 20
-2.500000999999999
 30
-0.8506527
 70
    32
  0
VERTEX
  5
26A
330
268
100
AcDbEntity
  8
EASE-$ABSORBER
100
AcDbVertex
100
AcDb3dPolylineVertex
 10
1.286938999999999
 20
-2.800000999999999
 30
-0.8508786
 70
    32
  0
VERTEX
  5
26B
330
268
100
AcDbEntity
  8
EASE-$ABSORBER
100
AcDbVertex
100
AcDb3dPolylineVertex
 10
1.28717
 20
-2.800000999999999
 30
-0.4781506
 70
    32
  0
VERTEX
  5
26C
330
268
100
AcDbEntity
  8
EASE-$ABSORBER
100
AcDbVertex
100
AcDb3dPolylineVertex
 10
0.9328578999999999
 20
-2.500000999999999
 30
-0.4642904000000001
 70
    32
  0
SEQEND
  5
26D
330
268
100
AcDbEntity
  8
EASE-$ABSORBER
  0
POLYLINE
  5
26E
330
1E
100
AcDbEntity
  8
EASE-$ABSORBER
100
AcDb3dPolyline
 66
     1
 10
0.0
 20
0.0
 30
0.0
 70
     9
  0
VERTEX
  5
26F
330
26E
100
AcDbEntity
  8
EASE-$ABSORBER
100
AcDbVertex
100
AcDb3dPolylineVertex
 10
0.9334395
 20
-2.500000999999999
 30
-0.4631225000000001
 70
    32
  0
VERTEX
  5
270
330
26E
100
AcDbEntity
  8
EASE-$ABSORBER
100
AcDbVertex
100
AcDb3dPolylineVertex
 10
0.9336845999999999
 20
-2.500000999999999
 30
-0.8494849
 70
    32
  0
VERTEX
  5
271
330
26E
100
AcDbEntity
  8
EASE-$ABSORBER
100
AcDbVertex
100
AcDb3dPolylineVertex
 10
1.288000999999999
 20
-2.800000999999999
 30
-0.8492638000000001
 70
    32
  0
VERTEX
  5
272
330
26E
100
AcDbEntity
  8
EASE-$ABSORBER
100
AcDbVertex
100
AcDb3dPolylineVertex
 10
1.28777
 20
-2.800000999999999
 30
-0.4765359000000001
 70
    32
  0
SEQEND
  5
273
330
26E
100
AcDbEntity
  8
EASE-$ABSORBER
  0
POLYLINE
  5
274
330
1E
100
AcDbEntity
  8
EASE-$ABSORBER
100
AcDb3dPolyline
 66
     1
 10
0.0
 20
0.0
 30
0.0
 70
     9
  0
VERTEX
  5
275
330
274
100
AcDbEntity
  8
EASE-$ABSORBER
100
AcDbVertex
100
AcDb3dPolylineVertex
 10
-1.28777
 20
-2.800000999999999
 30
-0.4765359000000001
 70
    32
  0
VERTEX
  5
276
330
274
100
AcDbEntity
  8
EASE-$ABSORBER
100
AcDbVertex
100
AcDb3dPolylineVertex
 10
-1.288000999999999
 20
-2.800000999999999
 30
-0.8492638000000001
 70
    32
  0
VERTEX
  5
277
330
274
100
AcDbEntity
  8
EASE-$ABSORBER
100
AcDbVertex
100
AcDb3dPolylineVertex
 10
-0.9336845999999999
 20
-2.500000999999999
 30
-0.8494849
 70
    32
  0
VERTEX
  5
278
330
274
100
AcDbEntity
  8
EASE-$ABSORBER
100
AcDbVertex
100
AcDb3dPolylineVertex
 10
-0.9334395
 20
-2.500000999999999
 30
-0.4631225000000001
 70
    32
  0
SEQEND
  5
279
330
274
100
AcDbEntity
  8
EASE-$ABSORBER
  0
POLYLINE
  5
27A
330
1E
100
AcDbEntity
  8
EASE-$ABSORBER
100
AcDb3dPolyline
 66
     1
 10
0.0
 20
0.0
 30
0.0
 70
     9
  0
VERTEX
  5
27B
330
27A
100
AcDbEntity
  8
EASE-$ABSORBER
100
AcDbVertex
100
AcDb3dPolylineVertex
 10
1.288000999999999
 20
-2.800000999999999
 30
-0.8492638000000001
 70
    32
  0
VERTEX
  5
27C
330
27A
100
AcDbEntity
  8
EASE-$ABSORBER
100
AcDbVertex
100
AcDb3dPolylineVertex
 10
2.500534999999999
 20
-10.78262
 30
-0.8485043999999998
 70
    32
  0
VERTEX
  5
27D
330
27A
100
AcDbEntity
  8
EASE-$ABSORBER
100
AcDbVertex
100
AcDb3dPolylineVertex
 10
1.28777
 20
-2.800000999999999
 30
-0.4765359000000001
 70
    32
  0
SEQEND
  5
27E
330
27A
100
AcDbEntity
  8
EASE-$ABSORBER
  0
POLYLINE
  5
27F
330
1E
100
AcDbEntity
  8
EASE-$ABSORBER
100
AcDb3dPolyline
 66
     1
 10
0.0
 20
0.0
 30
0.0
 70
     9
  0
VERTEX
  5
280
330
27F
100
AcDbEntity
  8
EASE-$ABSORBER
100
AcDbVertex
100
AcDb3dPolylineVertex
 10
-1.28777
 20
-2.800000999999999
 30
-0.4765359000000001
 70
    32
  0
VERTEX
  5
281
330
27F
100
AcDbEntity
  8
EASE-$ABSORBER
100
AcDbVertex
100
AcDb3dPolylineVertex
 10
-2.500534999999999
 20
-10.78262
 30
-0.8485043999999998
 70
    32
  0
VERTEX
  5
282
330
27F
100
AcDbEntity
  8
EASE-$ABSORBER
100
AcDbVertex
100
AcDb3dPolylineVertex
 10
-1.288000999999999
 20
-2.800000999999999
 30
-0.8492638000000001
 70
    32
  0
SEQEND
  5
283
330
27F
100
AcDbEntity
  8
EASE-$ABSORBER
  0
POLYLINE
  5
284
330
1E
100
AcDbEntity
  8
EASE-$ABSORBER
100
AcDb3dPolyline
 66
     1
 10
0.0
 20
0.0
 30
0.0
 70
     9
  0
VERTEX
  5
285
330
284
100
AcDbEntity
  8
EASE-$ABSORBER
100
AcDbVertex
100
AcDb3dPolylineVertex
 10
5.247742999999999
 20
-10.42787
 30
19.12957
 70
    32
  0
VERTEX
  5
286
330
284
100
AcDbEntity
  8
EASE-$ABSORBER
100
AcDbVertex
100
AcDb3dPolylineVertex
 10
3.239479
 20
-10.42787
 30
16.8189
 70
    32
  0
VERTEX
  5
287
330
284
100
AcDbEntity
  8
EASE-$ABSORBER
100
AcDbVertex
100
AcDb3dPolylineVertex
 10
-0.01094308
 20
-10.42787
 30
17.48381
 70
    32
  0
VERTEX
  5
288
330
284
100
AcDbEntity
  8
EASE-$ABSORBER
100
AcDbVertex
100
AcDb3dPolylineVertex
 10
-0.01196674
 20
-10.42787
 30
19.12627999999999
 70
    32
  0
SEQEND
  5
289
330
284
100
AcDbEntity
  8
EASE-$ABSORBER
  0
POLYLINE
  5
28A
330
1E
100
AcDbEntity
  8
EASE-$ABSORBER
100
AcDb3dPolyline
 66
     1
 10
0.0
 20
0.0
 30
0.0
 70
     9
  0
VERTEX
  5
28B
330
28A
100
AcDbEntity
  8
EASE-$ABSORBER
100
AcDbVertex
100
AcDb3dPolylineVertex
 10
0.01196674
 20
-10.42787
 30
19.12627999999999
 70
    32
  0
VERTEX
  5
28C
330
28A
100
AcDbEntity
  8
EASE-$ABSORBER
100
AcDbVertex
100
AcDb3dPolylineVertex
 10
0.01094308
 20
-10.42787
 30
17.48381
 70
    32
  0
VERTEX
  5
28D
330
28A
100
AcDbEntity
  8
EASE-$ABSORBER
100
AcDbVertex
100
AcDb3dPolylineVertex
 10
-3.239479
 20
-10.42787
 30
16.8189
 70
    32
  0
VERTEX
  5
28E
330
28A
100
AcDbEntity
  8
EASE-$ABSORBER
100
AcDbVertex
100
AcDb3dPolylineVertex
 10
-5.247742999999999
 20
-10.42787
 30
19.12957
 70
    32
  0
SEQEND
  5
28F
330
28A
100
AcDbEntity
  8
EASE-$ABSORBER
  0
POLYLINE
  5
290
330
1E
100
AcDbEntity
  8
EASE-$ABSORBER
100
AcDb3dPolyline
 66
     1
 10
0.0
 20
0.0
 30
0.0
 70
     9
  0
VERTEX
  5
291
330
290
100
AcDbEntity
  8
EASE-$ABSORBER
100
AcDbVertex
100
AcDb3dPolylineVertex
 10
-0.008857311
 20
-10.42787
 30
14.14994
 70
    32
  0
VERTEX
  5
292
330
290
100
AcDbEntity
  8
EASE-$ABSORBER
100
AcDbVertex
100
AcDb3dPolylineVertex
 10
-0.009323485
 20
-10.42787
 30
14.89993
 70
    32
  0
VERTEX
  5
293
330
290
100
AcDbEntity
  8
EASE-$ABSORBER
100
AcDbVertex
100
AcDb3dPolylineVertex
 10
3.240257
 20
-10.42787
 30
15.5689
 70
    32
  0
VERTEX
  5
294
330
290
100
AcDbEntity
  8
EASE-$ABSORBER
100
AcDbVertex
100
AcDb3dPolylineVertex
 10
3.991144
 20
-10.42787
 30
14.15243999999999
 70
    32
  0
SEQEND
  5
295
330
290
100
AcDbEntity
  8
EASE-$ABSORBER
  0
POLYLINE
  5
296
330
1E
100
AcDbEntity
  8
EASE-$ABSORBER
100
AcDb3dPolyline
 66
     1
 10
0.0
 20
0.0
 30
0.0
 70
     9
  0
VERTEX
  5
297
330
296
100
AcDbEntity
  8
EASE-$ABSORBER
100
AcDbVertex
100
AcDb3dPolylineVertex
 10
-3.991144
 20
-10.42787
 30
14.15243999999999
 70
    32
  0
VERTEX
  5
298
330
296
100
AcDbEntity
  8
EASE-$ABSORBER
100
AcDbVertex
100
AcDb3dPolylineVertex
 10
-3.240257
 20
-10.42787
 30
15.5689
 70
    32
  0
VERTEX
  5
299
330
296
100
AcDbEntity
  8
EASE-$ABSORBER
100
AcDbVertex
100
AcDb3dPolylineVertex
 10
0.009323485
 20
-10.42787
 30
14.89993
 70
    32
  0
VERTEX
  5
29A
330
296
100
AcDbEntity
  8
EASE-$ABSORBER
100
AcDbVertex
100
AcDb3dPolylineVertex
 10
0.008857311
 20
-10.42787
 30
14.14994
 70
    32
  0
SEQEND
  5
29B
330
296
100
AcDbEntity
  8
EASE-$ABSORBER
  0
POLYLINE
  5
29C
330
1E
100
AcDbEntity
  8
EASE-$ABSORBER
100
AcDb3dPolyline
 66
     1
 10
0.0
 20
0.0
 30
0.0
 70
     9
  0
VERTEX
  5
29D
330
29C
100
AcDbEntity
  8
EASE-$ABSORBER
100
AcDbVertex
100
AcDb3dPolylineVertex
 10
3.993959999999999
 20
-10.42787
 30
9.652435999999999
 70
    32
  0
VERTEX
  5
29E
330
29C
100
AcDbEntity
  8
EASE-$ABSORBER
100
AcDbVertex
100
AcDb3dPolylineVertex
 10
3.990480999999999
 20
-10.42787
 30
7.902433
 70
    32
  0
VERTEX
  5
29F
330
29C
100
AcDbEntity
  8
EASE-$ABSORBER
100
AcDbVertex
100
AcDb3dPolylineVertex
 10
-4.004947
 20
-10.42787
 30
7.897429999999999
 70
    32
  0
VERTEX
  5
2A0
330
29C
100
AcDbEntity
  8
EASE-$ABSORBER
100
AcDbVertex
100
AcDb3dPolylineVertex
 10
-4.006041999999999
 20
-10.42787
 30
9.647428999999998
 70
    32
  0
SEQEND
  5
2A1
330
29C
100
AcDbEntity
  8
EASE-$ABSORBER
  0
POLYLINE
  5
2A2
330
1E
100
AcDbEntity
  8
EASE-$ABSORBER
100
AcDb3dPolyline
 66
     1
 10
0.0
 20
0.0
 30
0.0
 70
     9
  0
VERTEX
  5
2A3
330
2A2
100
AcDbEntity
  8
EASE-$ABSORBER
100
AcDbVertex
100
AcDb3dPolylineVertex
 10
4.006041999999999
 20
-10.42787
 30
9.647428999999998
 70
    32
  0
VERTEX
  5
2A4
330
2A2
100
AcDbEntity
  8
EASE-$ABSORBER
100
AcDbVertex
100
AcDb3dPolylineVertex
 10
4.004947
 20
-10.42787
 30
7.897429999999999
 70
    32
  0
VERTEX
  5
2A5
330
2A2
100
AcDbEntity
  8
EASE-$ABSORBER
100
AcDbVertex
100
AcDb3dPolylineVertex
 10
-3.990480999999999
 20
-10.42787
 30
7.902433
 70
    32
  0
VERTEX
  5
2A6
330
2A2
100
AcDbEntity
  8
EASE-$ABSORBER
100
AcDbVertex
100
AcDb3dPolylineVertex
 10
-3.993959999999999
 20
-10.42787
 30
9.652435999999999
 70
    32
  0
SEQEND
  5
2A7
330
2A2
100
AcDbEntity
  8
EASE-$ABSORBER
  0
POLYLINE
  5
2A8
330
1E
100
AcDbEntity
  8
EASE-$ABSORBER
100
AcDb3dPolyline
 66
     1
 10
0.0
 20
0.0
 30
0.0
 70
     9
  0
VERTEX
  5
2A9
330
2A8
100
AcDbEntity
  8
EASE-$ABSORBER
100
AcDbVertex
100
AcDb3dPolylineVertex
 10
-0.9249378
 20
-10.42787
 30
-0.3506495999999999
 70
    32
  0
VERTEX
  5
2AA
330
2A8
100
AcDbEntity
  8
EASE-$ABSORBER
100
AcDbVertex
100
AcDb3dPolylineVertex
 10
-0.9383848
 20
-10.42787
 30
0.8993415
 70
    32
  0
VERTEX
  5
2AB
330
2A8
100
AcDbEntity
  8
EASE-$ABSORBER
100
AcDbVertex
100
AcDb3dPolylineVertex
 10
0.9372601999999998
 20
-10.42787
 30
0.9005141
 70
    32
  0
VERTEX
  5
2AC
330
2A8
100
AcDbEntity
  8
EASE-$ABSORBER
100
AcDbVertex
100
AcDb3dPolylineVertex
 10
0.9380435999999999
 20
-10.42787
 30
-0.3494817
 70
    32
  0
SEQEND
  5
2AD
330
2A8
100
AcDbEntity
  8
EASE-$ABSORBER
  0
POLYLINE
  5
2AE
330
1E
100
AcDbEntity
  8
EASE-$ABSORBER
100
AcDb3dPolyline
 66
     1
 10
0.0
 20
0.0
 30
0.0
 70
     9
  0
VERTEX
  5
2AF
330
2AE
100
AcDbEntity
  8
EASE-$ABSORBER
100
AcDbVertex
100
AcDb3dPolylineVertex
 10
-0.9380435999999999
 20
-10.42787
 30
-0.3494817
 70
    32
  0
VERTEX
  5
2B0
330
2AE
100
AcDbEntity
  8
EASE-$ABSORBER
100
AcDbVertex
100
AcDb3dPolylineVertex
 10
-0.9372601999999998
 20
-10.42787
 30
0.9005141
 70
    32
  0
VERTEX
  5
2B1
330
2AE
100
AcDbEntity
  8
EASE-$ABSORBER
100
AcDbVertex
100
AcDb3dPolylineVertex
 10
0.9383848
 20
-10.42787
 30
0.8993415
 70
    32
  0
VERTEX
  5
2B2
330
2AE
100
AcDbEntity
  8
EASE-$ABSORBER
100
AcDbVertex
100
AcDb3dPolylineVertex
 10
0.9249378
 20
-10.42787
 30
-0.3506495999999999
 70
    32
  0
SEQEND
  5
2B3
330
2AE
100
AcDbEntity
  8
EASE-$ABSORBER
  0
POLYLINE
  5
2B4
330
1E
100
AcDbEntity
  8
EASE-$ABSORBER
100
AcDb3dPolyline
 66
     1
 10
0.0
 20
0.0
 30
0.0
 70
     9
  0
VERTEX
  5
2B5
330
2B4
100
AcDbEntity
  8
EASE-$ABSORBER
100
AcDbVertex
100
AcDb3dPolylineVertex
 10
-2.511967999999999
 20
-10.42787
 30
19.12471
 70
    32
  0
VERTEX
  5
2B6
330
2B4
100
AcDbEntity
  8
EASE-$ABSORBER
100
AcDbVertex
100
AcDb3dPolylineVertex
 10
-2.511967999999999
 20
-10.78262
 30
19.12471
 70
    32
  0
VERTEX
  5
2B7
330
2B4
100
AcDbEntity
  8
EASE-$ABSORBER
100
AcDbVertex
100
AcDb3dPolylineVertex
 10
-0.0089294
 20
-10.92787
 30
19.12627999999999
 70
    32
  0
VERTEX
  5
2B8
330
2B4
100
AcDbEntity
  8
EASE-$ABSORBER
100
AcDbVertex
100
AcDb3dPolylineVertex
 10
-0.0089294
 20
-10.42787
 30
19.12627999999999
 70
    32
  0
SEQEND
  5
2B9
330
2B4
100
AcDbEntity
  8
EASE-$ABSORBER
  0
POLYLINE
  5
2BA
330
1E
100
AcDbEntity
  8
EASE-$ABSORBER
100
AcDb3dPolyline
 66
     1
 10
0.0
 20
0.0
 30
0.0
 70
     9
  0
VERTEX
  5
2BB
330
2BA
100
AcDbEntity
  8
EASE-$ABSORBER
100
AcDbVertex
100
AcDb3dPolylineVertex
 10
0.0089294
 20
-10.42787
 30
19.12627999999999
 70
    32
  0
VERTEX
  5
2BC
330
2BA
100
AcDbEntity
  8
EASE-$ABSORBER
100
AcDbVertex
100
AcDb3dPolylineVertex
 10
0.0089294
 20
-10.92787
 30
19.12627999999999
 70
    32
  0
VERTEX
  5
2BD
330
2BA
100
AcDbEntity
  8
EASE-$ABSORBER
100
AcDbVertex
100
AcDb3dPolylineVertex
 10
2.511967999999999
 20
-10.78262
 30
19.12471
 70
    32
  0
VERTEX
  5
2BE
330
2BA
100
AcDbEntity
  8
EASE-$ABSORBER
100
AcDbVertex
100
AcDb3dPolylineVertex
 10
2.511967999999999
 20
-10.42787
 30
19.12471
 70
    32
  0
SEQEND
  5
2BF
330
2BA
100
AcDbEntity
  8
EASE-$ABSORBER
  0
POLYLINE
  5
2C0
330
1E
100
AcDbEntity
  8
EASE-$ABSORBER
100
AcDb3dPolyline
 66
     1
 10
0.0
 20
0.0
 30
0.0
 70
     9
  0
VERTEX
  5
2C1
330
2C0
100
AcDbEntity
  8
EASE-$ABSORBER
100
AcDbVertex
100
AcDb3dPolylineVertex
 10
0.003258414
 20
-10.92787
 30
-0.3500680999999999
 70
    32
  0
VERTEX
  5
2C2
330
2C0
100
AcDbEntity
  8
EASE-$ABSORBER
100
AcDbVertex
100
AcDb3dPolylineVertex
 10
-2.499779999999999
 20
-10.78262
 30
-0.3516348
 70
    32
  0
VERTEX
  5
2C3
330
2C0
100
AcDbEntity
  8
EASE-$ABSORBER
100
AcDbVertex
100
AcDb3dPolylineVertex
 10
-2.499779999999999
 20
-10.42787
 30
-0.3516348
 70
    32
  0
VERTEX
  5
2C4
330
2C0
100
AcDbEntity
  8
EASE-$ABSORBER
100
AcDbVertex
100
AcDb3dPolylineVertex
 10
0.003258414
 20
-10.42787
 30
-0.3500680999999999
 70
    32
  0
SEQEND
  5
2C5
330
2C0
100
AcDbEntity
  8
EASE-$ABSORBER
  0
POLYLINE
  5
2C6
330
1E
100
AcDbEntity
  8
EASE-$ABSORBER
100
AcDb3dPolyline
 66
     1
 10
0.0
 20
0.0
 30
0.0
 70
     9
  0
VERTEX
  5
2C7
330
2C6
100
AcDbEntity
  8
EASE-$ABSORBER
100
AcDbVertex
100
AcDb3dPolylineVertex
 10
-0.003258414
 20
-10.42787
 30
-0.3500680999999999
 70
    32
  0
VERTEX
  5
2C8
330
2C6
100
AcDbEntity
  8
EASE-$ABSORBER
100
AcDbVertex
100
AcDb3dPolylineVertex
 10
2.499779999999999
 20
-10.42787
 30
-0.3516348
 70
    32
  0
VERTEX
  5
2C9
330
2C6
100
AcDbEntity
  8
EASE-$ABSORBER
100
AcDbVertex
100
AcDb3dPolylineVertex
 10
2.499779999999999
 20
-10.78262
 30
-0.3516348
 70
    32
  0
VERTEX
  5
2CA
330
2C6
100
AcDbEntity
  8
EASE-$ABSORBER
100
AcDbVertex
100
AcDb3dPolylineVertex
 10
-0.003258414
 20
-10.92787
 30
-0.3500680999999999
 70
    32
  0
SEQEND
  5
2CB
330
2C6
100
AcDbEntity
  8
EASE-$ABSORBER
  0
POLYLINE
  5
2CC
330
1E
100
AcDbEntity
  8
EASE-$ABSORBER
100
AcDb3dPolyline
 66
     1
 10
0.0
 20
0.0
 30
0.0
 70
     9
  0
VERTEX
  5
2CD
330
2CC
100
AcDbEntity
  8
EASE-$ABSORBER
100
AcDbVertex
100
AcDb3dPolylineVertex
 10
-2.499779999999999
 20
-10.78262
 30
-0.3516348
 70
    32
  0
VERTEX
  5
2CE
330
2CC
100
AcDbEntity
  8
EASE-$ABSORBER
100
AcDbVertex
100
AcDb3dPolylineVertex
 10
0.003258414
 20
-10.92787
 30
-0.3500680999999999
 70
    32
  0
VERTEX
  5
2CF
330
2CC
100
AcDbEntity
  8
EASE-$ABSORBER
100
AcDbVertex
100
AcDb3dPolylineVertex
 10
0.003570799
 20
-10.92787
 30
-0.8500712
 70
    32
  0
VERTEX
  5
2D0
330
2CC
100
AcDbEntity
  8
EASE-$ABSORBER
100
AcDbVertex
100
AcDb3dPolylineVertex
 10
-2.499468
 20
-10.78262
 30
-0.8516379999999998
 70
    32
  0
SEQEND
  5
2D1
330
2CC
100
AcDbEntity
  8
EASE-$ABSORBER
  0
POLYLINE
  5
2D2
330
1E
100
AcDbEntity
  8
EASE-$ABSORBER
100
AcDb3dPolyline
 66
     1
 10
0.0
 20
0.0
 30
0.0
 70
     9
  0
VERTEX
  5
2D3
330
2D2
100
AcDbEntity
  8
EASE-$ABSORBER
100
AcDbVertex
100
AcDb3dPolylineVertex
 10
2.499468
 20
-10.78262
 30
-0.8516379999999998
 70
    32
  0
VERTEX
  5
2D4
330
2D2
100
AcDbEntity
  8
EASE-$ABSORBER
100
AcDbVertex
100
AcDb3dPolylineVertex
 10
-0.003570799
 20
-10.92787
 30
-0.8500712
 70
    32
  0
VERTEX
  5
2D5
330
2D2
100
AcDbEntity
  8
EASE-$ABSORBER
100
AcDbVertex
100
AcDb3dPolylineVertex
 10
-0.003258414
 20
-10.92787
 30
-0.3500680999999999
 70
    32
  0
VERTEX
  5
2D6
330
2D2
100
AcDbEntity
  8
EASE-$ABSORBER
100
AcDbVertex
100
AcDb3dPolylineVertex
 10
2.499779999999999
 20
-10.78262
 30
-0.3516348
 70
    32
  0
SEQEND
  5
2D7
330
2D2
100
AcDbEntity
  8
EASE-$ABSORBER
  0
POLYLINE
  5
2D8
330
1E
100
AcDbEntity
  8
EASE-$ABSORBER
100
AcDb3dPolyline
 66
     1
 10
0.0
 20
0.0
 30
0.0
 70
     9
  0
VERTEX
  5
2D9
330
2D8
100
AcDbEntity
  8
EASE-$ABSORBER
100
AcDbVertex
100
AcDb3dPolylineVertex
 10
-2.51229
 20
-10.78262
 30
19.63849
 70
    32
  0
VERTEX
  5
2DA
330
2D8
100
AcDbEntity
  8
EASE-$ABSORBER
100
AcDbVertex
100
AcDb3dPolylineVertex
 10
-0.009256203
 20
-10.92787
 30
19.64994
 70
    32
  0
VERTEX
  5
2DB
330
2D8
100
AcDbEntity
  8
EASE-$ABSORBER
100
AcDbVertex
100
AcDb3dPolylineVertex
 10
-0.0089294
 20
-10.92787
 30
19.12627999999999
 70
    32
  0
VERTEX
  5
2DC
330
2D8
100
AcDbEntity
  8
EASE-$ABSORBER
100
AcDbVertex
100
AcDb3dPolylineVertex
 10
-2.511967999999999
 20
-10.78262
 30
19.12471
 70
    32
  0
SEQEND
  5
2DD
330
2D8
100
AcDbEntity
  8
EASE-$ABSORBER
  0
POLYLINE
  5
2DE
330
1E
100
AcDbEntity
  8
EASE-$ABSORBER
100
AcDb3dPolyline
 66
     1
 10
0.0
 20
0.0
 30
0.0
 70
     9
  0
VERTEX
  5
2DF
330
2DE
100
AcDbEntity
  8
EASE-$ABSORBER
100
AcDbVertex
100
AcDb3dPolylineVertex
 10
2.511967999999999
 20
-10.78262
 30
19.12471
 70
    32
  0
VERTEX
  5
2E0
330
2DE
100
AcDbEntity
  8
EASE-$ABSORBER
100
AcDbVertex
100
AcDb3dPolylineVertex
 10
0.0089294
 20
-10.92787
 30
19.12627999999999
 70
    32
  0
VERTEX
  5
2E1
330
2DE
100
AcDbEntity
  8
EASE-$ABSORBER
100
AcDbVertex
100
AcDb3dPolylineVertex
 10
0.009256203
 20
-10.92787
 30
19.64994
 70
    32
  0
VERTEX
  5
2E2
330
2DE
100
AcDbEntity
  8
EASE-$ABSORBER
100
AcDbVertex
100
AcDb3dPolylineVertex
 10
2.51229
 20
-10.78262
 30
19.63849
 70
    32
  0
SEQEND
  5
2E3
330
2DE
100
AcDbEntity
  8
EASE-$ABSORBER
  0
POLYLINE
  5
2E4
330
1E
100
AcDbEntity
  8
EASE-$ABSORBER
100
AcDb3dPolyline
 66
     1
 10
0.0
 20
0.0
 30
0.0
 70
     9
  0
VERTEX
  5
2E5
330
2E4
100
AcDbEntity
  8
EASE-$ABSORBER
100
AcDbVertex
100
AcDb3dPolylineVertex
 10
-0.01094308
 20
-7.927869999999999
 30
17.48381
 70
    32
  0
VERTEX
  5
2E6
330
2E4
100
AcDbEntity
  8
EASE-$ABSORBER
100
AcDbVertex
100
AcDb3dPolylineVertex
 10
-0.01094308
 20
-10.42787
 30
17.48381
 70
    32
  0
VERTEX
  5
2E7
330
2E4
100
AcDbEntity
  8
EASE-$ABSORBER
100
AcDbVertex
100
AcDb3dPolylineVertex
 10
3.239479
 20
-10.42787
 30
16.8189
 70
    32
  0
VERTEX
  5
2E8
330
2E4
100
AcDbEntity
  8
EASE-$ABSORBER
100
AcDbVertex
100
AcDb3dPolylineVertex
 10
3.239479
 20
-7.927869999999999
 30
16.8189
 70
    32
  0
SEQEND
  5
2E9
330
2E4
100
AcDbEntity
  8
EASE-$ABSORBER
  0
POLYLINE
  5
2EA
330
1E
100
AcDbEntity
  8
EASE-$ABSORBER
100
AcDb3dPolyline
 66
     1
 10
0.0
 20
0.0
 30
0.0
 70
     9
  0
VERTEX
  5
2EB
330
2EA
100
AcDbEntity
  8
EASE-$ABSORBER
100
AcDbVertex
100
AcDb3dPolylineVertex
 10
-3.239479
 20
-7.927869999999999
 30
16.8189
 70
    32
  0
VERTEX
  5
2EC
330
2EA
100
AcDbEntity
  8
EASE-$ABSORBER
100
AcDbVertex
100
AcDb3dPolylineVertex
 10
-3.239479
 20
-10.42787
 30
16.8189
 70
    32
  0
VERTEX
  5
2ED
330
2EA
100
AcDbEntity
  8
EASE-$ABSORBER
100
AcDbVertex
100
AcDb3dPolylineVertex
 10
0.01094308
 20
-10.42787
 30
17.48381
 70
    32
  0
VERTEX
  5
2EE
330
2EA
100
AcDbEntity
  8
EASE-$ABSORBER
100
AcDbVertex
100
AcDb3dPolylineVertex
 10
0.01094308
 20
-7.927869999999999
 30
17.48381
 70
    32
  0
SEQEND
  5
2EF
330
2EA
100
AcDbEntity
  8
EASE-$ABSORBER
  0
POLYLINE
  5
2F0
330
1E
100
AcDbEntity
  8
EASE-$ABSORBER
100
AcDb3dPolyline
 66
     1
 10
0.0
 20
0.0
 30
0.0
 70
     9
  0
VERTEX
  5
2F1
330
2F0
100
AcDbEntity
  8
EASE-$ABSORBER
100
AcDbVertex
100
AcDb3dPolylineVertex
 10
-0.009323485
 20
-7.927869999999999
 30
14.89993
 70
    32
  0
VERTEX
  5
2F2
330
2F0
100
AcDbEntity
  8
EASE-$ABSORBER
100
AcDbVertex
100
AcDb3dPolylineVertex
 10
3.240257
 20
-7.927869999999999
 30
15.5689
 70
    32
  0
VERTEX
  5
2F3
330
2F0
100
AcDbEntity
  8
EASE-$ABSORBER
100
AcDbVertex
100
AcDb3dPolylineVertex
 10
3.240257
 20
-10.42787
 30
15.5689
 70
    32
  0
VERTEX
  5
2F4
330
2F0
100
AcDbEntity
  8
EASE-$ABSORBER
100
AcDbVertex
100
AcDb3dPolylineVertex
 10
-0.009323485
 20
-10.42787
 30
14.89993
 70
    32
  0
SEQEND
  5
2F5
330
2F0
100
AcDbEntity
  8
EASE-$ABSORBER
  0
POLYLINE
  5
2F6
330
1E
100
AcDbEntity
  8
EASE-$ABSORBER
100
AcDb3dPolyline
 66
     1
 10
0.0
 20
0.0
 30
0.0
 70
     9
  0
VERTEX
  5
2F7
330
2F6
100
AcDbEntity
  8
EASE-$ABSORBER
100
AcDbVertex
100
AcDb3dPolylineVertex
 10
0.009323485
 20
-10.42787
 30
14.89993
 70
    32
  0
VERTEX
  5
2F8
330
2F6
100
AcDbEntity
  8
EASE-$ABSORBER
100
AcDbVertex
100
AcDb3dPolylineVertex
 10
-3.240257
 20
-10.42787
 30
15.5689
 70
    32
  0
VERTEX
  5
2F9
330
2F6
100
AcDbEntity
  8
EASE-$ABSORBER
100
AcDbVertex
100
AcDb3dPolylineVertex
 10
-3.240257
 20
-7.927869999999999
 30
15.5689
 70
    32
  0
VERTEX
  5
2FA
330
2F6
100
AcDbEntity
  8
EASE-$ABSORBER
100
AcDbVertex
100
AcDb3dPolylineVertex
 10
0.009323485
 20
-7.927869999999999
 30
14.89993
 70
    32
  0
SEQEND
  5
2FB
330
2F6
100
AcDbEntity
  8
EASE-$ABSORBER
  0
POLYLINE
  5
2FC
330
1E
100
AcDbEntity
  8
EASE-$ABSORBER
100
AcDb3dPolyline
 66
     1
 10
0.0
 20
0.0
 30
0.0
 70
     9
  0
VERTEX
  5
2FD
330
2FC
100
AcDbEntity
  8
EASE-$ABSORBER
100
AcDbVertex
100
AcDb3dPolylineVertex
 10
-4.008858
 20
-10.42787
 30
14.14742999999999
 70
    32
  0
VERTEX
  5
2FE
330
2FC
100
AcDbEntity
  8
EASE-$ABSORBER
100
AcDbVertex
100
AcDb3dPolylineVertex
 10
3.991144
 20
-10.42787
 30
14.15243999999999
 70
    32
  0
VERTEX
  5
2FF
330
2FC
100
AcDbEntity
  8
EASE-$ABSORBER
100
AcDbVertex
100
AcDb3dPolylineVertex
 10
0.3923025
 20
-7.927869999999999
 30
12.30018999999999
 70
    32
  0
VERTEX
  5
300
330
2FC
100
AcDbEntity
  8
EASE-$ABSORBER
100
AcDbVertex
100
AcDb3dPolylineVertex
 10
-0.4076958000000001
 20
-7.927869999999999
 30
12.29968
 70
    32
  0
SEQEND
  5
301
330
2FC
100
AcDbEntity
  8
EASE-$ABSORBER
  0
POLYLINE
  5
302
330
1E
100
AcDbEntity
  8
EASE-$ABSORBER
100
AcDb3dPolyline
 66
     1
 10
0.0
 20
0.0
 30
0.0
 70
     9
  0
VERTEX
  5
303
330
302
100
AcDbEntity
  8
EASE-$ABSORBER
100
AcDbVertex
100
AcDb3dPolylineVertex
 10
0.4076958000000001
 20
-7.927869999999999
 30
12.29968
 70
    32
  0
VERTEX
  5
304
330
302
100
AcDbEntity
  8
EASE-$ABSORBER
100
AcDbVertex
100
AcDb3dPolylineVertex
 10
-0.3923025
 20
-7.927869999999999
 30
12.30018999999999
 70
    32
  0
VERTEX
  5
305
330
302
100
AcDbEntity
  8
EASE-$ABSORBER
100
AcDbVertex
100
AcDb3dPolylineVertex
 10
-3.991144
 20
-10.42787
 30
14.15243999999999
 70
    32
  0
VERTEX
  5
306
330
302
100
AcDbEntity
  8
EASE-$ABSORBER
100
AcDbVertex
100
AcDb3dPolylineVertex
 10
4.008858
 20
-10.42787
 30
14.14742999999999
 70
    32
  0
SEQEND
  5
307
330
302
100
AcDbEntity
  8
EASE-$ABSORBER
  0
POLYLINE
  5
308
330
1E
100
AcDbEntity
  8
EASE-$ABSORBER
100
AcDb3dPolyline
 66
     1
 10
0.0
 20
0.0
 30
0.0
 70
     9
  0
VERTEX
  5
309
330
308
100
AcDbEntity
  8
EASE-$ABSORBER
100
AcDbVertex
100
AcDb3dPolylineVertex
 10
3.993959999999999
 20
-10.42787
 30
9.652435999999999
 70
    32
  0
VERTEX
  5
30A
330
308
100
AcDbEntity
  8
EASE-$ABSORBER
100
AcDbVertex
100
AcDb3dPolylineVertex
 10
-4.006041999999999
 20
-10.42787
 30
9.647428999999998
 70
    32
  0
VERTEX
  5
30B
330
308
100
AcDbEntity
  8
EASE-$ABSORBER
100
AcDbVertex
100
AcDb3dPolylineVertex
 10
-0.407196
 20
-7.927869999999999
 30
11.49968
 70
    32
  0
VERTEX
  5
30C
330
308
100
AcDbEntity
  8
EASE-$ABSORBER
100
AcDbVertex
100
AcDb3dPolylineVertex
 10
0.3928023
 20
-7.927869999999999
 30
11.50017999999999
 70
    32
  0
SEQEND
  5
30D
330
308
100
AcDbEntity
  8
EASE-$ABSORBER
  0
POLYLINE
  5
30E
330
1E
100
AcDbEntity
  8
EASE-$ABSORBER
100
AcDb3dPolyline
 66
     1
 10
0.0
 20
0.0
 30
0.0
 70
     9
  0
VERTEX
  5
30F
330
30E
100
AcDbEntity
  8
EASE-$ABSORBER
100
AcDbVertex
100
AcDb3dPolylineVertex
 10
-0.3928023
 20
-7.927869999999999
 30
11.50017999999999
 70
    32
  0
VERTEX
  5
310
330
30E
100
AcDbEntity
  8
EASE-$ABSORBER
100
AcDbVertex
100
AcDb3dPolylineVertex
 10
0.407196
 20
-7.927869999999999
 30
11.49968
 70
    32
  0
VERTEX
  5
311
330
30E
100
AcDbEntity
  8
EASE-$ABSORBER
100
AcDbVertex
100
AcDb3dPolylineVertex
 10
4.006041999999999
 20
-10.42787
 30
9.647428999999998
 70
    32
  0
VERTEX
  5
312
330
30E
100
AcDbEntity
  8
EASE-$ABSORBER
100
AcDbVertex
100
AcDb3dPolylineVertex
 10
-3.993959999999999
 20
-10.42787
 30
9.652435999999999
 70
    32
  0
SEQEND
  5
313
330
30E
100
AcDbEntity
  8
EASE-$ABSORBER
  0
POLYLINE
  5
314
330
1E
100
AcDbEntity
  8
EASE-$ABSORBER
100
AcDb3dPolyline
 66
     1
 10
0.0
 20
0.0
 30
0.0
 70
     9
  0
VERTEX
  5
315
330
314
100
AcDbEntity
  8
EASE-$ABSORBER
100
AcDbVertex
100
AcDb3dPolylineVertex
 10
-0.9427678
 20
-10.42787
 30
7.899346999999999
 70
    32
  0
VERTEX
  5
316
330
314
100
AcDbEntity
  8
EASE-$ABSORBER
100
AcDbVertex
100
AcDb3dPolylineVertex
 10
0.9328771999999998
 20
-10.42787
 30
7.900519999999999
 70
    32
  0
VERTEX
  5
317
330
314
100
AcDbEntity
  8
EASE-$ABSORBER
100
AcDbVertex
100
AcDb3dPolylineVertex
 10
0.2645707000000001
 20
-8.427868999999999
 30
5.4001
 70
    32
  0
VERTEX
  5
318
330
314
100
AcDbEntity
  8
EASE-$ABSORBER
100
AcDbVertex
100
AcDb3dPolylineVertex
 10
-0.2713279000000001
 20
-8.427868999999999
 30
5.399764
 70
    32
  0
SEQEND
  5
319
330
314
100
AcDbEntity
  8
EASE-$ABSORBER
  0
POLYLINE
  5
31A
330
1E
100
AcDbEntity
  8
EASE-$ABSORBER
100
AcDb3dPolyline
 66
     1
 10
0.0
 20
0.0
 30
0.0
 70
     9
  0
VERTEX
  5
31B
330
31A
100
AcDbEntity
  8
EASE-$ABSORBER
100
AcDbVertex
100
AcDb3dPolylineVertex
 10
0.2713279000000001
 20
-8.427868999999999
 30
5.399764
 70
    32
  0
VERTEX
  5
31C
330
31A
100
AcDbEntity
  8
EASE-$ABSORBER
100
AcDbVertex
100
AcDb3dPolylineVertex
 10
-0.2645707000000001
 20
-8.427868999999999
 30
5.4001
 70
    32
  0
VERTEX
  5
31D
330
31A
100
AcDbEntity
  8
EASE-$ABSORBER
100
AcDbVertex
100
AcDb3dPolylineVertex
 10
-0.9328771999999998
 20
-10.42787
 30
7.900519999999999
 70
    32
  0
VERTEX
  5
31E
330
31A
100
AcDbEntity
  8
EASE-$ABSORBER
100
AcDbVertex
100
AcDb3dPolylineVertex
 10
0.9427678
 20
-10.42787
 30
7.899346999999999
 70
    32
  0
SEQEND
  5
31F
330
31A
100
AcDbEntity
  8
EASE-$ABSORBER
  0
POLYLINE
  5
320
330
1E
100
AcDbEntity
  8
EASE-$ABSORBER
100
AcDb3dPolyline
 66
     1
 10
0.0
 20
0.0
 30
0.0
 70
     9
  0
VERTEX
  5
321
330
320
100
AcDbEntity
  8
EASE-$ABSORBER
100
AcDbVertex
100
AcDb3dPolylineVertex
 10
-0.9383848
 20
-10.42787
 30
0.8993415
 70
    32
  0
VERTEX
  5
322
330
320
100
AcDbEntity
  8
EASE-$ABSORBER
100
AcDbVertex
100
AcDb3dPolylineVertex
 10
-0.2700783
 20
-8.427868999999999
 30
3.399761
 70
    32
  0
VERTEX
  5
323
330
320
100
AcDbEntity
  8
EASE-$ABSORBER
100
AcDbVertex
100
AcDb3dPolylineVertex
 10
0.2658203
 20
-8.427868999999999
 30
3.400097
 70
    32
  0
VERTEX
  5
324
330
320
100
AcDbEntity
  8
EASE-$ABSORBER
100
AcDbVertex
100
AcDb3dPolylineVertex
 10
0.9372601999999998
 20
-10.42787
 30
0.9005141
 70
    32
  0
SEQEND
  5
325
330
320
100
AcDbEntity
  8
EASE-$ABSORBER
  0
POLYLINE
  5
326
330
1E
100
AcDbEntity
  8
EASE-$ABSORBER
100
AcDb3dPolyline
 66
     1
 10
0.0
 20
0.0
 30
0.0
 70
     9
  0
VERTEX
  5
327
330
326
100
AcDbEntity
  8
EASE-$ABSORBER
100
AcDbVertex
100
AcDb3dPolylineVertex
 10
-0.9372601999999998
 20
-10.42787
 30
0.9005141
 70
    32
  0
VERTEX
  5
328
330
326
100
AcDbEntity
  8
EASE-$ABSORBER
100
AcDbVertex
100
AcDb3dPolylineVertex
 10
-0.2658203
 20
-8.427868999999999
 30
3.400097
 70
    32
  0
VERTEX
  5
329
330
326
100
AcDbEntity
  8
EASE-$ABSORBER
100
AcDbVertex
100
AcDb3dPolylineVertex
 10
0.2700783
 20
-8.427868999999999
 30
3.399761
 70
    32
  0
VERTEX
  5
32A
330
326
100
AcDbEntity
  8
EASE-$ABSORBER
100
AcDbVertex
100
AcDb3dPolylineVertex
 10
0.9383848
 20
-10.42787
 30
0.8993415
 70
    32
  0
SEQEND
  5
32B
330
326
100
AcDbEntity
  8
EASE-$ABSORBER
  0
POLYLINE
  5
32C
330
1E
100
AcDbEntity
  8
EASE-$ABSORBER
100
AcDb3dPolyline
 66
     1
 10
0.0
 20
0.0
 30
0.0
 70
     9
  0
VERTEX
  5
32D
330
32C
100
AcDbEntity
  8
EASE-$ABSORBER
100
AcDbVertex
100
AcDb3dPolylineVertex
 10
-4.004947
 20
-10.42787
 30
7.897429999999999
 70
    32
  0
VERTEX
  5
32E
330
32C
100
AcDbEntity
  8
EASE-$ABSORBER
100
AcDbVertex
100
AcDb3dPolylineVertex
 10
-5.264655
 20
-10.42787
 30
7.896641
 70
    32
  0
VERTEX
  5
32F
330
32C
100
AcDbEntity
  8
EASE-$ABSORBER
100
AcDbVertex
100
AcDb3dPolylineVertex
 10
-5.265750999999999
 20
-10.42787
 30
9.646641
 70
    32
  0
VERTEX
  5
330
330
32C
100
AcDbEntity
  8
EASE-$ABSORBER
100
AcDbVertex
100
AcDb3dPolylineVertex
 10
-4.006041999999999
 20
-10.42787
 30
9.647428999999998
 70
    32
  0
SEQEND
  5
331
330
32C
100
AcDbEntity
  8
EASE-$ABSORBER
  0
POLYLINE
  5
332
330
1E
100
AcDbEntity
  8
EASE-$ABSORBER
100
AcDb3dPolyline
 66
     1
 10
0.0
 20
0.0
 30
0.0
 70
     9
  0
VERTEX
  5
333
330
332
100
AcDbEntity
  8
EASE-$ABSORBER
100
AcDbVertex
100
AcDb3dPolylineVertex
 10
4.006041999999999
 20
-10.42787
 30
9.647428999999998
 70
    32
  0
VERTEX
  5
334
330
332
100
AcDbEntity
  8
EASE-$ABSORBER
100
AcDbVertex
100
AcDb3dPolylineVertex
 10
5.265750999999999
 20
-10.42787
 30
9.646641
 70
    32
  0
VERTEX
  5
335
330
332
100
AcDbEntity
  8
EASE-$ABSORBER
100
AcDbVertex
100
AcDb3dPolylineVertex
 10
5.264655
 20
-10.42787
 30
7.896641
 70
    32
  0
VERTEX
  5
336
330
332
100
AcDbEntity
  8
EASE-$ABSORBER
100
AcDbVertex
100
AcDb3dPolylineVertex
 10
4.004947
 20
-10.42787
 30
7.897429999999999
 70
    32
  0
SEQEND
  5
337
330
332
100
AcDbEntity
  8
EASE-$ABSORBER
  0
POLYLINE
  5
338
330
1E
100
AcDbEntity
  8
EASE-$ABSORBER
100
AcDb3dPolyline
 66
     1
 10
0.0
 20
0.0
 30
0.0
 70
     9
  0
VERTEX
  5
339
330
338
100
AcDbEntity
  8
EASE-$ABSORBER
100
AcDbVertex
100
AcDb3dPolylineVertex
 10
-5.259492999999999
 20
-10.42787
 30
-0.3533600999999999
 70
    32
  0
VERTEX
  5
33A
330
338
100
AcDbEntity
  8
EASE-$ABSORBER
100
AcDbVertex
100
AcDb3dPolylineVertex
 10
-5.259492999999999
 20
-10.49403
 30
-0.3533600999999999
 70
    32
  0
VERTEX
  5
33B
330
338
100
AcDbEntity
  8
EASE-$ABSORBER
100
AcDbVertex
100
AcDb3dPolylineVertex
 10
-5.271681
 20
-10.49403
 30
19.12298999999999
 70
    32
  0
VERTEX
  5
33C
330
338
100
AcDbEntity
  8
EASE-$ABSORBER
100
AcDbVertex
100
AcDb3dPolylineVertex
 10
-5.271681
 20
-10.42787
 30
19.12298999999999
 70
    32
  0
SEQEND
  5
33D
330
338
100
AcDbEntity
  8
EASE-$ABSORBER
  0
POLYLINE
  5
33E
330
1E
100
AcDbEntity
  8
EASE-$ABSORBER
100
AcDb3dPolyline
 66
     1
 10
0.0
 20
0.0
 30
0.0
 70
     9
  0
VERTEX
  5
33F
330
33E
100
AcDbEntity
  8
EASE-$ABSORBER
100
AcDbVertex
100
AcDb3dPolylineVertex
 10
5.271681
 20
-10.42787
 30
19.12298999999999
 70
    32
  0
VERTEX
  5
340
330
33E
100
AcDbEntity
  8
EASE-$ABSORBER
100
AcDbVertex
100
AcDb3dPolylineVertex
 10
5.271681
 20
-10.49403
 30
19.12298999999999
 70
    32
  0
VERTEX
  5
341
330
33E
100
AcDbEntity
  8
EASE-$ABSORBER
100
AcDbVertex
100
AcDb3dPolylineVertex
 10
5.259492999999999
 20
-10.49403
 30
-0.3533600999999999
 70
    32
  0
VERTEX
  5
342
330
33E
100
AcDbEntity
  8
EASE-$ABSORBER
100
AcDbVertex
100
AcDb3dPolylineVertex
 10
5.259492999999999
 20
-10.42787
 30
-0.3533600999999999
 70
    32
  0
SEQEND
  5
343
330
33E
100
AcDbEntity
  8
EASE-$ABSORBER
  0
POLYLINE
  5
344
330
1E
100
AcDbEntity
  8
EASE-$ABSORBER
100
AcDb3dPolyline
 66
     1
 10
0.0
 20
0.0
 30
0.0
 70
     9
  0
VERTEX
  5
345
330
344
100
AcDbEntity
  8
EASE-$ABSORBER
100
AcDbVertex
100
AcDb3dPolylineVertex
 10
-5.259492999999999
 20
-10.49403
 30
-0.3533600999999999
 70
    32
  0
VERTEX
  5
346
330
344
100
AcDbEntity
  8
EASE-$ABSORBER
100
AcDbVertex
100
AcDb3dPolylineVertex
 10
-5.759414999999999
 20
-10.44175
 30
-0.4779488
 70
    32
  0
VERTEX
  5
347
330
344
100
AcDbEntity
  8
EASE-$ABSORBER
100
AcDbVertex
100
AcDb3dPolylineVertex
 10
-5.771776
 20
-10.44175
 30
19.27061
 70
    32
  0
VERTEX
  5
348
330
344
100
AcDbEntity
  8
EASE-$ABSORBER
100
AcDbVertex
100
AcDb3dPolylineVertex
 10
-5.271681
 20
-10.49403
 30
19.12298999999999
 70
    32
  0
SEQEND
  5
349
330
344
100
AcDbEntity
  8
EASE-$ABSORBER
  0
POLYLINE
  5
34A
330
1E
100
AcDbEntity
  8
EASE-$ABSORBER
100
AcDb3dPolyline
 66
     1
 10
0.0
 20
0.0
 30
0.0
 70
     9
  0
VERTEX
  5
34B
330
34A
100
AcDbEntity
  8
EASE-$ABSORBER
100
AcDbVertex
100
AcDb3dPolylineVertex
 10
5.271681
 20
-10.49403
 30
19.12298999999999
 70
    32
  0
VERTEX
  5
34C
330
34A
100
AcDbEntity
  8
EASE-$ABSORBER
100
AcDbVertex
100
AcDb3dPolylineVertex
 10
5.771776
 20
-10.44175
 30
19.27061
 70
    32
  0
VERTEX
  5
34D
330
34A
100
AcDbEntity
  8
EASE-$ABSORBER
100
AcDbVertex
100
AcDb3dPolylineVertex
 10
5.759414999999999
 20
-10.44175
 30
-0.4779488
 70
    32
  0
VERTEX
  5
34E
330
34A
100
AcDbEntity
  8
EASE-$ABSORBER
100
AcDbVertex
100
AcDb3dPolylineVertex
 10
5.259492999999999
 20
-10.49403
 30
-0.3533600999999999
 70
    32
  0
SEQEND
  5
34F
330
34A
100
AcDbEntity
  8
EASE-$ABSORBER
  0
POLYLINE
  5
350
330
1E
100
AcDbEntity
  8
EASE-$ABSORBER
100
AcDb3dPolyline
 66
     1
 10
0.0
 20
0.0
 30
0.0
 70
     9
  0
VERTEX
  5
351
330
350
100
AcDbEntity
  8
EASE-$ABSORBER
100
AcDbVertex
100
AcDb3dPolylineVertex
 10
-2.566535
 20
-10.42787
 30
6.960505999999999
 70
    32
  0
VERTEX
  5
352
330
350
100
AcDbEntity
  8
EASE-$ABSORBER
100
AcDbVertex
100
AcDb3dPolylineVertex
 10
-0.9427678
 20
-10.42787
 30
7.899346999999999
 70
    32
  0
VERTEX
  5
353
330
350
100
AcDbEntity
  8
EASE-$ABSORBER
100
AcDbVertex
100
AcDb3dPolylineVertex
 10
-0.2713279000000001
 20
-8.427868999999999
 30
5.399764
 70
    32
  0
VERTEX
  5
354
330
350
100
AcDbEntity
  8
EASE-$ABSORBER
100
AcDbVertex
100
AcDb3dPolylineVertex
 10
-0.7352626
 20
-8.427868999999999
 30
5.131521
 70
    32
  0
SEQEND
  5
355
330
350
100
AcDbEntity
  8
EASE-$ABSORBER
  0
POLYLINE
  5
356
330
1E
100
AcDbEntity
  8
EASE-$ABSORBER
100
AcDb3dPolyline
 66
     1
 10
0.0
 20
0.0
 30
0.0
 70
     9
  0
VERTEX
  5
357
330
356
100
AcDbEntity
  8
EASE-$ABSORBER
100
AcDbVertex
100
AcDb3dPolylineVertex
 10
0.7352626
 20
-8.427868999999999
 30
5.131521
 70
    32
  0
VERTEX
  5
358
330
356
100
AcDbEntity
  8
EASE-$ABSORBER
100
AcDbVertex
100
AcDb3dPolylineVertex
 10
0.2713279000000001
 20
-8.427868999999999
 30
5.399764
 70
    32
  0
VERTEX
  5
359
330
356
100
AcDbEntity
  8
EASE-$ABSORBER
100
AcDbVertex
100
AcDb3dPolylineVertex
 10
0.9427678
 20
-10.42787
 30
7.899346999999999
 70
    32
  0
VERTEX
  5
35A
330
356
100
AcDbEntity
  8
EASE-$ABSORBER
100
AcDbVertex
100
AcDb3dPolylineVertex
 10
2.566535
 20
-10.42787
 30
6.960505999999999
 70
    32
  0
SEQEND
  5
35B
330
356
100
AcDbEntity
  8
EASE-$ABSORBER
  0
POLYLINE
  5
35C
330
1E
100
AcDbEntity
  8
EASE-$ABSORBER
100
AcDb3dPolyline
 66
     1
 10
0.0
 20
0.0
 30
0.0
 70
     9
  0
VERTEX
  5
35D
330
35C
100
AcDbEntity
  8
EASE-$ABSORBER
100
AcDbVertex
100
AcDb3dPolylineVertex
 10
-3.503343
 20
-10.42787
 30
5.335562
 70
    32
  0
VERTEX
  5
35E
330
35C
100
AcDbEntity
  8
EASE-$ABSORBER
100
AcDbVertex
100
AcDb3dPolylineVertex
 10
-2.566535
 20
-10.42787
 30
6.960505999999999
 70
    32
  0
VERTEX
  5
35F
330
35C
100
AcDbEntity
  8
EASE-$ABSORBER
100
AcDbVertex
100
AcDb3dPolylineVertex
 10
-0.7352626
 20
-8.427868999999999
 30
5.131521
 70
    32
  0
VERTEX
  5
360
330
35C
100
AcDbEntity
  8
EASE-$ABSORBER
100
AcDbVertex
100
AcDb3dPolylineVertex
 10
-1.002923
 20
-8.427868999999999
 30
4.667254999999999
 70
    32
  0
SEQEND
  5
361
330
35C
100
AcDbEntity
  8
EASE-$ABSORBER
  0
POLYLINE
  5
362
330
1E
100
AcDbEntity
  8
EASE-$ABSORBER
100
AcDb3dPolyline
 66
     1
 10
0.0
 20
0.0
 30
0.0
 70
     9
  0
VERTEX
  5
363
330
362
100
AcDbEntity
  8
EASE-$ABSORBER
100
AcDbVertex
100
AcDb3dPolylineVertex
 10
1.002923
 20
-8.427868999999999
 30
4.667254999999999
 70
    32
  0
VERTEX
  5
364
330
362
100
AcDbEntity
  8
EASE-$ABSORBER
100
AcDbVertex
100
AcDb3dPolylineVertex
 10
0.7352626
 20
-8.427868999999999
 30
5.131521
 70
    32
  0
VERTEX
  5
365
330
362
100
AcDbEntity
  8
EASE-$ABSORBER
100
AcDbVertex
100
AcDb3dPolylineVertex
 10
2.566535
 20
-10.42787
 30
6.960505999999999
 70
    32
  0
VERTEX
  5
366
330
362
100
AcDbEntity
  8
EASE-$ABSORBER
100
AcDbVertex
100
AcDb3dPolylineVertex
 10
3.503343
 20
-10.42787
 30
5.335562
 70
    32
  0
SEQEND
  5
367
330
362
100
AcDbEntity
  8
EASE-$ABSORBER
  0
POLYLINE
  5
368
330
1E
100
AcDbEntity
  8
EASE-$ABSORBER
100
AcDb3dPolyline
 66
     1
 10
0.0
 20
0.0
 30
0.0
 70
     9
  0
VERTEX
  5
369
330
368
100
AcDbEntity
  8
EASE-$ABSORBER
100
AcDbVertex
100
AcDb3dPolylineVertex
 10
-3.503343
 20
-10.42787
 30
5.335562
 70
    32
  0
VERTEX
  5
36A
330
368
100
AcDbEntity
  8
EASE-$ABSORBER
100
AcDbVertex
100
AcDb3dPolylineVertex
 10
-1.002923
 20
-8.427868999999999
 30
4.667254999999999
 70
    32
  0
VERTEX
  5
36B
330
368
100
AcDbEntity
  8
EASE-$ABSORBER
100
AcDbVertex
100
AcDb3dPolylineVertex
 10
-1.002587
 20
-8.427868999999999
 30
4.131357
 70
    32
  0
VERTEX
  5
36C
330
368
100
AcDbEntity
  8
EASE-$ABSORBER
100
AcDbVertex
100
AcDb3dPolylineVertex
 10
-3.502169999999999
 20
-10.42787
 30
3.459916999999999
 70
    32
  0
SEQEND
  5
36D
330
368
100
AcDbEntity
  8
EASE-$ABSORBER
  0
POLYLINE
  5
36E
330
1E
100
AcDbEntity
  8
EASE-$ABSORBER
100
AcDb3dPolyline
 66
     1
 10
0.0
 20
0.0
 30
0.0
 70
     9
  0
VERTEX
  5
36F
330
36E
100
AcDbEntity
  8
EASE-$ABSORBER
100
AcDbVertex
100
AcDb3dPolylineVertex
 10
3.502169999999999
 20
-10.42787
 30
3.459916999999999
 70
    32
  0
VERTEX
  5
370
330
36E
100
AcDbEntity
  8
EASE-$ABSORBER
100
AcDbVertex
100
AcDb3dPolylineVertex
 10
1.002587
 20
-8.427868999999999
 30
4.131357
 70
    32
  0
VERTEX
  5
371
330
36E
100
AcDbEntity
  8
EASE-$ABSORBER
100
AcDbVertex
100
AcDb3dPolylineVertex
 10
1.002923
 20
-8.427868999999999
 30
4.667254999999999
 70
    32
  0
VERTEX
  5
372
330
36E
100
AcDbEntity
  8
EASE-$ABSORBER
100
AcDbVertex
100
AcDb3dPolylineVertex
 10
3.503343
 20
-10.42787
 30
5.335562
 70
    32
  0
SEQEND
  5
373
330
36E
100
AcDbEntity
  8
EASE-$ABSORBER
  0
POLYLINE
  5
374
330
1E
100
AcDbEntity
  8
EASE-$ABSORBER
100
AcDb3dPolyline
 66
     1
 10
0.0
 20
0.0
 30
0.0
 70
     9
  0
VERTEX
  5
375
330
374
100
AcDbEntity
  8
EASE-$ABSORBER
100
AcDbVertex
100
AcDb3dPolylineVertex
 10
-3.502169999999999
 20
-10.42787
 30
3.459916999999999
 70
    32
  0
VERTEX
  5
376
330
374
100
AcDbEntity
  8
EASE-$ABSORBER
100
AcDbVertex
100
AcDb3dPolylineVertex
 10
-1.002587
 20
-8.427868999999999
 30
4.131357
 70
    32
  0
VERTEX
  5
377
330
374
100
AcDbEntity
  8
EASE-$ABSORBER
100
AcDbVertex
100
AcDb3dPolylineVertex
 10
-0.7343446000000001
 20
-8.427868999999999
 30
3.667422
 70
    32
  0
VERTEX
  5
378
330
374
100
AcDbEntity
  8
EASE-$ABSORBER
100
AcDbVertex
100
AcDb3dPolylineVertex
 10
-2.563328999999999
 20
-10.42787
 30
1.836149999999999
 70
    32
  0
SEQEND
  5
379
330
374
100
AcDbEntity
  8
EASE-$ABSORBER
  0
POLYLINE
  5
37A
330
1E
100
AcDbEntity
  8
EASE-$ABSORBER
100
AcDb3dPolyline
 66
     1
 10
0.0
 20
0.0
 30
0.0
 70
     9
  0
VERTEX
  5
37B
330
37A
100
AcDbEntity
  8
EASE-$ABSORBER
100
AcDbVertex
100
AcDb3dPolylineVertex
 10
2.563328999999999
 20
-10.42787
 30
1.836149999999999
 70
    32
  0
VERTEX
  5
37C
330
37A
100
AcDbEntity
  8
EASE-$ABSORBER
100
AcDbVertex
100
AcDb3dPolylineVertex
 10
0.7343446000000001
 20
-8.427868999999999
 30
3.667422
 70
    32
  0
VERTEX
  5
37D
330
37A
100
AcDbEntity
  8
EASE-$ABSORBER
100
AcDbVertex
100
AcDb3dPolylineVertex
 10
1.002587
 20
-8.427868999999999
 30
4.131357
 70
    32
  0
VERTEX
  5
37E
330
37A
100
AcDbEntity
  8
EASE-$ABSORBER
100
AcDbVertex
100
AcDb3dPolylineVertex
 10
3.502169999999999
 20
-10.42787
 30
3.459916999999999
 70
    32
  0
SEQEND
  5
37F
330
37A
100
AcDbEntity
  8
EASE-$ABSORBER
  0
POLYLINE
  5
380
330
1E
100
AcDbEntity
  8
EASE-$ABSORBER
100
AcDb3dPolyline
 66
     1
 10
0.0
 20
0.0
 30
0.0
 70
     9
  0
VERTEX
  5
381
330
380
100
AcDbEntity
  8
EASE-$ABSORBER
100
AcDbVertex
100
AcDb3dPolylineVertex
 10
-2.563328999999999
 20
-10.42787
 30
1.836149999999999
 70
    32
  0
VERTEX
  5
382
330
380
100
AcDbEntity
  8
EASE-$ABSORBER
100
AcDbVertex
100
AcDb3dPolylineVertex
 10
-0.7343446000000001
 20
-8.427868999999999
 30
3.667422
 70
    32
  0
VERTEX
  5
383
330
380
100
AcDbEntity
  8
EASE-$ABSORBER
100
AcDbVertex
100
AcDb3dPolylineVertex
 10
-0.2700783
 20
-8.427868999999999
 30
3.399761
 70
    32
  0
VERTEX
  5
384
330
380
100
AcDbEntity
  8
EASE-$ABSORBER
100
AcDbVertex
100
AcDb3dPolylineVertex
 10
-0.9383848
 20
-10.42787
 30
0.8993415
 70
    32
  0
SEQEND
  5
385
330
380
100
AcDbEntity
  8
EASE-$ABSORBER
  0
POLYLINE
  5
386
330
1E
100
AcDbEntity
  8
EASE-$ABSORBER
100
AcDb3dPolyline
 66
     1
 10
0.0
 20
0.0
 30
0.0
 70
     9
  0
VERTEX
  5
387
330
386
100
AcDbEntity
  8
EASE-$ABSORBER
100
AcDbVertex
100
AcDb3dPolylineVertex
 10
0.9383848
 20
-10.42787
 30
0.8993415
 70
    32
  0
VERTEX
  5
388
330
386
100
AcDbEntity
  8
EASE-$ABSORBER
100
AcDbVertex
100
AcDb3dPolylineVertex
 10
0.2700783
 20
-8.427868999999999
 30
3.399761
 70
    32
  0
VERTEX
  5
389
330
386
100
AcDbEntity
  8
EASE-$ABSORBER
100
AcDbVertex
100
AcDb3dPolylineVertex
 10
0.7343446000000001
 20
-8.427868999999999
 30
3.667422
 70
    32
  0
VERTEX
  5
38A
330
386
100
AcDbEntity
  8
EASE-$ABSORBER
100
AcDbVertex
100
AcDb3dPolylineVertex
 10
2.563328999999999
 20
-10.42787
 30
1.836149999999999
 70
    32
  0
SEQEND
  5
38B
330
386
100
AcDbEntity
  8
EASE-$ABSORBER
  0
POLYLINE
  5
38C
330
1E
100
AcDbEntity
  8
EASE-$ABSORBER
100
AcDb3dPolyline
 66
     1
 10
0.0
 20
0.0
 30
0.0
 70
     9
  0
VERTEX
  5
38D
330
38C
100
AcDbEntity
  8
EASE-$ABSORBER
100
AcDbVertex
100
AcDb3dPolylineVertex
 10
-5.264655
 20
-10.42787
 30
7.896641
 70
    32
  0
VERTEX
  5
38E
330
38C
100
AcDbEntity
  8
EASE-$ABSORBER
100
AcDbVertex
100
AcDb3dPolylineVertex
 10
-0.9427678
 20
-10.42787
 30
7.899346999999999
 70
    32
  0
VERTEX
  5
38F
330
38C
100
AcDbEntity
  8
EASE-$ABSORBER
100
AcDbVertex
100
AcDb3dPolylineVertex
 10
-2.566535
 20
-10.42787
 30
6.960505999999999
 70
    32
  0
VERTEX
  5
390
330
38C
100
AcDbEntity
  8
EASE-$ABSORBER
100
AcDbVertex
100
AcDb3dPolylineVertex
 10
-5.264069
 20
-10.42787
 30
6.958819
 70
    32
  0
SEQEND
  5
391
330
38C
100
AcDbEntity
  8
EASE-$ABSORBER
  0
POLYLINE
  5
392
330
1E
100
AcDbEntity
  8
EASE-$ABSORBER
100
AcDb3dPolyline
 66
     1
 10
0.0
 20
0.0
 30
0.0
 70
     9
  0
VERTEX
  5
393
330
392
100
AcDbEntity
  8
EASE-$ABSORBER
100
AcDbVertex
100
AcDb3dPolylineVertex
 10
5.264069
 20
-10.42787
 30
6.958819
 70
    32
  0
VERTEX
  5
394
330
392
100
AcDbEntity
  8
EASE-$ABSORBER
100
AcDbVertex
100
AcDb3dPolylineVertex
 10
2.566535
 20
-10.42787
 30
6.960505999999999
 70
    32
  0
VERTEX
  5
395
330
392
100
AcDbEntity
  8
EASE-$ABSORBER
100
AcDbVertex
100
AcDb3dPolylineVertex
 10
0.9427678
 20
-10.42787
 30
7.899346999999999
 70
    32
  0
VERTEX
  5
396
330
392
100
AcDbEntity
  8
EASE-$ABSORBER
100
AcDbVertex
100
AcDb3dPolylineVertex
 10
5.264655
 20
-10.42787
 30
7.896641
 70
    32
  0
SEQEND
  5
397
330
392
100
AcDbEntity
  8
EASE-$ABSORBER
  0
POLYLINE
  5
398
330
1E
100
AcDbEntity
  8
EASE-$ABSORBER
100
AcDb3dPolyline
 66
     1
 10
0.0
 20
0.0
 30
0.0
 70
     9
  0
VERTEX
  5
399
330
398
100
AcDbEntity
  8
EASE-$ABSORBER
100
AcDbVertex
100
AcDb3dPolylineVertex
 10
-5.264069
 20
-10.42787
 30
6.958819
 70
    32
  0
VERTEX
  5
39A
330
398
100
AcDbEntity
  8
EASE-$ABSORBER
100
AcDbVertex
100
AcDb3dPolylineVertex
 10
-2.566535
 20
-10.42787
 30
6.960505999999999
 70
    32
  0
VERTEX
  5
39B
330
398
100
AcDbEntity
  8
EASE-$ABSORBER
100
AcDbVertex
100
AcDb3dPolylineVertex
 10
-3.503343
 20
-10.42787
 30
5.335562
 70
    32
  0
VERTEX
  5
39C
330
398
100
AcDbEntity
  8
EASE-$ABSORBER
100
AcDbVertex
100
AcDb3dPolylineVertex
 10
-5.263049999999999
 20
-10.42787
 30
5.334461
 70
    32
  0
SEQEND
  5
39D
330
398
100
AcDbEntity
  8
EASE-$ABSORBER
  0
POLYLINE
  5
39E
330
1E
100
AcDbEntity
  8
EASE-$ABSORBER
100
AcDb3dPolyline
 66
     1
 10
0.0
 20
0.0
 30
0.0
 70
     9
  0
VERTEX
  5
39F
330
39E
100
AcDbEntity
  8
EASE-$ABSORBER
100
AcDbVertex
100
AcDb3dPolylineVertex
 10
5.263049999999999
 20
-10.42787
 30
5.334461
 70
    32
  0
VERTEX
  5
3A0
330
39E
100
AcDbEntity
  8
EASE-$ABSORBER
100
AcDbVertex
100
AcDb3dPolylineVertex
 10
3.503343
 20
-10.42787
 30
5.335562
 70
    32
  0
VERTEX
  5
3A1
330
39E
100
AcDbEntity
  8
EASE-$ABSORBER
100
AcDbVertex
100
AcDb3dPolylineVertex
 10
2.566535
 20
-10.42787
 30
6.960505999999999
 70
    32
  0
VERTEX
  5
3A2
330
39E
100
AcDbEntity
  8
EASE-$ABSORBER
100
AcDbVertex
100
AcDb3dPolylineVertex
 10
5.264069
 20
-10.42787
 30
6.958819
 70
    32
  0
SEQEND
  5
3A3
330
39E
100
AcDbEntity
  8
EASE-$ABSORBER
  0
POLYLINE
  5
3A4
330
1E
100
AcDbEntity
  8
EASE-$ABSORBER
100
AcDb3dPolyline
 66
     1
 10
0.0
 20
0.0
 30
0.0
 70
     9
  0
VERTEX
  5
3A5
330
3A4
100
AcDbEntity
  8
EASE-$ABSORBER
100
AcDbVertex
100
AcDb3dPolylineVertex
 10
-5.263049999999999
 20
-10.42787
 30
5.334461
 70
    32
  0
VERTEX
  5
3A6
330
3A4
100
AcDbEntity
  8
EASE-$ABSORBER
100
AcDbVertex
100
AcDb3dPolylineVertex
 10
-3.503343
 20
-10.42787
 30
5.335562
 70
    32
  0
VERTEX
  5
3A7
330
3A4
100
AcDbEntity
  8
EASE-$ABSORBER
100
AcDbVertex
100
AcDb3dPolylineVertex
 10
-3.502169999999999
 20
-10.42787
 30
3.459916999999999
 70
    32
  0
VERTEX
  5
3A8
330
3A4
100
AcDbEntity
  8
EASE-$ABSORBER
100
AcDbVertex
100
AcDb3dPolylineVertex
 10
-5.261876999999999
 20
-10.42787
 30
3.458816
 70
    32
  0
SEQEND
  5
3A9
330
3A4
100
AcDbEntity
  8
EASE-$ABSORBER
  0
POLYLINE
  5
3AA
330
1E
100
AcDbEntity
  8
EASE-$ABSORBER
100
AcDb3dPolyline
 66
     1
 10
0.0
 20
0.0
 30
0.0
 70
     9
  0
VERTEX
  5
3AB
330
3AA
100
AcDbEntity
  8
EASE-$ABSORBER
100
AcDbVertex
100
AcDb3dPolylineVertex
 10
5.261876999999999
 20
-10.42787
 30
3.458816
 70
    32
  0
VERTEX
  5
3AC
330
3AA
100
AcDbEntity
  8
EASE-$ABSORBER
100
AcDbVertex
100
AcDb3dPolylineVertex
 10
3.502169999999999
 20
-10.42787
 30
3.459916999999999
 70
    32
  0
VERTEX
  5
3AD
330
3AA
100
AcDbEntity
  8
EASE-$ABSORBER
100
AcDbVertex
100
AcDb3dPolylineVertex
 10
3.503343
 20
-10.42787
 30
5.335562
 70
    32
  0
VERTEX
  5
3AE
330
3AA
100
AcDbEntity
  8
EASE-$ABSORBER
100
AcDbVertex
100
AcDb3dPolylineVertex
 10
5.263049999999999
 20
-10.42787
 30
5.334461
 70
    32
  0
SEQEND
  5
3AF
330
3AA
100
AcDbEntity
  8
EASE-$ABSORBER
  0
POLYLINE
  5
3B0
330
1E
100
AcDbEntity
  8
EASE-$ABSORBER
100
AcDb3dPolyline
 66
     1
 10
0.0
 20
0.0
 30
0.0
 70
     9
  0
VERTEX
  5
3B1
330
3B0
100
AcDbEntity
  8
EASE-$ABSORBER
100
AcDbVertex
100
AcDb3dPolylineVertex
 10
-2.563328999999999
 20
-10.42787
 30
1.836149999999999
 70
    32
  0
VERTEX
  5
3B2
330
3B0
100
AcDbEntity
  8
EASE-$ABSORBER
100
AcDbVertex
100
AcDb3dPolylineVertex
 10
-5.260862999999999
 20
-10.42787
 30
1.834458
 70
    32
  0
VERTEX
  5
3B3
330
3B0
100
AcDbEntity
  8
EASE-$ABSORBER
100
AcDbVertex
100
AcDb3dPolylineVertex
 10
-5.261876999999999
 20
-10.42787
 30
3.458816
 70
    32
  0
VERTEX
  5
3B4
330
3B0
100
AcDbEntity
  8
EASE-$ABSORBER
100
AcDbVertex
100
AcDb3dPolylineVertex
 10
-3.502169999999999
 20
-10.42787
 30
3.459916999999999
 70
    32
  0
SEQEND
  5
3B5
330
3B0
100
AcDbEntity
  8
EASE-$ABSORBER
  0
POLYLINE
  5
3B6
330
1E
100
AcDbEntity
  8
EASE-$ABSORBER
100
AcDb3dPolyline
 66
     1
 10
0.0
 20
0.0
 30
0.0
 70
     9
  0
VERTEX
  5
3B7
330
3B6
100
AcDbEntity
  8
EASE-$ABSORBER
100
AcDbVertex
100
AcDb3dPolylineVertex
 10
3.502169999999999
 20
-10.42787
 30
3.459916999999999
 70
    32
  0
VERTEX
  5
3B8
330
3B6
100
AcDbEntity
  8
EASE-$ABSORBER
100
AcDbVertex
100
AcDb3dPolylineVertex
 10
5.261876999999999
 20
-10.42787
 30
3.458816
 70
    32
  0
VERTEX
  5
3B9
330
3B6
100
AcDbEntity
  8
EASE-$ABSORBER
100
AcDbVertex
100
AcDb3dPolylineVertex
 10
5.260862999999999
 20
-10.42787
 30
1.834458
 70
    32
  0
VERTEX
  5
3BA
330
3B6
100
AcDbEntity
  8
EASE-$ABSORBER
100
AcDbVertex
100
AcDb3dPolylineVertex
 10
2.563328999999999
 20
-10.42787
 30
1.836149999999999
 70
    32
  0
SEQEND
  5
3BB
330
3B6
100
AcDbEntity
  8
EASE-$ABSORBER
  0
POLYLINE
  5
3BC
330
1E
100
AcDbEntity
  8
EASE-$ABSORBER
100
AcDb3dPolyline
 66
     1
 10
0.0
 20
0.0
 30
0.0
 70
     9
  0
VERTEX
  5
3BD
330
3BC
100
AcDbEntity
  8
EASE-$ABSORBER
100
AcDbVertex
100
AcDb3dPolylineVertex
 10
-2.584964999999999
 20
-10.42787
 30
-0.3516876
 70
    32
  0
VERTEX
  5
3BE
330
3BC
100
AcDbEntity
  8
EASE-$ABSORBER
100
AcDbVertex
100
AcDb3dPolylineVertex
 10
-5.259492999999999
 20
-10.42787
 30
-0.3533600999999999
 70
    32
  0
VERTEX
  5
3BF
330
3BC
100
AcDbEntity
  8
EASE-$ABSORBER
100
AcDbVertex
100
AcDb3dPolylineVertex
 10
-5.260862999999999
 20
-10.42787
 30
1.834458
 70
    32
  0
VERTEX
  5
3C0
330
3BC
100
AcDbEntity
  8
EASE-$ABSORBER
100
AcDbVertex
100
AcDb3dPolylineVertex
 10
-2.563328999999999
 20
-10.42787
 30
1.836149999999999
 70
    32
  0
SEQEND
  5
3C1
330
3BC
100
AcDbEntity
  8
EASE-$ABSORBER
  0
POLYLINE
  5
3C2
330
1E
100
AcDbEntity
  8
EASE-$ABSORBER
100
AcDb3dPolyline
 66
     1
 10
0.0
 20
0.0
 30
0.0
 70
     9
  0
VERTEX
  5
3C3
330
3C2
100
AcDbEntity
  8
EASE-$ABSORBER
100
AcDbVertex
100
AcDb3dPolylineVertex
 10
2.563328999999999
 20
-10.42787
 30
1.836149999999999
 70
    32
  0
VERTEX
  5
3C4
330
3C2
100
AcDbEntity
  8
EASE-$ABSORBER
100
AcDbVertex
100
AcDb3dPolylineVertex
 10
5.260862999999999
 20
-10.42787
 30
1.834458
 70
    32
  0
VERTEX
  5
3C5
330
3C2
100
AcDbEntity
  8
EASE-$ABSORBER
100
AcDbVertex
100
AcDb3dPolylineVertex
 10
5.259492999999999
 20
-10.42787
 30
-0.3533600999999999
 70
    32
  0
VERTEX
  5
3C6
330
3C2
100
AcDbEntity
  8
EASE-$ABSORBER
100
AcDbVertex
100
AcDb3dPolylineVertex
 10
2.584964999999999
 20
-10.42787
 30
-0.3516876
 70
    32
  0
SEQEND
  5
3C7
330
3C2
100
AcDbEntity
  8
EASE-$ABSORBER
  0
POLYLINE
  5
3C8
330
1E
100
AcDbEntity
  8
EASE-$ABSORBER
100
AcDb3dPolyline
 66
     1
 10
0.0
 20
0.0
 30
0.0
 70
     9
  0
VERTEX
  5
3C9
330
3C8
100
AcDbEntity
  8
EASE-$ABSORBER
100
AcDbVertex
100
AcDb3dPolylineVertex
 10
-2.499779999999999
 20
-10.78262
 30
-0.3516348
 70
    32
  0
VERTEX
  5
3CA
330
3C8
100
AcDbEntity
  8
EASE-$ABSORBER
100
AcDbVertex
100
AcDb3dPolylineVertex
 10
-5.259492999999999
 20
-10.49403
 30
-0.3533600999999999
 70
    32
  0
VERTEX
  5
3CB
330
3C8
100
AcDbEntity
  8
EASE-$ABSORBER
100
AcDbVertex
100
AcDb3dPolylineVertex
 10
-5.259492999999999
 20
-10.42787
 30
-0.3533600999999999
 70
    32
  0
VERTEX
  5
3CC
330
3C8
100
AcDbEntity
  8
EASE-$ABSORBER
100
AcDbVertex
100
AcDb3dPolylineVertex
 10
-2.499779999999999
 20
-10.42787
 30
-0.3516348
 70
    32
  0
SEQEND
  5
3CD
330
3C8
100
AcDbEntity
  8
EASE-$ABSORBER
  0
POLYLINE
  5
3CE
330
1E
100
AcDbEntity
  8
EASE-$ABSORBER
100
AcDb3dPolyline
 66
     1
 10
0.0
 20
0.0
 30
0.0
 70
     9
  0
VERTEX
  5
3CF
330
3CE
100
AcDbEntity
  8
EASE-$ABSORBER
100
AcDbVertex
100
AcDb3dPolylineVertex
 10
2.499779999999999
 20
-10.42787
 30
-0.3516348
 70
    32
  0
VERTEX
  5
3D0
330
3CE
100
AcDbEntity
  8
EASE-$ABSORBER
100
AcDbVertex
100
AcDb3dPolylineVertex
 10
5.259492999999999
 20
-10.42787
 30
-0.3533600999999999
 70
    32
  0
VERTEX
  5
3D1
330
3CE
100
AcDbEntity
  8
EASE-$ABSORBER
100
AcDbVertex
100
AcDb3dPolylineVertex
 10
5.259492999999999
 20
-10.49403
 30
-0.3533600999999999
 70
    32
  0
VERTEX
  5
3D2
330
3CE
100
AcDbEntity
  8
EASE-$ABSORBER
100
AcDbVertex
100
AcDb3dPolylineVertex
 10
2.499779999999999
 20
-10.78262
 30
-0.3516348
 70
    32
  0
SEQEND
  5
3D3
330
3CE
100
AcDbEntity
  8
EASE-$ABSORBER
  0
POLYLINE
  5
3D4
330
1E
100
AcDbEntity
  8
EASE-$ABSORBER
100
AcDb3dPolyline
 66
     1
 10
0.0
 20
0.0
 30
0.0
 70
     9
  0
VERTEX
  5
3D5
330
3D4
100
AcDbEntity
  8
EASE-$ABSORBER
100
AcDbVertex
100
AcDb3dPolylineVertex
 10
-2.499473
 20
-10.78262
 30
-0.8417521
 70
    32
  0
VERTEX
  5
3D6
330
3D4
100
AcDbEntity
  8
EASE-$ABSORBER
100
AcDbVertex
100
AcDb3dPolylineVertex
 10
-5.398081999999999
 20
-10.47951
 30
-0.8297902
 70
    32
  0
VERTEX
  5
3D7
330
3D4
100
AcDbEntity
  8
EASE-$ABSORBER
100
AcDbVertex
100
AcDb3dPolylineVertex
 10
-5.259492999999999
 20
-10.49403
 30
-0.3533600999999999
 70
    32
  0
VERTEX
  5
3D8
330
3D4
100
AcDbEntity
  8
EASE-$ABSORBER
100
AcDbVertex
100
AcDb3dPolylineVertex
 10
-2.499779999999999
 20
-10.78262
 30
-0.3516348
 70
    32
  0
SEQEND
  5
3D9
330
3D4
100
AcDbEntity
  8
EASE-$ABSORBER
  0
POLYLINE
  5
3DA
330
1E
100
AcDbEntity
  8
EASE-$ABSORBER
100
AcDb3dPolyline
 66
     1
 10
0.0
 20
0.0
 30
0.0
 70
     9
  0
VERTEX
  5
3DB
330
3DA
100
AcDbEntity
  8
EASE-$ABSORBER
100
AcDbVertex
100
AcDb3dPolylineVertex
 10
2.499779999999999
 20
-10.78262
 30
-0.3516348
 70
    32
  0
VERTEX
  5
3DC
330
3DA
100
AcDbEntity
  8
EASE-$ABSORBER
100
AcDbVertex
100
AcDb3dPolylineVertex
 10
5.259492999999999
 20
-10.49403
 30
-0.3533600999999999
 70
    32
  0
VERTEX
  5
3DD
330
3DA
100
AcDbEntity
  8
EASE-$ABSORBER
100
AcDbVertex
100
AcDb3dPolylineVertex
 10
5.398081999999999
 20
-10.47951
 30
-0.8297902
 70
    32
  0
VERTEX
  5
3DE
330
3DA
100
AcDbEntity
  8
EASE-$ABSORBER
100
AcDbVertex
100
AcDb3dPolylineVertex
 10
2.499473
 20
-10.78262
 30
-0.8417521
 70
    32
  0
SEQEND
  5
3DF
330
3DA
100
AcDbEntity
  8
EASE-$ABSORBER
  0
POLYLINE
  5
3E0
330
1E
100
AcDbEntity
  8
EASE-$ABSORBER
100
AcDb3dPolyline
 66
     1
 10
0.0
 20
0.0
 30
0.0
 70
     9
  0
VERTEX
  5
3E1
330
3E0
100
AcDbEntity
  8
EASE-$ABSORBER
100
AcDbVertex
100
AcDb3dPolylineVertex
 10
-5.759414999999999
 20
-10.44175
 30
-0.4779488
 70
    32
  0
VERTEX
  5
3E2
330
3E0
100
AcDbEntity
  8
EASE-$ABSORBER
100
AcDbVertex
100
AcDb3dPolylineVertex
 10
-5.259492999999999
 20
-10.49403
 30
-0.3533600999999999
 70
    32
  0
VERTEX
  5
3E3
330
3E0
100
AcDbEntity
  8
EASE-$ABSORBER
100
AcDbVertex
100
AcDb3dPolylineVertex
 10
-5.398081999999999
 20
-10.47951
 30
-0.8297902
 70
    32
  0
SEQEND
  5
3E4
330
3E0
100
AcDbEntity
  8
EASE-$ABSORBER
  0
POLYLINE
  5
3E5
330
1E
100
AcDbEntity
  8
EASE-$ABSORBER
100
AcDb3dPolyline
 66
     1
 10
0.0
 20
0.0
 30
0.0
 70
     9
  0
VERTEX
  5
3E6
330
3E5
100
AcDbEntity
  8
EASE-$ABSORBER
100
AcDbVertex
100
AcDb3dPolylineVertex
 10
5.398081999999999
 20
-10.47951
 30
-0.8297902
 70
    32
  0
VERTEX
  5
3E7
330
3E5
100
AcDbEntity
  8
EASE-$ABSORBER
100
AcDbVertex
100
AcDb3dPolylineVertex
 10
5.259492999999999
 20
-10.49403
 30
-0.3533600999999999
 70
    32
  0
VERTEX
  5
3E8
330
3E5
100
AcDbEntity
  8
EASE-$ABSORBER
100
AcDbVertex
100
AcDb3dPolylineVertex
 10
5.759414999999999
 20
-10.44175
 30
-0.4779488
 70
    32
  0
SEQEND
  5
3E9
330
3E5
100
AcDbEntity
  8
EASE-$ABSORBER
  0
POLYLINE
  5
3EA
330
1E
100
AcDbEntity
  8
EASE-$ABSORBER
100
AcDb3dPolyline
 66
     1
 10
0.0
 20
0.0
 30
0.0
 70
     9
  0
VERTEX
  5
3EB
330
3EA
100
AcDbEntity
  8
EASE-$ABSORBER
100
AcDbVertex
100
AcDb3dPolylineVertex
 10
-0.9383848
 20
-10.42787
 30
0.8993415
 70
    32
  0
VERTEX
  5
3EC
330
3EA
100
AcDbEntity
  8
EASE-$ABSORBER
100
AcDbVertex
100
AcDb3dPolylineVertex
 10
-0.9249378
 20
-10.42787
 30
-0.3506495999999999
 70
    32
  0
VERTEX
  5
3ED
330
3EA
100
AcDbEntity
  8
EASE-$ABSORBER
100
AcDbVertex
100
AcDb3dPolylineVertex
 10
-2.584964999999999
 20
-10.42787
 30
-0.3516876
 70
    32
  0
VERTEX
  5
3EE
330
3EA
100
AcDbEntity
  8
EASE-$ABSORBER
100
AcDbVertex
100
AcDb3dPolylineVertex
 10
-2.563328999999999
 20
-10.42787
 30
1.836149999999999
 70
    32
  0
SEQEND
  5
3EF
330
3EA
100
AcDbEntity
  8
EASE-$ABSORBER
  0
POLYLINE
  5
3F0
330
1E
100
AcDbEntity
  8
EASE-$ABSORBER
100
AcDb3dPolyline
 66
     1
 10
0.0
 20
0.0
 30
0.0
 70
     9
  0
VERTEX
  5
3F1
330
3F0
100
AcDbEntity
  8
EASE-$ABSORBER
100
AcDbVertex
100
AcDb3dPolylineVertex
 10
2.563328999999999
 20
-10.42787
 30
1.836149999999999
 70
    32
  0
VERTEX
  5
3F2
330
3F0
100
AcDbEntity
  8
EASE-$ABSORBER
100
AcDbVertex
100
AcDb3dPolylineVertex
 10
2.584964999999999
 20
-10.42787
 30
-0.3516876
 70
    32
  0
VERTEX
  5
3F3
330
3F0
100
AcDbEntity
  8
EASE-$ABSORBER
100
AcDbVertex
100
AcDb3dPolylineVertex
 10
0.9249378
 20
-10.42787
 30
-0.3506495999999999
 70
    32
  0
VERTEX
  5
3F4
330
3F0
100
AcDbEntity
  8
EASE-$ABSORBER
100
AcDbVertex
100
AcDb3dPolylineVertex
 10
0.9383848
 20
-10.42787
 30
0.8993415
 70
    32
  0
SEQEND
  5
3F5
330
3F0
100
AcDbEntity
  8
EASE-$ABSORBER
  0
POLYLINE
  5
3F6
330
1E
100
AcDbEntity
  8
EASE-$ABSORBER
100
AcDb3dPolyline
 66
     1
 10
0.0
 20
0.0
 30
0.0
 70
     9
  0
VERTEX
  5
3F7
330
3F6
100
AcDbEntity
  8
EASE-$ABSORBER
100
AcDbVertex
100
AcDb3dPolylineVertex
 10
-2.499468
 20
-10.78262
 30
-0.8516379999999998
 70
    32
  0
VERTEX
  5
3F8
330
3F6
100
AcDbEntity
  8
EASE-$ABSORBER
100
AcDbVertex
100
AcDb3dPolylineVertex
 10
-2.499473
 20
-10.78262
 30
-0.8417521
 70
    32
  0
VERTEX
  5
3F9
330
3F6
100
AcDbEntity
  8
EASE-$ABSORBER
100
AcDbVertex
100
AcDb3dPolylineVertex
 10
-2.499779999999999
 20
-10.78262
 30
-0.3516348
 70
    32
  0
SEQEND
  5
3FA
330
3F6
100
AcDbEntity
  8
EASE-$ABSORBER
  0
POLYLINE
  5
3FB
330
1E
100
AcDbEntity
  8
EASE-$ABSORBER
100
AcDb3dPolyline
 66
     1
 10
0.0
 20
0.0
 30
0.0
 70
     9
  0
VERTEX
  5
3FC
330
3FB
100
AcDbEntity
  8
EASE-$ABSORBER
100
AcDbVertex
100
AcDb3dPolylineVertex
 10
2.499779999999999
 20
-10.78262
 30
-0.3516348
 70
    32
  0
VERTEX
  5
3FD
330
3FB
100
AcDbEntity
  8
EASE-$ABSORBER
100
AcDbVertex
100
AcDb3dPolylineVertex
 10
2.499473
 20
-10.78262
 30
-0.8417521
 70
    32
  0
VERTEX
  5
3FE
330
3FB
100
AcDbEntity
  8
EASE-$ABSORBER
100
AcDbVertex
100
AcDb3dPolylineVertex
 10
2.499468
 20
-10.78262
 30
-0.8516379999999998
 70
    32
  0
SEQEND
  5
3FF
330
3FB
100
AcDbEntity
  8
EASE-$ABSORBER
  0
POLYLINE
  5
400
330
1E
100
AcDbEntity
  8
EASE-$ABSORBER
100
AcDb3dPolyline
 66
     1
 10
0.0
 20
0.0
 30
0.0
 70
     9
  0
VERTEX
  5
401
330
400
100
AcDbEntity
  8
EASE-$ABSORBER
100
AcDbVertex
100
AcDb3dPolylineVertex
 10
-3.259740999999999
 20
-10.42787
 30
15.56484
 70
    32
  0
VERTEX
  5
402
330
400
100
AcDbEntity
  8
EASE-$ABSORBER
100
AcDbVertex
100
AcDb3dPolylineVertex
 10
-3.260524
 20
-10.42787
 30
16.81484
 70
    32
  0
VERTEX
  5
403
330
400
100
AcDbEntity
  8
EASE-$ABSORBER
100
AcDbVertex
100
AcDb3dPolylineVertex
 10
-3.260524
 20
-7.927869999999999
 30
16.81484
 70
    32
  0
VERTEX
  5
404
330
400
100
AcDbEntity
  8
EASE-$ABSORBER
100
AcDbVertex
100
AcDb3dPolylineVertex
 10
-3.259740999999999
 20
-7.927869999999999
 30
15.56484
 70
    32
  0
SEQEND
  5
405
330
400
100
AcDbEntity
  8
EASE-$ABSORBER
  0
POLYLINE
  5
406
330
1E
100
AcDbEntity
  8
EASE-$ABSORBER
100
AcDb3dPolyline
 66
     1
 10
0.0
 20
0.0
 30
0.0
 70
     9
  0
VERTEX
  5
407
330
406
100
AcDbEntity
  8
EASE-$ABSORBER
100
AcDbVertex
100
AcDb3dPolylineVertex
 10
3.259740999999999
 20
-7.927869999999999
 30
15.56484
 70
    32
  0
VERTEX
  5
408
330
406
100
AcDbEntity
  8
EASE-$ABSORBER
100
AcDbVertex
100
AcDb3dPolylineVertex
 10
3.260524
 20
-7.927869999999999
 30
16.81484
 70
    32
  0
VERTEX
  5
409
330
406
100
AcDbEntity
  8
EASE-$ABSORBER
100
AcDbVertex
100
AcDb3dPolylineVertex
 10
3.260524
 20
-10.42787
 30
16.81484
 70
    32
  0
VERTEX
  5
40A
330
406
100
AcDbEntity
  8
EASE-$ABSORBER
100
AcDbVertex
100
AcDb3dPolylineVertex
 10
3.259740999999999
 20
-10.42787
 30
15.56484
 70
    32
  0
SEQEND
  5
40B
330
406
100
AcDbEntity
  8
EASE-$ABSORBER
  0
POLYLINE
  5
40C
330
1E
100
AcDbEntity
  8
EASE-$ABSORBER
100
AcDb3dPolyline
 66
     1
 10
0.0
 20
0.0
 30
0.0
 70
     9
  0
VERTEX
  5
40D
330
40C
100
AcDbEntity
  8
EASE-$ABSORBER
100
AcDbVertex
100
AcDb3dPolylineVertex
 10
-4.006041999999999
 20
-10.42787
 30
9.647428999999998
 70
    32
  0
VERTEX
  5
40E
330
40C
100
AcDbEntity
  8
EASE-$ABSORBER
100
AcDbVertex
100
AcDb3dPolylineVertex
 10
-4.008858
 20
-10.42787
 30
14.14742999999999
 70
    32
  0
VERTEX
  5
40F
330
40C
100
AcDbEntity
  8
EASE-$ABSORBER
100
AcDbVertex
100
AcDb3dPolylineVertex
 10
-0.4076958000000001
 20
-7.927869999999999
 30
12.29968
 70
    32
  0
VERTEX
  5
410
330
40C
100
AcDbEntity
  8
EASE-$ABSORBER
100
AcDbVertex
100
AcDb3dPolylineVertex
 10
-0.407196
 20
-7.927869999999999
 30
11.49968
 70
    32
  0
SEQEND
  5
411
330
40C
100
AcDbEntity
  8
EASE-$ABSORBER
  0
POLYLINE
  5
412
330
1E
100
AcDbEntity
  8
EASE-$ABSORBER
100
AcDb3dPolyline
 66
     1
 10
0.0
 20
0.0
 30
0.0
 70
     9
  0
VERTEX
  5
413
330
412
100
AcDbEntity
  8
EASE-$ABSORBER
100
AcDbVertex
100
AcDb3dPolylineVertex
 10
0.407196
 20
-7.927869999999999
 30
11.49968
 70
    32
  0
VERTEX
  5
414
330
412
100
AcDbEntity
  8
EASE-$ABSORBER
100
AcDbVertex
100
AcDb3dPolylineVertex
 10
0.4076958000000001
 20
-7.927869999999999
 30
12.29968
 70
    32
  0
VERTEX
  5
415
330
412
100
AcDbEntity
  8
EASE-$ABSORBER
100
AcDbVertex
100
AcDb3dPolylineVertex
 10
4.008858
 20
-10.42787
 30
14.14742999999999
 70
    32
  0
VERTEX
  5
416
330
412
100
AcDbEntity
  8
EASE-$ABSORBER
100
AcDbVertex
100
AcDb3dPolylineVertex
 10
4.006041999999999
 20
-10.42787
 30
9.647428999999998
 70
    32
  0
SEQEND
  5
417
330
412
100
AcDbEntity
  8
EASE-$ABSORBER
  0
POLYLINE
  5
418
330
1E
100
AcDbEntity
  8
EASE-$ABSORBER
100
AcDb3dPolyline
 66
     1
 10
0.0
 20
0.0
 30
0.0
 70
     9
  0
VERTEX
  5
419
330
418
100
AcDbEntity
  8
EASE-$ABSORBER
100
AcDbVertex
100
AcDb3dPolylineVertex
 10
-3.260524
 20
-7.927869999999999
 30
16.81484
 70
    32
  0
VERTEX
  5
41A
330
418
100
AcDbEntity
  8
EASE-$ABSORBER
100
AcDbVertex
100
AcDb3dPolylineVertex
 10
-3.260524
 20
-10.42787
 30
16.81484
 70
    32
  0
VERTEX
  5
41B
330
418
100
AcDbEntity
  8
EASE-$ABSORBER
100
AcDbVertex
100
AcDb3dPolylineVertex
 10
-0.01094308
 20
-10.42787
 30
17.48381
 70
    32
  0
VERTEX
  5
41C
330
418
100
AcDbEntity
  8
EASE-$ABSORBER
100
AcDbVertex
100
AcDb3dPolylineVertex
 10
-0.01094308
 20
-7.927869999999999
 30
17.48381
 70
    32
  0
SEQEND
  5
41D
330
418
100
AcDbEntity
  8
EASE-$ABSORBER
  0
POLYLINE
  5
41E
330
1E
100
AcDbEntity
  8
EASE-$ABSORBER
100
AcDb3dPolyline
 66
     1
 10
0.0
 20
0.0
 30
0.0
 70
     9
  0
VERTEX
  5
41F
330
41E
100
AcDbEntity
  8
EASE-$ABSORBER
100
AcDbVertex
100
AcDb3dPolylineVertex
 10
0.01094308
 20
-7.927869999999999
 30
17.48381
 70
    32
  0
VERTEX
  5
420
330
41E
100
AcDbEntity
  8
EASE-$ABSORBER
100
AcDbVertex
100
AcDb3dPolylineVertex
 10
0.01094308
 20
-10.42787
 30
17.48381
 70
    32
  0
VERTEX
  5
421
330
41E
100
AcDbEntity
  8
EASE-$ABSORBER
100
AcDbVertex
100
AcDb3dPolylineVertex
 10
3.260524
 20
-10.42787
 30
16.81484
 70
    32
  0
VERTEX
  5
422
330
41E
100
AcDbEntity
  8
EASE-$ABSORBER
100
AcDbVertex
100
AcDb3dPolylineVertex
 10
3.260524
 20
-7.927869999999999
 30
16.81484
 70
    32
  0
SEQEND
  5
423
330
41E
100
AcDbEntity
  8
EASE-$ABSORBER
  0
POLYLINE
  5
424
330
1E
100
AcDbEntity
  8
EASE-$ABSORBER
100
AcDb3dPolyline
 66
     1
 10
0.0
 20
0.0
 30
0.0
 70
     9
  0
VERTEX
  5
425
330
424
100
AcDbEntity
  8
EASE-$ABSORBER
100
AcDbVertex
100
AcDb3dPolylineVertex
 10
-0.009323485
 20
-7.927869999999999
 30
14.89993
 70
    32
  0
VERTEX
  5
426
330
424
100
AcDbEntity
  8
EASE-$ABSORBER
100
AcDbVertex
100
AcDb3dPolylineVertex
 10
-0.009323485
 20
-10.42787
 30
14.89993
 70
    32
  0
VERTEX
  5
427
330
424
100
AcDbEntity
  8
EASE-$ABSORBER
100
AcDbVertex
100
AcDb3dPolylineVertex
 10
-3.259740999999999
 20
-10.42787
 30
15.56484
 70
    32
  0
VERTEX
  5
428
330
424
100
AcDbEntity
  8
EASE-$ABSORBER
100
AcDbVertex
100
AcDb3dPolylineVertex
 10
-3.259740999999999
 20
-7.927869999999999
 30
15.56484
 70
    32
  0
SEQEND
  5
429
330
424
100
AcDbEntity
  8
EASE-$ABSORBER
  0
POLYLINE
  5
42A
330
1E
100
AcDbEntity
  8
EASE-$ABSORBER
100
AcDb3dPolyline
 66
     1
 10
0.0
 20
0.0
 30
0.0
 70
     9
  0
VERTEX
  5
42B
330
42A
100
AcDbEntity
  8
EASE-$ABSORBER
100
AcDbVertex
100
AcDb3dPolylineVertex
 10
3.259740999999999
 20
-7.927869999999999
 30
15.56484
 70
    32
  0
VERTEX
  5
42C
330
42A
100
AcDbEntity
  8
EASE-$ABSORBER
100
AcDbVertex
100
AcDb3dPolylineVertex
 10
3.259740999999999
 20
-10.42787
 30
15.56484
 70
    32
  0
VERTEX
  5
42D
330
42A
100
AcDbEntity
  8
EASE-$ABSORBER
100
AcDbVertex
100
AcDb3dPolylineVertex
 10
0.009323485
 20
-10.42787
 30
14.89993
 70
    32
  0
VERTEX
  5
42E
330
42A
100
AcDbEntity
  8
EASE-$ABSORBER
100
AcDbVertex
100
AcDb3dPolylineVertex
 10
0.009323485
 20
-7.927869999999999
 30
14.89993
 70
    32
  0
SEQEND
  5
42F
330
42A
100
AcDbEntity
  8
EASE-$ABSORBER
  0
POLYLINE
  5
430
330
1E
100
AcDbEntity
  8
EASE-$ABSORBER
100
AcDb3dPolyline
 66
     1
 10
0.0
 20
0.0
 30
0.0
 70
     9
  0
VERTEX
  5
431
330
430
100
AcDbEntity
  8
EASE-$ABSORBER
100
AcDbVertex
100
AcDb3dPolylineVertex
 10
-5.271681
 20
-10.42787
 30
19.12298999999999
 70
    32
  0
VERTEX
  5
432
330
430
100
AcDbEntity
  8
EASE-$ABSORBER
100
AcDbVertex
100
AcDb3dPolylineVertex
 10
-3.260524
 20
-10.42787
 30
16.81484
 70
    32
  0
VERTEX
  5
433
330
430
100
AcDbEntity
  8
EASE-$ABSORBER
100
AcDbVertex
100
AcDb3dPolylineVertex
 10
-3.259740999999999
 20
-10.42787
 30
15.56484
 70
    32
  0
VERTEX
  5
434
330
430
100
AcDbEntity
  8
EASE-$ABSORBER
100
AcDbVertex
100
AcDb3dPolylineVertex
 10
-5.269451999999999
 20
-10.42787
 30
15.56357999999999
 70
    32
  0
SEQEND
  5
435
330
430
100
AcDbEntity
  8
EASE-$ABSORBER
  0
POLYLINE
  5
436
330
1E
100
AcDbEntity
  8
EASE-$ABSORBER
100
AcDb3dPolyline
 66
     1
 10
0.0
 20
0.0
 30
0.0
 70
     9
  0
VERTEX
  5
437
330
436
100
AcDbEntity
  8
EASE-$ABSORBER
100
AcDbVertex
100
AcDb3dPolylineVertex
 10
5.269451999999999
 20
-10.42787
 30
15.56357999999999
 70
    32
  0
VERTEX
  5
438
330
436
100
AcDbEntity
  8
EASE-$ABSORBER
100
AcDbVertex
100
AcDb3dPolylineVertex
 10
3.259740999999999
 20
-10.42787
 30
15.56484
 70
    32
  0
VERTEX
  5
439
330
436
100
AcDbEntity
  8
EASE-$ABSORBER
100
AcDbVertex
100
AcDb3dPolylineVertex
 10
3.260524
 20
-10.42787
 30
16.81484
 70
    32
  0
VERTEX
  5
43A
330
436
100
AcDbEntity
  8
EASE-$ABSORBER
100
AcDbVertex
100
AcDb3dPolylineVertex
 10
5.271681
 20
-10.42787
 30
19.12298999999999
 70
    32
  0
SEQEND
  5
43B
330
436
100
AcDbEntity
  8
EASE-$ABSORBER
  0
POLYLINE
  5
43C
330
1E
100
AcDbEntity
  8
EASE-$ABSORBER
100
AcDb3dPolyline
 66
     1
 10
0.0
 20
0.0
 30
0.0
 70
     9
  0
VERTEX
  5
43D
330
43C
100
AcDbEntity
  8
EASE-$ABSORBER
100
AcDbVertex
100
AcDb3dPolylineVertex
 10
-4.008858
 20
-10.42787
 30
14.14742999999999
 70
    32
  0
VERTEX
  5
43E
330
43C
100
AcDbEntity
  8
EASE-$ABSORBER
100
AcDbVertex
100
AcDb3dPolylineVertex
 10
-5.268567
 20
-10.42787
 30
14.14664
 70
    32
  0
VERTEX
  5
43F
330
43C
100
AcDbEntity
  8
EASE-$ABSORBER
100
AcDbVertex
100
AcDb3dPolylineVertex
 10
-5.269451999999999
 20
-10.42787
 30
15.56357999999999
 70
    32
  0
VERTEX
  5
440
330
43C
100
AcDbEntity
  8
EASE-$ABSORBER
100
AcDbVertex
100
AcDb3dPolylineVertex
 10
-3.259740999999999
 20
-10.42787
 30
15.56484
 70
    32
  0
SEQEND
  5
441
330
43C
100
AcDbEntity
  8
EASE-$ABSORBER
  0
POLYLINE
  5
442
330
1E
100
AcDbEntity
  8
EASE-$ABSORBER
100
AcDb3dPolyline
 66
     1
 10
0.0
 20
0.0
 30
0.0
 70
     9
  0
VERTEX
  5
443
330
442
100
AcDbEntity
  8
EASE-$ABSORBER
100
AcDbVertex
100
AcDb3dPolylineVertex
 10
3.259740999999999
 20
-10.42787
 30
15.56484
 70
    32
  0
VERTEX
  5
444
330
442
100
AcDbEntity
  8
EASE-$ABSORBER
100
AcDbVertex
100
AcDb3dPolylineVertex
 10
5.269451999999999
 20
-10.42787
 30
15.56357999999999
 70
    32
  0
VERTEX
  5
445
330
442
100
AcDbEntity
  8
EASE-$ABSORBER
100
AcDbVertex
100
AcDb3dPolylineVertex
 10
5.268567
 20
-10.42787
 30
14.14664
 70
    32
  0
VERTEX
  5
446
330
442
100
AcDbEntity
  8
EASE-$ABSORBER
100
AcDbVertex
100
AcDb3dPolylineVertex
 10
4.008858
 20
-10.42787
 30
14.14742999999999
 70
    32
  0
SEQEND
  5
447
330
442
100
AcDbEntity
  8
EASE-$ABSORBER
  0
POLYLINE
  5
448
330
1E
100
AcDbEntity
  8
EASE-$ABSORBER
100
AcDb3dPolyline
 66
     1
 10
0.0
 20
0.0
 30
0.0
 70
     9
  0
VERTEX
  5
449
330
448
100
AcDbEntity
  8
EASE-$ABSORBER
100
AcDbVertex
100
AcDb3dPolylineVertex
 10
-0.01196674
 20
-10.42787
 30
19.12627999999999
 70
    32
  0
VERTEX
  5
44A
330
448
100
AcDbEntity
  8
EASE-$ABSORBER
100
AcDbVertex
100
AcDb3dPolylineVertex
 10
-0.01094308
 20
-10.42787
 30
17.48381
 70
    32
  0
VERTEX
  5
44B
330
448
100
AcDbEntity
  8
EASE-$ABSORBER
100
AcDbVertex
100
AcDb3dPolylineVertex
 10
-3.260524
 20
-10.42787
 30
16.81484
 70
    32
  0
VERTEX
  5
44C
330
448
100
AcDbEntity
  8
EASE-$ABSORBER
100
AcDbVertex
100
AcDb3dPolylineVertex
 10
-5.271681
 20
-10.42787
 30
19.12298999999999
 70
    32
  0
SEQEND
  5
44D
330
448
100
AcDbEntity
  8
EASE-$ABSORBER
  0
POLYLINE
  5
44E
330
1E
100
AcDbEntity
  8
EASE-$ABSORBER
100
AcDb3dPolyline
 66
     1
 10
0.0
 20
0.0
 30
0.0
 70
     9
  0
VERTEX
  5
44F
330
44E
100
AcDbEntity
  8
EASE-$ABSORBER
100
AcDbVertex
100
AcDb3dPolylineVertex
 10
5.271681
 20
-10.42787
 30
19.12298999999999
 70
    32
  0
VERTEX
  5
450
330
44E
100
AcDbEntity
  8
EASE-$ABSORBER
100
AcDbVertex
100
AcDb3dPolylineVertex
 10
3.260524
 20
-10.42787
 30
16.81484
 70
    32
  0
VERTEX
  5
451
330
44E
100
AcDbEntity
  8
EASE-$ABSORBER
100
AcDbVertex
100
AcDb3dPolylineVertex
 10
0.01094308
 20
-10.42787
 30
17.48381
 70
    32
  0
VERTEX
  5
452
330
44E
100
AcDbEntity
  8
EASE-$ABSORBER
100
AcDbVertex
100
AcDb3dPolylineVertex
 10
0.01196674
 20
-10.42787
 30
19.12627999999999
 70
    32
  0
SEQEND
  5
453
330
44E
100
AcDbEntity
  8
EASE-$ABSORBER
  0
POLYLINE
  5
454
330
1E
100
AcDbEntity
  8
EASE-$ABSORBER
100
AcDb3dPolyline
 66
     1
 10
0.0
 20
0.0
 30
0.0
 70
     9
  0
VERTEX
  5
455
330
454
100
AcDbEntity
  8
EASE-$ABSORBER
100
AcDbVertex
100
AcDb3dPolylineVertex
 10
-4.008858
 20
-10.42787
 30
14.14742999999999
 70
    32
  0
VERTEX
  5
456
330
454
100
AcDbEntity
  8
EASE-$ABSORBER
100
AcDbVertex
100
AcDb3dPolylineVertex
 10
-3.259740999999999
 20
-10.42787
 30
15.56484
 70
    32
  0
VERTEX
  5
457
330
454
100
AcDbEntity
  8
EASE-$ABSORBER
100
AcDbVertex
100
AcDb3dPolylineVertex
 10
-0.009323485
 20
-10.42787
 30
14.89993
 70
    32
  0
VERTEX
  5
458
330
454
100
AcDbEntity
  8
EASE-$ABSORBER
100
AcDbVertex
100
AcDb3dPolylineVertex
 10
-0.008857311
 20
-10.42787
 30
14.14994
 70
    32
  0
SEQEND
  5
459
330
454
100
AcDbEntity
  8
EASE-$ABSORBER
  0
POLYLINE
  5
45A
330
1E
100
AcDbEntity
  8
EASE-$ABSORBER
100
AcDb3dPolyline
 66
     1
 10
0.0
 20
0.0
 30
0.0
 70
     9
  0
VERTEX
  5
45B
330
45A
100
AcDbEntity
  8
EASE-$ABSORBER
100
AcDbVertex
100
AcDb3dPolylineVertex
 10
0.008857311
 20
-10.42787
 30
14.14994
 70
    32
  0
VERTEX
  5
45C
330
45A
100
AcDbEntity
  8
EASE-$ABSORBER
100
AcDbVertex
100
AcDb3dPolylineVertex
 10
0.009323485
 20
-10.42787
 30
14.89993
 70
    32
  0
VERTEX
  5
45D
330
45A
100
AcDbEntity
  8
EASE-$ABSORBER
100
AcDbVertex
100
AcDb3dPolylineVertex
 10
3.259740999999999
 20
-10.42787
 30
15.56484
 70
    32
  0
VERTEX
  5
45E
330
45A
100
AcDbEntity
  8
EASE-$ABSORBER
100
AcDbVertex
100
AcDb3dPolylineVertex
 10
4.008858
 20
-10.42787
 30
14.14742999999999
 70
    32
  0
SEQEND
  5
45F
330
45A
100
AcDbEntity
  8
EASE-$ABSORBER
  0
POLYLINE
  5
460
330
1E
100
AcDbEntity
  8
EASE-$ABSORBER
100
AcDb3dPolyline
 66
     1
 10
0.0
 20
0.0
 30
0.0
 70
     9
  0
VERTEX
  5
461
330
460
100
AcDbEntity
  8
EASE-$ABSORBER
100
AcDbVertex
100
AcDb3dPolylineVertex
 10
-5.271681
 20
-10.42787
 30
19.12298999999999
 70
    32
  0
VERTEX
  5
462
330
460
100
AcDbEntity
  8
EASE-$ABSORBER
100
AcDbVertex
100
AcDb3dPolylineVertex
 10
-5.271681
 20
-10.49403
 30
19.12298999999999
 70
    32
  0
VERTEX
  5
463
330
460
100
AcDbEntity
  8
EASE-$ABSORBER
100
AcDbVertex
100
AcDb3dPolylineVertex
 10
-2.511967999999999
 20
-10.78262
 30
19.12471
 70
    32
  0
VERTEX
  5
464
330
460
100
AcDbEntity
  8
EASE-$ABSORBER
100
AcDbVertex
100
AcDb3dPolylineVertex
 10
-2.511967999999999
 20
-10.42787
 30
19.12471
 70
    32
  0
SEQEND
  5
465
330
460
100
AcDbEntity
  8
EASE-$ABSORBER
  0
POLYLINE
  5
466
330
1E
100
AcDbEntity
  8
EASE-$ABSORBER
100
AcDb3dPolyline
 66
     1
 10
0.0
 20
0.0
 30
0.0
 70
     9
  0
VERTEX
  5
467
330
466
100
AcDbEntity
  8
EASE-$ABSORBER
100
AcDbVertex
100
AcDb3dPolylineVertex
 10
2.511967999999999
 20
-10.42787
 30
19.12471
 70
    32
  0
VERTEX
  5
468
330
466
100
AcDbEntity
  8
EASE-$ABSORBER
100
AcDbVertex
100
AcDb3dPolylineVertex
 10
2.511967999999999
 20
-10.78262
 30
19.12471
 70
    32
  0
VERTEX
  5
469
330
466
100
AcDbEntity
  8
EASE-$ABSORBER
100
AcDbVertex
100
AcDb3dPolylineVertex
 10
5.271681
 20
-10.49403
 30
19.12298999999999
 70
    32
  0
VERTEX
  5
46A
330
466
100
AcDbEntity
  8
EASE-$ABSORBER
100
AcDbVertex
100
AcDb3dPolylineVertex
 10
5.271681
 20
-10.42787
 30
19.12298999999999
 70
    32
  0
SEQEND
  5
46B
330
466
100
AcDbEntity
  8
EASE-$ABSORBER
  0
POLYLINE
  5
46C
330
1E
100
AcDbEntity
  8
EASE-$ABSORBER
100
AcDb3dPolyline
 66
     1
 10
0.0
 20
0.0
 30
0.0
 70
     9
  0
VERTEX
  5
46D
330
46C
100
AcDbEntity
  8
EASE-$ABSORBER
100
AcDbVertex
100
AcDb3dPolylineVertex
 10
-5.41088
 20
-10.47951
 30
19.6229
 70
    32
  0
VERTEX
  5
46E
330
46C
100
AcDbEntity
  8
EASE-$ABSORBER
100
AcDbVertex
100
AcDb3dPolylineVertex
 10
-2.51229
 20
-10.78262
 30
19.63849
 70
    32
  0
VERTEX
  5
46F
330
46C
100
AcDbEntity
  8
EASE-$ABSORBER
100
AcDbVertex
100
AcDb3dPolylineVertex
 10
-2.511967999999999
 20
-10.78262
 30
19.12471
 70
    32
  0
VERTEX
  5
470
330
46C
100
AcDbEntity
  8
EASE-$ABSORBER
100
AcDbVertex
100
AcDb3dPolylineVertex
 10
-5.271681
 20
-10.49403
 30
19.12298999999999
 70
    32
  0
SEQEND
  5
471
330
46C
100
AcDbEntity
  8
EASE-$ABSORBER
  0
POLYLINE
  5
472
330
1E
100
AcDbEntity
  8
EASE-$ABSORBER
100
AcDb3dPolyline
 66
     1
 10
0.0
 20
0.0
 30
0.0
 70
     9
  0
VERTEX
  5
473
330
472
100
AcDbEntity
  8
EASE-$ABSORBER
100
AcDbVertex
100
AcDb3dPolylineVertex
 10
5.271681
 20
-10.49403
 30
19.12298999999999
 70
    32
  0
VERTEX
  5
474
330
472
100
AcDbEntity
  8
EASE-$ABSORBER
100
AcDbVertex
100
AcDb3dPolylineVertex
 10
2.511967999999999
 20
-10.78262
 30
19.12471
 70
    32
  0
VERTEX
  5
475
330
472
100
AcDbEntity
  8
EASE-$ABSORBER
100
AcDbVertex
100
AcDb3dPolylineVertex
 10
2.51229
 20
-10.78262
 30
19.63849
 70
    32
  0
VERTEX
  5
476
330
472
100
AcDbEntity
  8
EASE-$ABSORBER
100
AcDbVertex
100
AcDb3dPolylineVertex
 10
5.41088
 20
-10.47951
 30
19.6229
 70
    32
  0
SEQEND
  5
477
330
472
100
AcDbEntity
  8
EASE-$ABSORBER
  0
POLYLINE
  5
478
330
1E
100
AcDbEntity
  8
EASE-$ABSORBER
100
AcDb3dPolyline
 66
     1
 10
0.0
 20
0.0
 30
0.0
 70
     9
  0
VERTEX
  5
479
330
478
100
AcDbEntity
  8
EASE-$ABSORBER
100
AcDbVertex
100
AcDb3dPolylineVertex
 10
-4.006041999999999
 20
-10.42787
 30
9.647428999999998
 70
    32
  0
VERTEX
  5
47A
330
478
100
AcDbEntity
  8
EASE-$ABSORBER
100
AcDbVertex
100
AcDb3dPolylineVertex
 10
-5.265750999999999
 20
-10.42787
 30
9.646641
 70
    32
  0
VERTEX
  5
47B
330
478
100
AcDbEntity
  8
EASE-$ABSORBER
100
AcDbVertex
100
AcDb3dPolylineVertex
 10
-5.268567
 20
-10.42787
 30
14.14664
 70
    32
  0
VERTEX
  5
47C
330
478
100
AcDbEntity
  8
EASE-$ABSORBER
100
AcDbVertex
100
AcDb3dPolylineVertex
 10
-4.008858
 20
-10.42787
 30
14.14742999999999
 70
    32
  0
SEQEND
  5
47D
330
478
100
AcDbEntity
  8
EASE-$ABSORBER
  0
POLYLINE
  5
47E
330
1E
100
AcDbEntity
  8
EASE-$ABSORBER
100
AcDb3dPolyline
 66
     1
 10
0.0
 20
0.0
 30
0.0
 70
     9
  0
VERTEX
  5
47F
330
47E
100
AcDbEntity
  8
EASE-$ABSORBER
100
AcDbVertex
100
AcDb3dPolylineVertex
 10
4.008858
 20
-10.42787
 30
14.14742999999999
 70
    32
  0
VERTEX
  5
480
330
47E
100
AcDbEntity
  8
EASE-$ABSORBER
100
AcDbVertex
100
AcDb3dPolylineVertex
 10
5.268567
 20
-10.42787
 30
14.14664
 70
    32
  0
VERTEX
  5
481
330
47E
100
AcDbEntity
  8
EASE-$ABSORBER
100
AcDbVertex
100
AcDb3dPolylineVertex
 10
5.265750999999999
 20
-10.42787
 30
9.646641
 70
    32
  0
VERTEX
  5
482
330
47E
100
AcDbEntity
  8
EASE-$ABSORBER
100
AcDbVertex
100
AcDb3dPolylineVertex
 10
4.006041999999999
 20
-10.42787
 30
9.647428999999998
 70
    32
  0
SEQEND
  5
483
330
47E
100
AcDbEntity
  8
EASE-$ABSORBER
  0
POLYLINE
  5
484
330
1E
100
AcDbEntity
  8
EASE-$ABSORBER
100
AcDb3dPolyline
 66
     1
 10
0.0
 20
0.0
 30
0.0
 70
     9
  0
VERTEX
  5
485
330
484
100
AcDbEntity
  8
EASE-$ABSORBER
100
AcDbVertex
100
AcDb3dPolylineVertex
 10
-5.41088
 20
-10.47951
 30
19.6229
 70
    32
  0
VERTEX
  5
486
330
484
100
AcDbEntity
  8
EASE-$ABSORBER
100
AcDbVertex
100
AcDb3dPolylineVertex
 10
-5.271681
 20
-10.49403
 30
19.12298999999999
 70
    32
  0
VERTEX
  5
487
330
484
100
AcDbEntity
  8
EASE-$ABSORBER
100
AcDbVertex
100
AcDb3dPolylineVertex
 10
-5.771776
 20
-10.44175
 30
19.27061
 70
    32
  0
SEQEND
  5
488
330
484
100
AcDbEntity
  8
EASE-$ABSORBER
  0
POLYLINE
  5
489
330
1E
100
AcDbEntity
  8
EASE-$ABSORBER
100
AcDb3dPolyline
 66
     1
 10
0.0
 20
0.0
 30
0.0
 70
     9
  0
VERTEX
  5
48A
330
489
100
AcDbEntity
  8
EASE-$ABSORBER
100
AcDbVertex
100
AcDb3dPolylineVertex
 10
5.771776
 20
-10.44175
 30
19.27061
 70
    32
  0
VERTEX
  5
48B
330
489
100
AcDbEntity
  8
EASE-$ABSORBER
100
AcDbVertex
100
AcDb3dPolylineVertex
 10
5.271681
 20
-10.49403
 30
19.12298999999999
 70
    32
  0
VERTEX
  5
48C
330
489
100
AcDbEntity
  8
EASE-$ABSORBER
100
AcDbVertex
100
AcDb3dPolylineVertex
 10
5.41088
 20
-10.47951
 30
19.6229
 70
    32
  0
SEQEND
  5
48D
330
489
100
AcDbEntity
  8
EASE-$ABSORBER
  0
POLYLINE
  5
48E
330
1E
100
AcDbEntity
  8
EASE-$ABSORBER
100
AcDb3dPolyline
 66
     1
 10
0.0
 20
0.0
 30
0.0
 70
     9
  0
VERTEX
  5
48F
330
48E
100
AcDbEntity
  8
EASE-$ABSORBER
100
AcDbVertex
100
AcDb3dPolylineVertex
 10
3.993959999999999
 20
-10.42787
 30
9.652435999999999
 70
    32
  0
VERTEX
  5
490
330
48E
100
AcDbEntity
  8
EASE-$ABSORBER
100
AcDbVertex
100
AcDb3dPolylineVertex
 10
5.253673
 20
-10.42787
 30
9.653225
 70
    32
  0
VERTEX
  5
491
330
48E
100
AcDbEntity
  8
EASE-$ABSORBER
100
AcDbVertex
100
AcDb3dPolylineVertex
 10
5.254769
 20
-10.42787
 30
7.903221
 70
    32
  0
VERTEX
  5
492
330
48E
100
AcDbEntity
  8
EASE-$ABSORBER
100
AcDbVertex
100
AcDb3dPolylineVertex
 10
3.990480999999999
 20
-10.42787
 30
7.902433
 70
    32
  0
SEQEND
  5
493
330
48E
100
AcDbEntity
  8
EASE-$ABSORBER
  0
POLYLINE
  5
494
330
1E
100
AcDbEntity
  8
EASE-$ABSORBER
100
AcDb3dPolyline
 66
     1
 10
0.0
 20
0.0
 30
0.0
 70
     9
  0
VERTEX
  5
495
330
494
100
AcDbEntity
  8
EASE-$ABSORBER
100
AcDbVertex
100
AcDb3dPolylineVertex
 10
-3.990480999999999
 20
-10.42787
 30
7.902433
 70
    32
  0
VERTEX
  5
496
330
494
100
AcDbEntity
  8
EASE-$ABSORBER
100
AcDbVertex
100
AcDb3dPolylineVertex
 10
-5.254769
 20
-10.42787
 30
7.903221
 70
    32
  0
VERTEX
  5
497
330
494
100
AcDbEntity
  8
EASE-$ABSORBER
100
AcDbVertex
100
AcDb3dPolylineVertex
 10
-5.253673
 20
-10.42787
 30
9.653225
 70
    32
  0
VERTEX
  5
498
330
494
100
AcDbEntity
  8
EASE-$ABSORBER
100
AcDbVertex
100
AcDb3dPolylineVertex
 10
-3.993959999999999
 20
-10.42787
 30
9.652435999999999
 70
    32
  0
SEQEND
  5
499
330
494
100
AcDbEntity
  8
EASE-$ABSORBER
  0
POLYLINE
  5
49A
330
1E
100
AcDbEntity
  8
EASE-$ABSORBER
100
AcDb3dPolyline
 66
     1
 10
0.0
 20
0.0
 30
0.0
 70
     9
  0
VERTEX
  5
49B
330
49A
100
AcDbEntity
  8
EASE-$ABSORBER
100
AcDbVertex
100
AcDb3dPolylineVertex
 10
5.247742999999999
 20
-10.42787
 30
19.12957
 70
    32
  0
VERTEX
  5
49C
330
49A
100
AcDbEntity
  8
EASE-$ABSORBER
100
AcDbVertex
100
AcDb3dPolylineVertex
 10
5.247742999999999
 20
-10.49403
 30
19.12957
 70
    32
  0
VERTEX
  5
49D
330
49A
100
AcDbEntity
  8
EASE-$ABSORBER
100
AcDbVertex
100
AcDb3dPolylineVertex
 10
5.259930999999999
 20
-10.49403
 30
-0.3467808
 70
    32
  0
VERTEX
  5
49E
330
49A
100
AcDbEntity
  8
EASE-$ABSORBER
100
AcDbVertex
100
AcDb3dPolylineVertex
 10
5.259930999999999
 20
-10.42787
 30
-0.3467808
 70
    32
  0
SEQEND
  5
49F
330
49A
100
AcDbEntity
  8
EASE-$ABSORBER
  0
POLYLINE
  5
4A0
330
1E
100
AcDbEntity
  8
EASE-$ABSORBER
100
AcDb3dPolyline
 66
     1
 10
0.0
 20
0.0
 30
0.0
 70
     9
  0
VERTEX
  5
4A1
330
4A0
100
AcDbEntity
  8
EASE-$ABSORBER
100
AcDbVertex
100
AcDb3dPolylineVertex
 10
-5.259930999999999
 20
-10.42787
 30
-0.3467808
 70
    32
  0
VERTEX
  5
4A2
330
4A0
100
AcDbEntity
  8
EASE-$ABSORBER
100
AcDbVertex
100
AcDb3dPolylineVertex
 10
-5.259930999999999
 20
-10.49403
 30
-0.3467808
 70
    32
  0
VERTEX
  5
4A3
330
4A0
100
AcDbEntity
  8
EASE-$ABSORBER
100
AcDbVertex
100
AcDb3dPolylineVertex
 10
-5.247742999999999
 20
-10.49403
 30
19.12957
 70
    32
  0
VERTEX
  5
4A4
330
4A0
100
AcDbEntity
  8
EASE-$ABSORBER
100
AcDbVertex
100
AcDb3dPolylineVertex
 10
-5.247742999999999
 20
-10.42787
 30
19.12957
 70
    32
  0
SEQEND
  5
4A5
330
4A0
100
AcDbEntity
  8
EASE-$ABSORBER
  0
POLYLINE
  5
4A6
330
1E
100
AcDbEntity
  8
EASE-$ABSORBER
100
AcDb3dPolyline
 66
     1
 10
0.0
 20
0.0
 30
0.0
 70
     9
  0
VERTEX
  5
4A7
330
4A6
100
AcDbEntity
  8
EASE-$ABSORBER
100
AcDbVertex
100
AcDb3dPolylineVertex
 10
5.760011
 20
-10.44175
 30
-0.4707399000000001
 70
    32
  0
VERTEX
  5
4A8
330
4A6
100
AcDbEntity
  8
EASE-$ABSORBER
100
AcDbVertex
100
AcDb3dPolylineVertex
 10
5.259930999999999
 20
-10.49403
 30
-0.3467808
 70
    32
  0
VERTEX
  5
4A9
330
4A6
100
AcDbEntity
  8
EASE-$ABSORBER
100
AcDbVertex
100
AcDb3dPolylineVertex
 10
5.247742999999999
 20
-10.49403
 30
19.12957
 70
    32
  0
VERTEX
  5
4AA
330
4A6
100
AcDbEntity
  8
EASE-$ABSORBER
100
AcDbVertex
100
AcDb3dPolylineVertex
 10
5.74765
 20
-10.44175
 30
19.27781
 70
    32
  0
SEQEND
  5
4AB
330
4A6
100
AcDbEntity
  8
EASE-$ABSORBER
  0
POLYLINE
  5
4AC
330
1E
100
AcDbEntity
  8
EASE-$ABSORBER
100
AcDb3dPolyline
 66
     1
 10
0.0
 20
0.0
 30
0.0
 70
     9
  0
VERTEX
  5
4AD
330
4AC
100
AcDbEntity
  8
EASE-$ABSORBER
100
AcDbVertex
100
AcDb3dPolylineVertex
 10
-5.74765
 20
-10.44175
 30
19.27781
 70
    32
  0
VERTEX
  5
4AE
330
4AC
100
AcDbEntity
  8
EASE-$ABSORBER
100
AcDbVertex
100
AcDb3dPolylineVertex
 10
-5.247742999999999
 20
-10.49403
 30
19.12957
 70
    32
  0
VERTEX
  5
4AF
330
4AC
100
AcDbEntity
  8
EASE-$ABSORBER
100
AcDbVertex
100
AcDb3dPolylineVertex
 10
-5.259930999999999
 20
-10.49403
 30
-0.3467808
 70
    32
  0
VERTEX
  5
4B0
330
4AC
100
AcDbEntity
  8
EASE-$ABSORBER
100
AcDbVertex
100
AcDb3dPolylineVertex
 10
-5.760011
 20
-10.44175
 30
-0.4707399000000001
 70
    32
  0
SEQEND
  5
4B1
330
4AC
100
AcDbEntity
  8
EASE-$ABSORBER
  0
POLYLINE
  5
4B2
330
1E
100
AcDbEntity
  8
EASE-$ABSORBER
100
AcDb3dPolyline
 66
     1
 10
0.0
 20
0.0
 30
0.0
 70
     9
  0
VERTEX
  5
4B3
330
4B2
100
AcDbEntity
  8
EASE-$ABSORBER
100
AcDbVertex
100
AcDb3dPolylineVertex
 10
0.9970795
 20
-8.427868999999999
 30
4.668505
 70
    32
  0
VERTEX
  5
4B4
330
4B2
100
AcDbEntity
  8
EASE-$ABSORBER
100
AcDbVertex
100
AcDb3dPolylineVertex
 10
3.496662999999999
 20
-10.42787
 30
5.339944999999999
 70
    32
  0
VERTEX
  5
4B5
330
4B2
100
AcDbEntity
  8
EASE-$ABSORBER
100
AcDbVertex
100
AcDb3dPolylineVertex
 10
3.497834999999999
 20
-10.42787
 30
3.4643
 70
    32
  0
VERTEX
  5
4B6
330
4B2
100
AcDbEntity
  8
EASE-$ABSORBER
100
AcDbVertex
100
AcDb3dPolylineVertex
 10
0.9974159999999999
 20
-8.427868999999999
 30
4.132606
 70
    32
  0
SEQEND
  5
4B7
330
4B2
100
AcDbEntity
  8
EASE-$ABSORBER
  0
POLYLINE
  5
4B8
330
1E
100
AcDbEntity
  8
EASE-$ABSORBER
100
AcDb3dPolyline
 66
     1
 10
0.0
 20
0.0
 30
0.0
 70
     9
  0
VERTEX
  5
4B9
330
4B8
100
AcDbEntity
  8
EASE-$ABSORBER
100
AcDbVertex
100
AcDb3dPolylineVertex
 10
-0.9974159999999999
 20
-8.427868999999999
 30
4.132606
 70
    32
  0
VERTEX
  5
4BA
330
4B8
100
AcDbEntity
  8
EASE-$ABSORBER
100
AcDbVertex
100
AcDb3dPolylineVertex
 10
-3.497834999999999
 20
-10.42787
 30
3.4643
 70
    32
  0
VERTEX
  5
4BB
330
4B8
100
AcDbEntity
  8
EASE-$ABSORBER
100
AcDbVertex
100
AcDb3dPolylineVertex
 10
-3.496662999999999
 20
-10.42787
 30
5.339944999999999
 70
    32
  0
VERTEX
  5
4BC
330
4B8
100
AcDbEntity
  8
EASE-$ABSORBER
100
AcDbVertex
100
AcDb3dPolylineVertex
 10
-0.9970795
 20
-8.427868999999999
 30
4.668505
 70
    32
  0
SEQEND
  5
4BD
330
4B8
100
AcDbEntity
  8
EASE-$ABSORBER
  0
POLYLINE
  5
4BE
330
1E
100
AcDbEntity
  8
EASE-$ABSORBER
100
AcDb3dPolyline
 66
     1
 10
0.0
 20
0.0
 30
0.0
 70
     9
  0
VERTEX
  5
4BF
330
4BE
100
AcDbEntity
  8
EASE-$ABSORBER
100
AcDbVertex
100
AcDb3dPolylineVertex
 10
0.7288419
 20
-8.427868999999999
 30
5.132439999999999
 70
    32
  0
VERTEX
  5
4C0
330
4BE
100
AcDbEntity
  8
EASE-$ABSORBER
100
AcDbVertex
100
AcDb3dPolylineVertex
 10
2.557821
 20
-10.42787
 30
6.963710999999999
 70
    32
  0
VERTEX
  5
4C1
330
4BE
100
AcDbEntity
  8
EASE-$ABSORBER
100
AcDbVertex
100
AcDb3dPolylineVertex
 10
3.496662999999999
 20
-10.42787
 30
5.339944999999999
 70
    32
  0
VERTEX
  5
4C2
330
4BE
100
AcDbEntity
  8
EASE-$ABSORBER
100
AcDbVertex
100
AcDb3dPolylineVertex
 10
0.9970795
 20
-8.427868999999999
 30
4.668505
 70
    32
  0
SEQEND
  5
4C3
330
4BE
100
AcDbEntity
  8
EASE-$ABSORBER
  0
POLYLINE
  5
4C4
330
1E
100
AcDbEntity
  8
EASE-$ABSORBER
100
AcDb3dPolyline
 66
     1
 10
0.0
 20
0.0
 30
0.0
 70
     9
  0
VERTEX
  5
4C5
330
4C4
100
AcDbEntity
  8
EASE-$ABSORBER
100
AcDbVertex
100
AcDb3dPolylineVertex
 10
-0.9970795
 20
-8.427868999999999
 30
4.668505
 70
    32
  0
VERTEX
  5
4C6
330
4C4
100
AcDbEntity
  8
EASE-$ABSORBER
100
AcDbVertex
100
AcDb3dPolylineVertex
 10
-3.496662999999999
 20
-10.42787
 30
5.339944999999999
 70
    32
  0
VERTEX
  5
4C7
330
4C4
100
AcDbEntity
  8
EASE-$ABSORBER
100
AcDbVertex
100
AcDb3dPolylineVertex
 10
-2.557821
 20
-10.42787
 30
6.963710999999999
 70
    32
  0
VERTEX
  5
4C8
330
4C4
100
AcDbEntity
  8
EASE-$ABSORBER
100
AcDbVertex
100
AcDb3dPolylineVertex
 10
-0.7288419
 20
-8.427868999999999
 30
5.132439999999999
 70
    32
  0
SEQEND
  5
4C9
330
4C4
100
AcDbEntity
  8
EASE-$ABSORBER
  0
POLYLINE
  5
4CA
330
1E
100
AcDbEntity
  8
EASE-$ABSORBER
100
AcDb3dPolyline
 66
     1
 10
0.0
 20
0.0
 30
0.0
 70
     9
  0
VERTEX
  5
4CB
330
4CA
100
AcDbEntity
  8
EASE-$ABSORBER
100
AcDbVertex
100
AcDb3dPolylineVertex
 10
0.2645707000000001
 20
-8.427868999999999
 30
5.4001
 70
    32
  0
VERTEX
  5
4CC
330
4CA
100
AcDbEntity
  8
EASE-$ABSORBER
100
AcDbVertex
100
AcDb3dPolylineVertex
 10
0.9328771999999998
 20
-10.42787
 30
7.900519999999999
 70
    32
  0
VERTEX
  5
4CD
330
4CA
100
AcDbEntity
  8
EASE-$ABSORBER
100
AcDbVertex
100
AcDb3dPolylineVertex
 10
2.557821
 20
-10.42787
 30
6.963710999999999
 70
    32
  0
VERTEX
  5
4CE
330
4CA
100
AcDbEntity
  8
EASE-$ABSORBER
100
AcDbVertex
100
AcDb3dPolylineVertex
 10
0.7288419
 20
-8.427868999999999
 30
5.132439999999999
 70
    32
  0
SEQEND
  5
4CF
330
4CA
100
AcDbEntity
  8
EASE-$ABSORBER
  0
POLYLINE
  5
4D0
330
1E
100
AcDbEntity
  8
EASE-$ABSORBER
100
AcDb3dPolyline
 66
     1
 10
0.0
 20
0.0
 30
0.0
 70
     9
  0
VERTEX
  5
4D1
330
4D0
100
AcDbEntity
  8
EASE-$ABSORBER
100
AcDbVertex
100
AcDb3dPolylineVertex
 10
-0.7288419
 20
-8.427868999999999
 30
5.132439999999999
 70
    32
  0
VERTEX
  5
4D2
330
4D0
100
AcDbEntity
  8
EASE-$ABSORBER
100
AcDbVertex
100
AcDb3dPolylineVertex
 10
-2.557821
 20
-10.42787
 30
6.963710999999999
 70
    32
  0
VERTEX
  5
4D3
330
4D0
100
AcDbEntity
  8
EASE-$ABSORBER
100
AcDbVertex
100
AcDb3dPolylineVertex
 10
-0.9328771999999998
 20
-10.42787
 30
7.900519999999999
 70
    32
  0
VERTEX
  5
4D4
330
4D0
100
AcDbEntity
  8
EASE-$ABSORBER
100
AcDbVertex
100
AcDb3dPolylineVertex
 10
-0.2645707000000001
 20
-8.427868999999999
 30
5.4001
 70
    32
  0
SEQEND
  5
4D5
330
4D0
100
AcDbEntity
  8
EASE-$ABSORBER
  0
POLYLINE
  5
4D6
330
1E
100
AcDbEntity
  8
EASE-$ABSORBER
100
AcDb3dPolyline
 66
     1
 10
0.0
 20
0.0
 30
0.0
 70
     9
  0
VERTEX
  5
4D7
330
4D6
100
AcDbEntity
  8
EASE-$ABSORBER
100
AcDbVertex
100
AcDb3dPolylineVertex
 10
0.2658203
 20
-8.427868999999999
 30
3.400097
 70
    32
  0
VERTEX
  5
4D8
330
4D6
100
AcDbEntity
  8
EASE-$ABSORBER
100
AcDbVertex
100
AcDb3dPolylineVertex
 10
0.7297550000000001
 20
-8.427868999999999
 30
3.66834
 70
    32
  0
VERTEX
  5
4D9
330
4D6
100
AcDbEntity
  8
EASE-$ABSORBER
100
AcDbVertex
100
AcDb3dPolylineVertex
 10
2.561027
 20
-10.42787
 30
1.839354999999999
 70
    32
  0
VERTEX
  5
4DA
330
4D6
100
AcDbEntity
  8
EASE-$ABSORBER
100
AcDbVertex
100
AcDb3dPolylineVertex
 10
0.9372601999999998
 20
-10.42787
 30
0.9005141
 70
    32
  0
SEQEND
  5
4DB
330
4D6
100
AcDbEntity
  8
EASE-$ABSORBER
  0
POLYLINE
  5
4DC
330
1E
100
AcDbEntity
  8
EASE-$ABSORBER
100
AcDb3dPolyline
 66
     1
 10
0.0
 20
0.0
 30
0.0
 70
     9
  0
VERTEX
  5
4DD
330
4DC
100
AcDbEntity
  8
EASE-$ABSORBER
100
AcDbVertex
100
AcDb3dPolylineVertex
 10
-0.9372601999999998
 20
-10.42787
 30
0.9005141
 70
    32
  0
VERTEX
  5
4DE
330
4DC
100
AcDbEntity
  8
EASE-$ABSORBER
100
AcDbVertex
100
AcDb3dPolylineVertex
 10
-2.561027
 20
-10.42787
 30
1.839354999999999
 70
    32
  0
VERTEX
  5
4DF
330
4DC
100
AcDbEntity
  8
EASE-$ABSORBER
100
AcDbVertex
100
AcDb3dPolylineVertex
 10
-0.7297550000000001
 20
-8.427868999999999
 30
3.66834
 70
    32
  0
VERTEX
  5
4E0
330
4DC
100
AcDbEntity
  8
EASE-$ABSORBER
100
AcDbVertex
100
AcDb3dPolylineVertex
 10
-0.2658203
 20
-8.427868999999999
 30
3.400097
 70
    32
  0
SEQEND
  5
4E1
330
4DC
100
AcDbEntity
  8
EASE-$ABSORBER
  0
POLYLINE
  5
4E2
330
1E
100
AcDbEntity
  8
EASE-$ABSORBER
100
AcDb3dPolyline
 66
     1
 10
0.0
 20
0.0
 30
0.0
 70
     9
  0
VERTEX
  5
4E3
330
4E2
100
AcDbEntity
  8
EASE-$ABSORBER
100
AcDbVertex
100
AcDb3dPolylineVertex
 10
0.7297550000000001
 20
-8.427868999999999
 30
3.66834
 70
    32
  0
VERTEX
  5
4E4
330
4E2
100
AcDbEntity
  8
EASE-$ABSORBER
100
AcDbVertex
100
AcDb3dPolylineVertex
 10
0.9974159999999999
 20
-8.427868999999999
 30
4.132606
 70
    32
  0
VERTEX
  5
4E5
330
4E2
100
AcDbEntity
  8
EASE-$ABSORBER
100
AcDbVertex
100
AcDb3dPolylineVertex
 10
3.497834999999999
 20
-10.42787
 30
3.4643
 70
    32
  0
VERTEX
  5
4E6
330
4E2
100
AcDbEntity
  8
EASE-$ABSORBER
100
AcDbVertex
100
AcDb3dPolylineVertex
 10
2.561027
 20
-10.42787
 30
1.839354999999999
 70
    32
  0
SEQEND
  5
4E7
330
4E2
100
AcDbEntity
  8
EASE-$ABSORBER
  0
POLYLINE
  5
4E8
330
1E
100
AcDbEntity
  8
EASE-$ABSORBER
100
AcDb3dPolyline
 66
     1
 10
0.0
 20
0.0
 30
0.0
 70
     9
  0
VERTEX
  5
4E9
330
4E8
100
AcDbEntity
  8
EASE-$ABSORBER
100
AcDbVertex
100
AcDb3dPolylineVertex
 10
-2.561027
 20
-10.42787
 30
1.839354999999999
 70
    32
  0
VERTEX
  5
4EA
330
4E8
100
AcDbEntity
  8
EASE-$ABSORBER
100
AcDbVertex
100
AcDb3dPolylineVertex
 10
-3.497834999999999
 20
-10.42787
 30
3.4643
 70
    32
  0
VERTEX
  5
4EB
330
4E8
100
AcDbEntity
  8
EASE-$ABSORBER
100
AcDbVertex
100
AcDb3dPolylineVertex
 10
-0.9974159999999999
 20
-8.427868999999999
 30
4.132606
 70
    32
  0
VERTEX
  5
4EC
330
4E8
100
AcDbEntity
  8
EASE-$ABSORBER
100
AcDbVertex
100
AcDb3dPolylineVertex
 10
-0.7297550000000001
 20
-8.427868999999999
 30
3.66834
 70
    32
  0
SEQEND
  5
4ED
330
4E8
100
AcDbEntity
  8
EASE-$ABSORBER
  0
POLYLINE
  5
4EE
330
1E
100
AcDbEntity
  8
EASE-$ABSORBER
100
AcDb3dPolyline
 66
     1
 10
0.0
 20
0.0
 30
0.0
 70
     9
  0
VERTEX
  5
4EF
330
4EE
100
AcDbEntity
  8
EASE-$ABSORBER
100
AcDbVertex
100
AcDb3dPolylineVertex
 10
5.255355999999999
 20
-10.42787
 30
6.965403
 70
    32
  0
VERTEX
  5
4F0
330
4EE
100
AcDbEntity
  8
EASE-$ABSORBER
100
AcDbVertex
100
AcDb3dPolylineVertex
 10
2.557821
 20
-10.42787
 30
6.963710999999999
 70
    32
  0
VERTEX
  5
4F1
330
4EE
100
AcDbEntity
  8
EASE-$ABSORBER
100
AcDbVertex
100
AcDb3dPolylineVertex
 10
0.9328771999999998
 20
-10.42787
 30
7.900519999999999
 70
    32
  0
VERTEX
  5
4F2
330
4EE
100
AcDbEntity
  8
EASE-$ABSORBER
100
AcDbVertex
100
AcDb3dPolylineVertex
 10
5.254769
 20
-10.42787
 30
7.903221
 70
    32
  0
SEQEND
  5
4F3
330
4EE
100
AcDbEntity
  8
EASE-$ABSORBER
  0
POLYLINE
  5
4F4
330
1E
100
AcDbEntity
  8
EASE-$ABSORBER
100
AcDb3dPolyline
 66
     1
 10
0.0
 20
0.0
 30
0.0
 70
     9
  0
VERTEX
  5
4F5
330
4F4
100
AcDbEntity
  8
EASE-$ABSORBER
100
AcDbVertex
100
AcDb3dPolylineVertex
 10
-5.254769
 20
-10.42787
 30
7.903221
 70
    32
  0
VERTEX
  5
4F6
330
4F4
100
AcDbEntity
  8
EASE-$ABSORBER
100
AcDbVertex
100
AcDb3dPolylineVertex
 10
-0.9328771999999998
 20
-10.42787
 30
7.900519999999999
 70
    32
  0
VERTEX
  5
4F7
330
4F4
100
AcDbEntity
  8
EASE-$ABSORBER
100
AcDbVertex
100
AcDb3dPolylineVertex
 10
-2.557821
 20
-10.42787
 30
6.963710999999999
 70
    32
  0
VERTEX
  5
4F8
330
4F4
100
AcDbEntity
  8
EASE-$ABSORBER
100
AcDbVertex
100
AcDb3dPolylineVertex
 10
-5.255355999999999
 20
-10.42787
 30
6.965403
 70
    32
  0
SEQEND
  5
4F9
330
4F4
100
AcDbEntity
  8
EASE-$ABSORBER
  0
POLYLINE
  5
4FA
330
1E
100
AcDbEntity
  8
EASE-$ABSORBER
100
AcDb3dPolyline
 66
     1
 10
0.0
 20
0.0
 30
0.0
 70
     9
  0
VERTEX
  5
4FB
330
4FA
100
AcDbEntity
  8
EASE-$ABSORBER
100
AcDbVertex
100
AcDb3dPolylineVertex
 10
5.256369999999999
 20
-10.42787
 30
5.341044999999999
 70
    32
  0
VERTEX
  5
4FC
330
4FA
100
AcDbEntity
  8
EASE-$ABSORBER
100
AcDbVertex
100
AcDb3dPolylineVertex
 10
3.496662999999999
 20
-10.42787
 30
5.339944999999999
 70
    32
  0
VERTEX
  5
4FD
330
4FA
100
AcDbEntity
  8
EASE-$ABSORBER
100
AcDbVertex
100
AcDb3dPolylineVertex
 10
2.557821
 20
-10.42787
 30
6.963710999999999
 70
    32
  0
VERTEX
  5
4FE
330
4FA
100
AcDbEntity
  8
EASE-$ABSORBER
100
AcDbVertex
100
AcDb3dPolylineVertex
 10
5.255355999999999
 20
-10.42787
 30
6.965403
 70
    32
  0
SEQEND
  5
4FF
330
4FA
100
AcDbEntity
  8
EASE-$ABSORBER
  0
POLYLINE
  5
500
330
1E
100
AcDbEntity
  8
EASE-$ABSORBER
100
AcDb3dPolyline
 66
     1
 10
0.0
 20
0.0
 30
0.0
 70
     9
  0
VERTEX
  5
501
330
500
100
AcDbEntity
  8
EASE-$ABSORBER
100
AcDbVertex
100
AcDb3dPolylineVertex
 10
-5.255355999999999
 20
-10.42787
 30
6.965403
 70
    32
  0
VERTEX
  5
502
330
500
100
AcDbEntity
  8
EASE-$ABSORBER
100
AcDbVertex
100
AcDb3dPolylineVertex
 10
-2.557821
 20
-10.42787
 30
6.963710999999999
 70
    32
  0
VERTEX
  5
503
330
500
100
AcDbEntity
  8
EASE-$ABSORBER
100
AcDbVertex
100
AcDb3dPolylineVertex
 10
-3.496662999999999
 20
-10.42787
 30
5.339944999999999
 70
    32
  0
VERTEX
  5
504
330
500
100
AcDbEntity
  8
EASE-$ABSORBER
100
AcDbVertex
100
AcDb3dPolylineVertex
 10
-5.256369999999999
 20
-10.42787
 30
5.341044999999999
 70
    32
  0
SEQEND
  5
505
330
500
100
AcDbEntity
  8
EASE-$ABSORBER
  0
POLYLINE
  5
506
330
1E
100
AcDbEntity
  8
EASE-$ABSORBER
100
AcDb3dPolyline
 66
     1
 10
0.0
 20
0.0
 30
0.0
 70
     9
  0
VERTEX
  5
507
330
506
100
AcDbEntity
  8
EASE-$ABSORBER
100
AcDbVertex
100
AcDb3dPolylineVertex
 10
5.257546999999999
 20
-10.42787
 30
3.465399999999999
 70
    32
  0
VERTEX
  5
508
330
506
100
AcDbEntity
  8
EASE-$ABSORBER
100
AcDbVertex
100
AcDb3dPolylineVertex
 10
3.497834999999999
 20
-10.42787
 30
3.4643
 70
    32
  0
VERTEX
  5
509
330
506
100
AcDbEntity
  8
EASE-$ABSORBER
100
AcDbVertex
100
AcDb3dPolylineVertex
 10
3.496662999999999
 20
-10.42787
 30
5.339944999999999
 70
    32
  0
VERTEX
  5
50A
330
506
100
AcDbEntity
  8
EASE-$ABSORBER
100
AcDbVertex
100
AcDb3dPolylineVertex
 10
5.256369999999999
 20
-10.42787
 30
5.341044999999999
 70
    32
  0
SEQEND
  5
50B
330
506
100
AcDbEntity
  8
EASE-$ABSORBER
  0
POLYLINE
  5
50C
330
1E
100
AcDbEntity
  8
EASE-$ABSORBER
100
AcDb3dPolyline
 66
     1
 10
0.0
 20
0.0
 30
0.0
 70
     9
  0
VERTEX
  5
50D
330
50C
100
AcDbEntity
  8
EASE-$ABSORBER
100
AcDbVertex
100
AcDb3dPolylineVertex
 10
-5.256369999999999
 20
-10.42787
 30
5.341044999999999
 70
    32
  0
VERTEX
  5
50E
330
50C
100
AcDbEntity
  8
EASE-$ABSORBER
100
AcDbVertex
100
AcDb3dPolylineVertex
 10
-3.496662999999999
 20
-10.42787
 30
5.339944999999999
 70
    32
  0
VERTEX
  5
50F
330
50C
100
AcDbEntity
  8
EASE-$ABSORBER
100
AcDbVertex
100
AcDb3dPolylineVertex
 10
-3.497834999999999
 20
-10.42787
 30
3.4643
 70
    32
  0
VERTEX
  5
510
330
50C
100
AcDbEntity
  8
EASE-$ABSORBER
100
AcDbVertex
100
AcDb3dPolylineVertex
 10
-5.257546999999999
 20
-10.42787
 30
3.465399999999999
 70
    32
  0
SEQEND
  5
511
330
50C
100
AcDbEntity
  8
EASE-$ABSORBER
  0
POLYLINE
  5
512
330
1E
100
AcDbEntity
  8
EASE-$ABSORBER
100
AcDb3dPolyline
 66
     1
 10
0.0
 20
0.0
 30
0.0
 70
     9
  0
VERTEX
  5
513
330
512
100
AcDbEntity
  8
EASE-$ABSORBER
100
AcDbVertex
100
AcDb3dPolylineVertex
 10
5.258561
 20
-10.42787
 30
1.841041999999999
 70
    32
  0
VERTEX
  5
514
330
512
100
AcDbEntity
  8
EASE-$ABSORBER
100
AcDbVertex
100
AcDb3dPolylineVertex
 10
2.561027
 20
-10.42787
 30
1.839354999999999
 70
    32
  0
VERTEX
  5
515
330
512
100
AcDbEntity
  8
EASE-$ABSORBER
100
AcDbVertex
100
AcDb3dPolylineVertex
 10
3.497834999999999
 20
-10.42787
 30
3.4643
 70
    32
  0
VERTEX
  5
516
330
512
100
AcDbEntity
  8
EASE-$ABSORBER
100
AcDbVertex
100
AcDb3dPolylineVertex
 10
5.257546999999999
 20
-10.42787
 30
3.465399999999999
 70
    32
  0
SEQEND
  5
517
330
512
100
AcDbEntity
  8
EASE-$ABSORBER
  0
POLYLINE
  5
518
330
1E
100
AcDbEntity
  8
EASE-$ABSORBER
100
AcDb3dPolyline
 66
     1
 10
0.0
 20
0.0
 30
0.0
 70
     9
  0
VERTEX
  5
519
330
518
100
AcDbEntity
  8
EASE-$ABSORBER
100
AcDbVertex
100
AcDb3dPolylineVertex
 10
-5.257546999999999
 20
-10.42787
 30
3.465399999999999
 70
    32
  0
VERTEX
  5
51A
330
518
100
AcDbEntity
  8
EASE-$ABSORBER
100
AcDbVertex
100
AcDb3dPolylineVertex
 10
-3.497834999999999
 20
-10.42787
 30
3.4643
 70
    32
  0
VERTEX
  5
51B
330
518
100
AcDbEntity
  8
EASE-$ABSORBER
100
AcDbVertex
100
AcDb3dPolylineVertex
 10
-2.561027
 20
-10.42787
 30
1.839354999999999
 70
    32
  0
VERTEX
  5
51C
330
518
100
AcDbEntity
  8
EASE-$ABSORBER
100
AcDbVertex
100
AcDb3dPolylineVertex
 10
-5.258561
 20
-10.42787
 30
1.841041999999999
 70
    32
  0
SEQEND
  5
51D
330
518
100
AcDbEntity
  8
EASE-$ABSORBER
  0
POLYLINE
  5
51E
330
1E
100
AcDbEntity
  8
EASE-$ABSORBER
100
AcDb3dPolyline
 66
     1
 10
0.0
 20
0.0
 30
0.0
 70
     9
  0
VERTEX
  5
51F
330
51E
100
AcDbEntity
  8
EASE-$ABSORBER
100
AcDbVertex
100
AcDb3dPolylineVertex
 10
5.259930999999999
 20
-10.42787
 30
-0.3467808
 70
    32
  0
VERTEX
  5
520
330
51E
100
AcDbEntity
  8
EASE-$ABSORBER
100
AcDbVertex
100
AcDb3dPolylineVertex
 10
2.562397
 20
-10.42787
 30
-0.3484677
 70
    32
  0
VERTEX
  5
521
330
51E
100
AcDbEntity
  8
EASE-$ABSORBER
100
AcDbVertex
100
AcDb3dPolylineVertex
 10
2.561027
 20
-10.42787
 30
1.839354999999999
 70
    32
  0
VERTEX
  5
522
330
51E
100
AcDbEntity
  8
EASE-$ABSORBER
100
AcDbVertex
100
AcDb3dPolylineVertex
 10
5.258561
 20
-10.42787
 30
1.841041999999999
 70
    32
  0
SEQEND
  5
523
330
51E
100
AcDbEntity
  8
EASE-$ABSORBER
  0
POLYLINE
  5
524
330
1E
100
AcDbEntity
  8
EASE-$ABSORBER
100
AcDb3dPolyline
 66
     1
 10
0.0
 20
0.0
 30
0.0
 70
     9
  0
VERTEX
  5
525
330
524
100
AcDbEntity
  8
EASE-$ABSORBER
100
AcDbVertex
100
AcDb3dPolylineVertex
 10
-5.258561
 20
-10.42787
 30
1.841041999999999
 70
    32
  0
VERTEX
  5
526
330
524
100
AcDbEntity
  8
EASE-$ABSORBER
100
AcDbVertex
100
AcDb3dPolylineVertex
 10
-2.561027
 20
-10.42787
 30
1.839354999999999
 70
    32
  0
VERTEX
  5
527
330
524
100
AcDbEntity
  8
EASE-$ABSORBER
100
AcDbVertex
100
AcDb3dPolylineVertex
 10
-2.562397
 20
-10.42787
 30
-0.3484677
 70
    32
  0
VERTEX
  5
528
330
524
100
AcDbEntity
  8
EASE-$ABSORBER
100
AcDbVertex
100
AcDb3dPolylineVertex
 10
-5.259930999999999
 20
-10.42787
 30
-0.3467808
 70
    32
  0
SEQEND
  5
529
330
524
100
AcDbEntity
  8
EASE-$ABSORBER
  0
POLYLINE
  5
52A
330
1E
100
AcDbEntity
  8
EASE-$ABSORBER
100
AcDb3dPolyline
 66
     1
 10
0.0
 20
0.0
 30
0.0
 70
     9
  0
VERTEX
  5
52B
330
52A
100
AcDbEntity
  8
EASE-$ABSORBER
100
AcDbVertex
100
AcDb3dPolylineVertex
 10
5.259930999999999
 20
-10.49403
 30
-0.3467808
 70
    32
  0
VERTEX
  5
52C
330
52A
100
AcDbEntity
  8
EASE-$ABSORBER
100
AcDbVertex
100
AcDb3dPolylineVertex
 10
2.500216999999999
 20
-10.78262
 30
-0.3485062
 70
    32
  0
VERTEX
  5
52D
330
52A
100
AcDbEntity
  8
EASE-$ABSORBER
100
AcDbVertex
100
AcDb3dPolylineVertex
 10
2.500216999999999
 20
-10.42787
 30
-0.3485062
 70
    32
  0
VERTEX
  5
52E
330
52A
100
AcDbEntity
  8
EASE-$ABSORBER
100
AcDbVertex
100
AcDb3dPolylineVertex
 10
5.259930999999999
 20
-10.42787
 30
-0.3467808
 70
    32
  0
SEQEND
  5
52F
330
52A
100
AcDbEntity
  8
EASE-$ABSORBER
  0
POLYLINE
  5
530
330
1E
100
AcDbEntity
  8
EASE-$ABSORBER
100
AcDb3dPolyline
 66
     1
 10
0.0
 20
0.0
 30
0.0
 70
     9
  0
VERTEX
  5
531
330
530
100
AcDbEntity
  8
EASE-$ABSORBER
100
AcDbVertex
100
AcDb3dPolylineVertex
 10
-5.259930999999999
 20
-10.42787
 30
-0.3467808
 70
    32
  0
VERTEX
  5
532
330
530
100
AcDbEntity
  8
EASE-$ABSORBER
100
AcDbVertex
100
AcDb3dPolylineVertex
 10
-2.500216999999999
 20
-10.42787
 30
-0.3485062
 70
    32
  0
VERTEX
  5
533
330
530
100
AcDbEntity
  8
EASE-$ABSORBER
100
AcDbVertex
100
AcDb3dPolylineVertex
 10
-2.500216999999999
 20
-10.78262
 30
-0.3485062
 70
    32
  0
VERTEX
  5
534
330
530
100
AcDbEntity
  8
EASE-$ABSORBER
100
AcDbVertex
100
AcDb3dPolylineVertex
 10
-5.259930999999999
 20
-10.49403
 30
-0.3467808
 70
    32
  0
SEQEND
  5
535
330
530
100
AcDbEntity
  8
EASE-$ABSORBER
  0
POLYLINE
  5
536
330
1E
100
AcDbEntity
  8
EASE-$ABSORBER
100
AcDb3dPolyline
 66
     1
 10
0.0
 20
0.0
 30
0.0
 70
     9
  0
VERTEX
  5
537
330
536
100
AcDbEntity
  8
EASE-$ABSORBER
100
AcDbVertex
100
AcDb3dPolylineVertex
 10
2.500216999999999
 20
-10.78262
 30
-0.3485062
 70
    32
  0
VERTEX
  5
538
330
536
100
AcDbEntity
  8
EASE-$ABSORBER
100
AcDbVertex
100
AcDb3dPolylineVertex
 10
5.259930999999999
 20
-10.49403
 30
-0.3467808
 70
    32
  0
VERTEX
  5
539
330
536
100
AcDbEntity
  8
EASE-$ABSORBER
100
AcDbVertex
100
AcDb3dPolylineVertex
 10
5.399115
 20
-10.47951
 30
-0.8230330999999999
 70
    32
  0
VERTEX
  5
53A
330
536
100
AcDbEntity
  8
EASE-$ABSORBER
100
AcDbVertex
100
AcDb3dPolylineVertex
 10
2.500525
 20
-10.78262
 30
-0.8386235
 70
    32
  0
SEQEND
  5
53B
330
536
100
AcDbEntity
  8
EASE-$ABSORBER
  0
POLYLINE
  5
53C
330
1E
100
AcDbEntity
  8
EASE-$ABSORBER
100
AcDb3dPolyline
 66
     1
 10
0.0
 20
0.0
 30
0.0
 70
     9
  0
VERTEX
  5
53D
330
53C
100
AcDbEntity
  8
EASE-$ABSORBER
100
AcDbVertex
100
AcDb3dPolylineVertex
 10
-2.500525
 20
-10.78262
 30
-0.8386235
 70
    32
  0
VERTEX
  5
53E
330
53C
100
AcDbEntity
  8
EASE-$ABSORBER
100
AcDbVertex
100
AcDb3dPolylineVertex
 10
-5.399115
 20
-10.47951
 30
-0.8230330999999999
 70
    32
  0
VERTEX
  5
53F
330
53C
100
AcDbEntity
  8
EASE-$ABSORBER
100
AcDbVertex
100
AcDb3dPolylineVertex
 10
-5.259930999999999
 20
-10.49403
 30
-0.3467808
 70
    32
  0
VERTEX
  5
540
330
53C
100
AcDbEntity
  8
EASE-$ABSORBER
100
AcDbVertex
100
AcDb3dPolylineVertex
 10
-2.500216999999999
 20
-10.78262
 30
-0.3485062
 70
    32
  0
SEQEND
  5
541
330
53C
100
AcDbEntity
  8
EASE-$ABSORBER
  0
POLYLINE
  5
542
330
1E
100
AcDbEntity
  8
EASE-$ABSORBER
100
AcDb3dPolyline
 66
     1
 10
0.0
 20
0.0
 30
0.0
 70
     9
  0
VERTEX
  5
543
330
542
100
AcDbEntity
  8
EASE-$ABSORBER
100
AcDbVertex
100
AcDb3dPolylineVertex
 10
0.9380435999999999
 20
-10.42787
 30
-0.3494817
 70
    32
  0
VERTEX
  5
544
330
542
100
AcDbEntity
  8
EASE-$ABSORBER
100
AcDbVertex
100
AcDb3dPolylineVertex
 10
0.9372601999999998
 20
-10.42787
 30
0.9005141
 70
    32
  0
VERTEX
  5
545
330
542
100
AcDbEntity
  8
EASE-$ABSORBER
100
AcDbVertex
100
AcDb3dPolylineVertex
 10
2.561027
 20
-10.42787
 30
1.839354999999999
 70
    32
  0
VERTEX
  5
546
330
542
100
AcDbEntity
  8
EASE-$ABSORBER
100
AcDbVertex
100
AcDb3dPolylineVertex
 10
2.562397
 20
-10.42787
 30
-0.3484677
 70
    32
  0
SEQEND
  5
547
330
542
100
AcDbEntity
  8
EASE-$ABSORBER
  0
POLYLINE
  5
548
330
1E
100
AcDbEntity
  8
EASE-$ABSORBER
100
AcDb3dPolyline
 66
     1
 10
0.0
 20
0.0
 30
0.0
 70
     9
  0
VERTEX
  5
549
330
548
100
AcDbEntity
  8
EASE-$ABSORBER
100
AcDbVertex
100
AcDb3dPolylineVertex
 10
-2.562397
 20
-10.42787
 30
-0.3484677
 70
    32
  0
VERTEX
  5
54A
330
548
100
AcDbEntity
  8
EASE-$ABSORBER
100
AcDbVertex
100
AcDb3dPolylineVertex
 10
-2.561027
 20
-10.42787
 30
1.839354999999999
 70
    32
  0
VERTEX
  5
54B
330
548
100
AcDbEntity
  8
EASE-$ABSORBER
100
AcDbVertex
100
AcDb3dPolylineVertex
 10
-0.9372601999999998
 20
-10.42787
 30
0.9005141
 70
    32
  0
VERTEX
  5
54C
330
548
100
AcDbEntity
  8
EASE-$ABSORBER
100
AcDbVertex
100
AcDb3dPolylineVertex
 10
-0.9380435999999999
 20
-10.42787
 30
-0.3494817
 70
    32
  0
SEQEND
  5
54D
330
548
100
AcDbEntity
  8
EASE-$ABSORBER
  0
POLYLINE
  5
54E
330
1E
100
AcDbEntity
  8
EASE-$ABSORBER
100
AcDb3dPolyline
 66
     1
 10
0.0
 20
0.0
 30
0.0
 70
     9
  0
VERTEX
  5
54F
330
54E
100
AcDbEntity
  8
EASE-$ABSORBER
100
AcDbVertex
100
AcDb3dPolylineVertex
 10
2.500216999999999
 20
-10.78262
 30
-0.3485062
 70
    32
  0
VERTEX
  5
550
330
54E
100
AcDbEntity
  8
EASE-$ABSORBER
100
AcDbVertex
100
AcDb3dPolylineVertex
 10
0.003258414
 20
-10.92787
 30
-0.3500680999999999
 70
    32
  0
VERTEX
  5
551
330
54E
100
AcDbEntity
  8
EASE-$ABSORBER
100
AcDbVertex
100
AcDb3dPolylineVertex
 10
0.003258414
 20
-10.42787
 30
-0.3500680999999999
 70
    32
  0
VERTEX
  5
552
330
54E
100
AcDbEntity
  8
EASE-$ABSORBER
100
AcDbVertex
100
AcDb3dPolylineVertex
 10
2.500216999999999
 20
-10.42787
 30
-0.3485062
 70
    32
  0
SEQEND
  5
553
330
54E
100
AcDbEntity
  8
EASE-$ABSORBER
  0
POLYLINE
  5
554
330
1E
100
AcDbEntity
  8
EASE-$ABSORBER
100
AcDb3dPolyline
 66
     1
 10
0.0
 20
0.0
 30
0.0
 70
     9
  0
VERTEX
  5
555
330
554
100
AcDbEntity
  8
EASE-$ABSORBER
100
AcDbVertex
100
AcDb3dPolylineVertex
 10
-2.500216999999999
 20
-10.42787
 30
-0.3485062
 70
    32
  0
VERTEX
  5
556
330
554
100
AcDbEntity
  8
EASE-$ABSORBER
100
AcDbVertex
100
AcDb3dPolylineVertex
 10
-0.003258414
 20
-10.42787
 30
-0.3500680999999999
 70
    32
  0
VERTEX
  5
557
330
554
100
AcDbEntity
  8
EASE-$ABSORBER
100
AcDbVertex
100
AcDb3dPolylineVertex
 10
-0.003258414
 20
-10.92787
 30
-0.3500680999999999
 70
    32
  0
VERTEX
  5
558
330
554
100
AcDbEntity
  8
EASE-$ABSORBER
100
AcDbVertex
100
AcDb3dPolylineVertex
 10
-2.500216999999999
 20
-10.78262
 30
-0.3485062
 70
    32
  0
SEQEND
  5
559
330
554
100
AcDbEntity
  8
EASE-$ABSORBER
  0
POLYLINE
  5
55A
330
1E
100
AcDbEntity
  8
EASE-$ABSORBER
100
AcDb3dPolyline
 66
     1
 10
0.0
 20
0.0
 30
0.0
 70
     9
  0
VERTEX
  5
55B
330
55A
100
AcDbEntity
  8
EASE-$ABSORBER
100
AcDbVertex
100
AcDb3dPolylineVertex
 10
0.003258414
 20
-10.92787
 30
-0.3500680999999999
 70
    32
  0
VERTEX
  5
55C
330
55A
100
AcDbEntity
  8
EASE-$ABSORBER
100
AcDbVertex
100
AcDb3dPolylineVertex
 10
2.500216999999999
 20
-10.78262
 30
-0.3485062
 70
    32
  0
VERTEX
  5
55D
330
55A
100
AcDbEntity
  8
EASE-$ABSORBER
100
AcDbVertex
100
AcDb3dPolylineVertex
 10
2.500534999999999
 20
-10.78262
 30
-0.8485043999999998
 70
    32
  0
VERTEX
  5
55E
330
55A
100
AcDbEntity
  8
EASE-$ABSORBER
100
AcDbVertex
100
AcDb3dPolylineVertex
 10
0.003570799
 20
-10.92787
 30
-0.8500712
 70
    32
  0
SEQEND
  5
55F
330
55A
100
AcDbEntity
  8
EASE-$ABSORBER
  0
POLYLINE
  5
560
330
1E
100
AcDbEntity
  8
EASE-$ABSORBER
100
AcDb3dPolyline
 66
     1
 10
0.0
 20
0.0
 30
0.0
 70
     9
  0
VERTEX
  5
561
330
560
100
AcDbEntity
  8
EASE-$ABSORBER
100
AcDbVertex
100
AcDb3dPolylineVertex
 10
-0.003570799
 20
-10.92787
 30
-0.8500712
 70
    32
  0
VERTEX
  5
562
330
560
100
AcDbEntity
  8
EASE-$ABSORBER
100
AcDbVertex
100
AcDb3dPolylineVertex
 10
-2.500534999999999
 20
-10.78262
 30
-0.8485043999999998
 70
    32
  0
VERTEX
  5
563
330
560
100
AcDbEntity
  8
EASE-$ABSORBER
100
AcDbVertex
100
AcDb3dPolylineVertex
 10
-2.500216999999999
 20
-10.78262
 30
-0.3485062
 70
    32
  0
VERTEX
  5
564
330
560
100
AcDbEntity
  8
EASE-$ABSORBER
100
AcDbVertex
100
AcDb3dPolylineVertex
 10
-0.003258414
 20
-10.92787
 30
-0.3500680999999999
 70
    32
  0
SEQEND
  5
565
330
560
100
AcDbEntity
  8
EASE-$ABSORBER
  0
POLYLINE
  5
566
330
1E
100
AcDbEntity
  8
EASE-$ABSORBER
100
AcDb3dPolyline
 66
     1
 10
0.0
 20
0.0
 30
0.0
 70
     9
  0
VERTEX
  5
567
330
566
100
AcDbEntity
  8
EASE-$ABSORBER
100
AcDbVertex
100
AcDb3dPolylineVertex
 10
5.259930999999999
 20
-10.49403
 30
-0.3467808
 70
    32
  0
VERTEX
  5
568
330
566
100
AcDbEntity
  8
EASE-$ABSORBER
100
AcDbVertex
100
AcDb3dPolylineVertex
 10
5.760011
 20
-10.44175
 30
-0.4707399000000001
 70
    32
  0
VERTEX
  5
569
330
566
100
AcDbEntity
  8
EASE-$ABSORBER
100
AcDbVertex
100
AcDb3dPolylineVertex
 10
5.399115
 20
-10.47951
 30
-0.8230330999999999
 70
    32
  0
SEQEND
  5
56A
330
566
100
AcDbEntity
  8
EASE-$ABSORBER
  0
POLYLINE
  5
56B
330
1E
100
AcDbEntity
  8
EASE-$ABSORBER
100
AcDb3dPolyline
 66
     1
 10
0.0
 20
0.0
 30
0.0
 70
     9
  0
VERTEX
  5
56C
330
56B
100
AcDbEntity
  8
EASE-$ABSORBER
100
AcDbVertex
100
AcDb3dPolylineVertex
 10
-5.399115
 20
-10.47951
 30
-0.8230330999999999
 70
    32
  0
VERTEX
  5
56D
330
56B
100
AcDbEntity
  8
EASE-$ABSORBER
100
AcDbVertex
100
AcDb3dPolylineVertex
 10
-5.760011
 20
-10.44175
 30
-0.4707399000000001
 70
    32
  0
VERTEX
  5
56E
330
56B
100
AcDbEntity
  8
EASE-$ABSORBER
100
AcDbVertex
100
AcDb3dPolylineVertex
 10
-5.259930999999999
 20
-10.49403
 30
-0.3467808
 70
    32
  0
SEQEND
  5
56F
330
56B
100
AcDbEntity
  8
EASE-$ABSORBER
  0
POLYLINE
  5
570
330
1E
100
AcDbEntity
  8
EASE-$ABSORBER
100
AcDb3dPolyline
 66
     1
 10
0.0
 20
0.0
 30
0.0
 70
     9
  0
VERTEX
  5
571
330
570
100
AcDbEntity
  8
EASE-$ABSORBER
100
AcDbVertex
100
AcDb3dPolylineVertex
 10
3.239479
 20
-7.927869999999999
 30
16.8189
 70
    32
  0
VERTEX
  5
572
330
570
100
AcDbEntity
  8
EASE-$ABSORBER
100
AcDbVertex
100
AcDb3dPolylineVertex
 10
3.239479
 20
-10.42787
 30
16.8189
 70
    32
  0
VERTEX
  5
573
330
570
100
AcDbEntity
  8
EASE-$ABSORBER
100
AcDbVertex
100
AcDb3dPolylineVertex
 10
3.240257
 20
-10.42787
 30
15.5689
 70
    32
  0
VERTEX
  5
574
330
570
100
AcDbEntity
  8
EASE-$ABSORBER
100
AcDbVertex
100
AcDb3dPolylineVertex
 10
3.240257
 20
-7.927869999999999
 30
15.5689
 70
    32
  0
SEQEND
  5
575
330
570
100
AcDbEntity
  8
EASE-$ABSORBER
  0
POLYLINE
  5
576
330
1E
100
AcDbEntity
  8
EASE-$ABSORBER
100
AcDb3dPolyline
 66
     1
 10
0.0
 20
0.0
 30
0.0
 70
     9
  0
VERTEX
  5
577
330
576
100
AcDbEntity
  8
EASE-$ABSORBER
100
AcDbVertex
100
AcDb3dPolylineVertex
 10
-3.240257
 20
-7.927869999999999
 30
15.5689
 70
    32
  0
VERTEX
  5
578
330
576
100
AcDbEntity
  8
EASE-$ABSORBER
100
AcDbVertex
100
AcDb3dPolylineVertex
 10
-3.240257
 20
-10.42787
 30
15.5689
 70
    32
  0
VERTEX
  5
579
330
576
100
AcDbEntity
  8
EASE-$ABSORBER
100
AcDbVertex
100
AcDb3dPolylineVertex
 10
-3.239479
 20
-10.42787
 30
16.8189
 70
    32
  0
VERTEX
  5
57A
330
576
100
AcDbEntity
  8
EASE-$ABSORBER
100
AcDbVertex
100
AcDb3dPolylineVertex
 10
-3.239479
 20
-7.927869999999999
 30
16.8189
 70
    32
  0
SEQEND
  5
57B
330
576
100
AcDbEntity
  8
EASE-$ABSORBER
  0
POLYLINE
  5
57C
330
1E
100
AcDbEntity
  8
EASE-$ABSORBER
100
AcDb3dPolyline
 66
     1
 10
0.0
 20
0.0
 30
0.0
 70
     9
  0
VERTEX
  5
57D
330
57C
100
AcDbEntity
  8
EASE-$ABSORBER
100
AcDbVertex
100
AcDb3dPolylineVertex
 10
3.991144
 20
-10.42787
 30
14.15243999999999
 70
    32
  0
VERTEX
  5
57E
330
57C
100
AcDbEntity
  8
EASE-$ABSORBER
100
AcDbVertex
100
AcDb3dPolylineVertex
 10
3.993959999999999
 20
-10.42787
 30
9.652435999999999
 70
    32
  0
VERTEX
  5
57F
330
57C
100
AcDbEntity
  8
EASE-$ABSORBER
100
AcDbVertex
100
AcDb3dPolylineVertex
 10
0.3928023
 20
-7.927869999999999
 30
11.50017999999999
 70
    32
  0
VERTEX
  5
580
330
57C
100
AcDbEntity
  8
EASE-$ABSORBER
100
AcDbVertex
100
AcDb3dPolylineVertex
 10
0.3923025
 20
-7.927869999999999
 30
12.30018999999999
 70
    32
  0
SEQEND
  5
581
330
57C
100
AcDbEntity
  8
EASE-$ABSORBER
  0
POLYLINE
  5
582
330
1E
100
AcDbEntity
  8
EASE-$ABSORBER
100
AcDb3dPolyline
 66
     1
 10
0.0
 20
0.0
 30
0.0
 70
     9
  0
VERTEX
  5
583
330
582
100
AcDbEntity
  8
EASE-$ABSORBER
100
AcDbVertex
100
AcDb3dPolylineVertex
 10
-0.3923025
 20
-7.927869999999999
 30
12.30018999999999
 70
    32
  0
VERTEX
  5
584
330
582
100
AcDbEntity
  8
EASE-$ABSORBER
100
AcDbVertex
100
AcDb3dPolylineVertex
 10
-0.3928023
 20
-7.927869999999999
 30
11.50017999999999
 70
    32
  0
VERTEX
  5
585
330
582
100
AcDbEntity
  8
EASE-$ABSORBER
100
AcDbVertex
100
AcDb3dPolylineVertex
 10
-3.993959999999999
 20
-10.42787
 30
9.652435999999999
 70
    32
  0
VERTEX
  5
586
330
582
100
AcDbEntity
  8
EASE-$ABSORBER
100
AcDbVertex
100
AcDb3dPolylineVertex
 10
-3.991144
 20
-10.42787
 30
14.15243999999999
 70
    32
  0
SEQEND
  5
587
330
582
100
AcDbEntity
  8
EASE-$ABSORBER
  0
POLYLINE
  5
588
330
1E
100
AcDbEntity
  8
EASE-$ABSORBER
100
AcDb3dPolyline
 66
     1
 10
0.0
 20
0.0
 30
0.0
 70
     9
  0
VERTEX
  5
589
330
588
100
AcDbEntity
  8
EASE-$ABSORBER
100
AcDbVertex
100
AcDb3dPolylineVertex
 10
5.247742999999999
 20
-10.42787
 30
19.12957
 70
    32
  0
VERTEX
  5
58A
330
588
100
AcDbEntity
  8
EASE-$ABSORBER
100
AcDbVertex
100
AcDb3dPolylineVertex
 10
5.249967999999999
 20
-10.42787
 30
15.57016
 70
    32
  0
VERTEX
  5
58B
330
588
100
AcDbEntity
  8
EASE-$ABSORBER
100
AcDbVertex
100
AcDb3dPolylineVertex
 10
3.240257
 20
-10.42787
 30
15.5689
 70
    32
  0
VERTEX
  5
58C
330
588
100
AcDbEntity
  8
EASE-$ABSORBER
100
AcDbVertex
100
AcDb3dPolylineVertex
 10
3.239479
 20
-10.42787
 30
16.8189
 70
    32
  0
SEQEND
  5
58D
330
588
100
AcDbEntity
  8
EASE-$ABSORBER
  0
POLYLINE
  5
58E
330
1E
100
AcDbEntity
  8
EASE-$ABSORBER
100
AcDb3dPolyline
 66
     1
 10
0.0
 20
0.0
 30
0.0
 70
     9
  0
VERTEX
  5
58F
330
58E
100
AcDbEntity
  8
EASE-$ABSORBER
100
AcDbVertex
100
AcDb3dPolylineVertex
 10
-3.239479
 20
-10.42787
 30
16.8189
 70
    32
  0
VERTEX
  5
590
330
58E
100
AcDbEntity
  8
EASE-$ABSORBER
100
AcDbVertex
100
AcDb3dPolylineVertex
 10
-3.240257
 20
-10.42787
 30
15.5689
 70
    32
  0
VERTEX
  5
591
330
58E
100
AcDbEntity
  8
EASE-$ABSORBER
100
AcDbVertex
100
AcDb3dPolylineVertex
 10
-5.249967999999999
 20
-10.42787
 30
15.57016
 70
    32
  0
VERTEX
  5
592
330
58E
100
AcDbEntity
  8
EASE-$ABSORBER
100
AcDbVertex
100
AcDb3dPolylineVertex
 10
-5.247742999999999
 20
-10.42787
 30
19.12957
 70
    32
  0
SEQEND
  5
593
330
58E
100
AcDbEntity
  8
EASE-$ABSORBER
  0
POLYLINE
  5
594
330
1E
100
AcDbEntity
  8
EASE-$ABSORBER
100
AcDb3dPolyline
 66
     1
 10
0.0
 20
0.0
 30
0.0
 70
     9
  0
VERTEX
  5
595
330
594
100
AcDbEntity
  8
EASE-$ABSORBER
100
AcDbVertex
100
AcDb3dPolylineVertex
 10
3.240257
 20
-10.42787
 30
15.5689
 70
    32
  0
VERTEX
  5
596
330
594
100
AcDbEntity
  8
EASE-$ABSORBER
100
AcDbVertex
100
AcDb3dPolylineVertex
 10
5.249967999999999
 20
-10.42787
 30
15.57016
 70
    32
  0
VERTEX
  5
597
330
594
100
AcDbEntity
  8
EASE-$ABSORBER
100
AcDbVertex
100
AcDb3dPolylineVertex
 10
5.250856999999999
 20
-10.42787
 30
14.15322
 70
    32
  0
VERTEX
  5
598
330
594
100
AcDbEntity
  8
EASE-$ABSORBER
100
AcDbVertex
100
AcDb3dPolylineVertex
 10
3.991144
 20
-10.42787
 30
14.15243999999999
 70
    32
  0
SEQEND
  5
599
330
594
100
AcDbEntity
  8
EASE-$ABSORBER
  0
POLYLINE
  5
59A
330
1E
100
AcDbEntity
  8
EASE-$ABSORBER
100
AcDb3dPolyline
 66
     1
 10
0.0
 20
0.0
 30
0.0
 70
     9
  0
VERTEX
  5
59B
330
59A
100
AcDbEntity
  8
EASE-$ABSORBER
100
AcDbVertex
100
AcDb3dPolylineVertex
 10
-3.991144
 20
-10.42787
 30
14.15243999999999
 70
    32
  0
VERTEX
  5
59C
330
59A
100
AcDbEntity
  8
EASE-$ABSORBER
100
AcDbVertex
100
AcDb3dPolylineVertex
 10
-5.250856999999999
 20
-10.42787
 30
14.15322
 70
    32
  0
VERTEX
  5
59D
330
59A
100
AcDbEntity
  8
EASE-$ABSORBER
100
AcDbVertex
100
AcDb3dPolylineVertex
 10
-5.249967999999999
 20
-10.42787
 30
15.57016
 70
    32
  0
VERTEX
  5
59E
330
59A
100
AcDbEntity
  8
EASE-$ABSORBER
100
AcDbVertex
100
AcDb3dPolylineVertex
 10
-3.240257
 20
-10.42787
 30
15.5689
 70
    32
  0
SEQEND
  5
59F
330
59A
100
AcDbEntity
  8
EASE-$ABSORBER
  0
POLYLINE
  5
5A0
330
1E
100
AcDbEntity
  8
EASE-$ABSORBER
100
AcDb3dPolyline
 66
     1
 10
0.0
 20
0.0
 30
0.0
 70
     9
  0
VERTEX
  5
5A1
330
5A0
100
AcDbEntity
  8
EASE-$ABSORBER
100
AcDbVertex
100
AcDb3dPolylineVertex
 10
2.488029999999999
 20
-10.42787
 30
19.12784
 70
    32
  0
VERTEX
  5
5A2
330
5A0
100
AcDbEntity
  8
EASE-$ABSORBER
100
AcDbVertex
100
AcDb3dPolylineVertex
 10
2.488029999999999
 20
-10.78262
 30
19.12784
 70
    32
  0
VERTEX
  5
5A3
330
5A0
100
AcDbEntity
  8
EASE-$ABSORBER
100
AcDbVertex
100
AcDb3dPolylineVertex
 10
5.247742999999999
 20
-10.49403
 30
19.12957
 70
    32
  0
VERTEX
  5
5A4
330
5A0
100
AcDbEntity
  8
EASE-$ABSORBER
100
AcDbVertex
100
AcDb3dPolylineVertex
 10
5.247742999999999
 20
-10.42787
 30
19.12957
 70
    32
  0
SEQEND
  5
5A5
330
5A0
100
AcDbEntity
  8
EASE-$ABSORBER
  0
POLYLINE
  5
5A6
330
1E
100
AcDbEntity
  8
EASE-$ABSORBER
100
AcDb3dPolyline
 66
     1
 10
0.0
 20
0.0
 30
0.0
 70
     9
  0
VERTEX
  5
5A7
330
5A6
100
AcDbEntity
  8
EASE-$ABSORBER
100
AcDbVertex
100
AcDb3dPolylineVertex
 10
-5.247742999999999
 20
-10.42787
 30
19.12957
 70
    32
  0
VERTEX
  5
5A8
330
5A6
100
AcDbEntity
  8
EASE-$ABSORBER
100
AcDbVertex
100
AcDb3dPolylineVertex
 10
-5.247742999999999
 20
-10.49403
 30
19.12957
 70
    32
  0
VERTEX
  5
5A9
330
5A6
100
AcDbEntity
  8
EASE-$ABSORBER
100
AcDbVertex
100
AcDb3dPolylineVertex
 10
-2.488029999999999
 20
-10.78262
 30
19.12784
 70
    32
  0
VERTEX
  5
5AA
330
5A6
100
AcDbEntity
  8
EASE-$ABSORBER
100
AcDbVertex
100
AcDb3dPolylineVertex
 10
-2.488029999999999
 20
-10.42787
 30
19.12784
 70
    32
  0
SEQEND
  5
5AB
330
5A6
100
AcDbEntity
  8
EASE-$ABSORBER
  0
POLYLINE
  5
5AC
330
1E
100
AcDbEntity
  8
EASE-$ABSORBER
100
AcDb3dPolyline
 66
     1
 10
0.0
 20
0.0
 30
0.0
 70
     9
  0
VERTEX
  5
5AD
330
5AC
100
AcDbEntity
  8
EASE-$ABSORBER
100
AcDbVertex
100
AcDb3dPolylineVertex
 10
2.487702999999999
 20
-10.78262
 30
19.65149999999999
 70
    32
  0
VERTEX
  5
5AE
330
5AC
100
AcDbEntity
  8
EASE-$ABSORBER
100
AcDbVertex
100
AcDb3dPolylineVertex
 10
5.386317
 20
-10.47951
 30
19.62966
 70
    32
  0
VERTEX
  5
5AF
330
5AC
100
AcDbEntity
  8
EASE-$ABSORBER
100
AcDbVertex
100
AcDb3dPolylineVertex
 10
5.247742999999999
 20
-10.49403
 30
19.12957
 70
    32
  0
VERTEX
  5
5B0
330
5AC
100
AcDbEntity
  8
EASE-$ABSORBER
100
AcDbVertex
100
AcDb3dPolylineVertex
 10
2.488029999999999
 20
-10.78262
 30
19.12784
 70
    32
  0
SEQEND
  5
5B1
330
5AC
100
AcDbEntity
  8
EASE-$ABSORBER
  0
POLYLINE
  5
5B2
330
1E
100
AcDbEntity
  8
EASE-$ABSORBER
100
AcDb3dPolyline
 66
     1
 10
0.0
 20
0.0
 30
0.0
 70
     9
  0
VERTEX
  5
5B3
330
5B2
100
AcDbEntity
  8
EASE-$ABSORBER
100
AcDbVertex
100
AcDb3dPolylineVertex
 10
-2.488029999999999
 20
-10.78262
 30
19.12784
 70
    32
  0
VERTEX
  5
5B4
330
5B2
100
AcDbEntity
  8
EASE-$ABSORBER
100
AcDbVertex
100
AcDb3dPolylineVertex
 10
-5.247742999999999
 20
-10.49403
 30
19.12957
 70
    32
  0
VERTEX
  5
5B5
330
5B2
100
AcDbEntity
  8
EASE-$ABSORBER
100
AcDbVertex
100
AcDb3dPolylineVertex
 10
-5.386317
 20
-10.47951
 30
19.62966
 70
    32
  0
VERTEX
  5
5B6
330
5B2
100
AcDbEntity
  8
EASE-$ABSORBER
100
AcDbVertex
100
AcDb3dPolylineVertex
 10
-2.487702999999999
 20
-10.78262
 30
19.65149999999999
 70
    32
  0
SEQEND
  5
5B7
330
5B2
100
AcDbEntity
  8
EASE-$ABSORBER
  0
POLYLINE
  5
5B8
330
1E
100
AcDbEntity
  8
EASE-$ABSORBER
100
AcDb3dPolyline
 66
     1
 10
0.0
 20
0.0
 30
0.0
 70
     9
  0
VERTEX
  5
5B9
330
5B8
100
AcDbEntity
  8
EASE-$ABSORBER
100
AcDbVertex
100
AcDb3dPolylineVertex
 10
2.488029999999999
 20
-10.42787
 30
19.12784
 70
    32
  0
VERTEX
  5
5BA
330
5B8
100
AcDbEntity
  8
EASE-$ABSORBER
100
AcDbVertex
100
AcDb3dPolylineVertex
 10
-0.0089294
 20
-10.42787
 30
19.12627999999999
 70
    32
  0
VERTEX
  5
5BB
330
5B8
100
AcDbEntity
  8
EASE-$ABSORBER
100
AcDbVertex
100
AcDb3dPolylineVertex
 10
-0.0089294
 20
-10.92787
 30
19.12627999999999
 70
    32
  0
VERTEX
  5
5BC
330
5B8
100
AcDbEntity
  8
EASE-$ABSORBER
100
AcDbVertex
100
AcDb3dPolylineVertex
 10
2.488029999999999
 20
-10.78262
 30
19.12784
 70
    32
  0
SEQEND
  5
5BD
330
5B8
100
AcDbEntity
  8
EASE-$ABSORBER
  0
POLYLINE
  5
5BE
330
1E
100
AcDbEntity
  8
EASE-$ABSORBER
100
AcDb3dPolyline
 66
     1
 10
0.0
 20
0.0
 30
0.0
 70
     9
  0
VERTEX
  5
5BF
330
5BE
100
AcDbEntity
  8
EASE-$ABSORBER
100
AcDbVertex
100
AcDb3dPolylineVertex
 10
-2.488029999999999
 20
-10.78262
 30
19.12784
 70
    32
  0
VERTEX
  5
5C0
330
5BE
100
AcDbEntity
  8
EASE-$ABSORBER
100
AcDbVertex
100
AcDb3dPolylineVertex
 10
0.0089294
 20
-10.92787
 30
19.12627999999999
 70
    32
  0
VERTEX
  5
5C1
330
5BE
100
AcDbEntity
  8
EASE-$ABSORBER
100
AcDbVertex
100
AcDb3dPolylineVertex
 10
0.0089294
 20
-10.42787
 30
19.12627999999999
 70
    32
  0
VERTEX
  5
5C2
330
5BE
100
AcDbEntity
  8
EASE-$ABSORBER
100
AcDbVertex
100
AcDb3dPolylineVertex
 10
-2.488029999999999
 20
-10.42787
 30
19.12784
 70
    32
  0
SEQEND
  5
5C3
330
5BE
100
AcDbEntity
  8
EASE-$ABSORBER
  0
POLYLINE
  5
5C4
330
1E
100
AcDbEntity
  8
EASE-$ABSORBER
100
AcDb3dPolyline
 66
     1
 10
0.0
 20
0.0
 30
0.0
 70
     9
  0
VERTEX
  5
5C5
330
5C4
100
AcDbEntity
  8
EASE-$ABSORBER
100
AcDbVertex
100
AcDb3dPolylineVertex
 10
-0.009256203
 20
-10.92787
 30
19.64994
 70
    32
  0
VERTEX
  5
5C6
330
5C4
100
AcDbEntity
  8
EASE-$ABSORBER
100
AcDbVertex
100
AcDb3dPolylineVertex
 10
2.487702999999999
 20
-10.78262
 30
19.65149999999999
 70
    32
  0
VERTEX
  5
5C7
330
5C4
100
AcDbEntity
  8
EASE-$ABSORBER
100
AcDbVertex
100
AcDb3dPolylineVertex
 10
2.488029999999999
 20
-10.78262
 30
19.12784
 70
    32
  0
VERTEX
  5
5C8
330
5C4
100
AcDbEntity
  8
EASE-$ABSORBER
100
AcDbVertex
100
AcDb3dPolylineVertex
 10
-0.0089294
 20
-10.92787
 30
19.12627999999999
 70
    32
  0
SEQEND
  5
5C9
330
5C4
100
AcDbEntity
  8
EASE-$ABSORBER
  0
POLYLINE
  5
5CA
330
1E
100
AcDbEntity
  8
EASE-$ABSORBER
100
AcDb3dPolyline
 66
     1
 10
0.0
 20
0.0
 30
0.0
 70
     9
  0
VERTEX
  5
5CB
330
5CA
100
AcDbEntity
  8
EASE-$ABSORBER
100
AcDbVertex
100
AcDb3dPolylineVertex
 10
0.0089294
 20
-10.92787
 30
19.12627999999999
 70
    32
  0
VERTEX
  5
5CC
330
5CA
100
AcDbEntity
  8
EASE-$ABSORBER
100
AcDbVertex
100
AcDb3dPolylineVertex
 10
-2.488029999999999
 20
-10.78262
 30
19.12784
 70
    32
  0
VERTEX
  5
5CD
330
5CA
100
AcDbEntity
  8
EASE-$ABSORBER
100
AcDbVertex
100
AcDb3dPolylineVertex
 10
-2.487702999999999
 20
-10.78262
 30
19.65149999999999
 70
    32
  0
VERTEX
  5
5CE
330
5CA
100
AcDbEntity
  8
EASE-$ABSORBER
100
AcDbVertex
100
AcDb3dPolylineVertex
 10
0.009256203
 20
-10.92787
 30
19.64994
 70
    32
  0
SEQEND
  5
5CF
330
5CA
100
AcDbEntity
  8
EASE-$ABSORBER
  0
POLYLINE
  5
5D0
330
1E
100
AcDbEntity
  8
EASE-$ABSORBER
100
AcDb3dPolyline
 66
     1
 10
0.0
 20
0.0
 30
0.0
 70
     9
  0
VERTEX
  5
5D1
330
5D0
100
AcDbEntity
  8
EASE-$ABSORBER
100
AcDbVertex
100
AcDb3dPolylineVertex
 10
3.991144
 20
-10.42787
 30
14.15243999999999
 70
    32
  0
VERTEX
  5
5D2
330
5D0
100
AcDbEntity
  8
EASE-$ABSORBER
100
AcDbVertex
100
AcDb3dPolylineVertex
 10
5.250856999999999
 20
-10.42787
 30
14.15322
 70
    32
  0
VERTEX
  5
5D3
330
5D0
100
AcDbEntity
  8
EASE-$ABSORBER
100
AcDbVertex
100
AcDb3dPolylineVertex
 10
5.253673
 20
-10.42787
 30
9.653225
 70
    32
  0
VERTEX
  5
5D4
330
5D0
100
AcDbEntity
  8
EASE-$ABSORBER
100
AcDbVertex
100
AcDb3dPolylineVertex
 10
3.993959999999999
 20
-10.42787
 30
9.652435999999999
 70
    32
  0
SEQEND
  5
5D5
330
5D0
100
AcDbEntity
  8
EASE-$ABSORBER
  0
POLYLINE
  5
5D6
330
1E
100
AcDbEntity
  8
EASE-$ABSORBER
100
AcDb3dPolyline
 66
     1
 10
0.0
 20
0.0
 30
0.0
 70
     9
  0
VERTEX
  5
5D7
330
5D6
100
AcDbEntity
  8
EASE-$ABSORBER
100
AcDbVertex
100
AcDb3dPolylineVertex
 10
-3.993959999999999
 20
-10.42787
 30
9.652435999999999
 70
    32
  0
VERTEX
  5
5D8
330
5D6
100
AcDbEntity
  8
EASE-$ABSORBER
100
AcDbVertex
100
AcDb3dPolylineVertex
 10
-5.253673
 20
-10.42787
 30
9.653225
 70
    32
  0
VERTEX
  5
5D9
330
5D6
100
AcDbEntity
  8
EASE-$ABSORBER
100
AcDbVertex
100
AcDb3dPolylineVertex
 10
-5.250856999999999
 20
-10.42787
 30
14.15322
 70
    32
  0
VERTEX
  5
5DA
330
5D6
100
AcDbEntity
  8
EASE-$ABSORBER
100
AcDbVertex
100
AcDb3dPolylineVertex
 10
-3.991144
 20
-10.42787
 30
14.15243999999999
 70
    32
  0
SEQEND
  5
5DB
330
5D6
100
AcDbEntity
  8
EASE-$ABSORBER
  0
POLYLINE
  5
5DC
330
1E
100
AcDbEntity
  8
EASE-$ABSORBER
100
AcDb3dPolyline
 66
     1
 10
0.0
 20
0.0
 30
0.0
 70
     9
  0
VERTEX
  5
5DD
330
5DC
100
AcDbEntity
  8
EASE-$ABSORBER
100
AcDbVertex
100
AcDb3dPolylineVertex
 10
5.74765
 20
-10.44175
 30
19.27781
 70
    32
  0
VERTEX
  5
5DE
330
5DC
100
AcDbEntity
  8
EASE-$ABSORBER
100
AcDbVertex
100
AcDb3dPolylineVertex
 10
5.247742999999999
 20
-10.49403
 30
19.12957
 70
    32
  0
VERTEX
  5
5DF
330
5DC
100
AcDbEntity
  8
EASE-$ABSORBER
100
AcDbVertex
100
AcDb3dPolylineVertex
 10
5.386317
 20
-10.47951
 30
19.62966
 70
    32
  0
SEQEND
  5
5E0
330
5DC
100
AcDbEntity
  8
EASE-$ABSORBER
  0
POLYLINE
  5
5E1
330
1E
100
AcDbEntity
  8
EASE-$ABSORBER
100
AcDb3dPolyline
 66
     1
 10
0.0
 20
0.0
 30
0.0
 70
     9
  0
VERTEX
  5
5E2
330
5E1
100
AcDbEntity
  8
EASE-$ABSORBER
100
AcDbVertex
100
AcDb3dPolylineVertex
 10
-5.386317
 20
-10.47951
 30
19.62966
 70
    32
  0
VERTEX
  5
5E3
330
5E1
100
AcDbEntity
  8
EASE-$ABSORBER
100
AcDbVertex
100
AcDb3dPolylineVertex
 10
-5.247742999999999
 20
-10.49403
 30
19.12957
 70
    32
  0
VERTEX
  5
5E4
330
5E1
100
AcDbEntity
  8
EASE-$ABSORBER
100
AcDbVertex
100
AcDb3dPolylineVertex
 10
-5.74765
 20
-10.44175
 30
19.27781
 70
    32
  0
SEQEND
  5
5E5
330
5E1
100
AcDbEntity
  8
EASE-$ABSORBER
  0
POLYLINE
  5
5E6
330
1E
100
AcDbEntity
  8
EASE-$ABSORBER
100
AcDb3dPolyline
 66
     1
 10
0.0
 20
0.0
 30
0.0
 70
     9
  0
VERTEX
  5
5E7
330
5E6
100
AcDbEntity
  8
EASE-$ABSORBER
100
AcDbVertex
100
AcDb3dPolylineVertex
 10
6.000258999999999
 20
-9.000003999999998
 30
-0.4050574000000001
 70
    32
  0
VERTEX
  5
5E8
330
5E6
100
AcDbEntity
  8
EASE-$ABSORBER
100
AcDbVertex
100
AcDb3dPolylineVertex
 10
4.130175
 20
-0.585712
 30
-0.0238662
 70
    32
  0
VERTEX
  5
5E9
330
5E6
100
AcDbEntity
  8
EASE-$ABSORBER
100
AcDbVertex
100
AcDb3dPolylineVertex
 10
3.815371999999999
 20
-0.7814186
 30
-0.3832
 70
    32
  0
VERTEX
  5
5EA
330
5E6
100
AcDbEntity
  8
EASE-$ABSORBER
100
AcDbVertex
100
AcDb3dPolylineVertex
 10
5.644073
 20
-9.009524
 30
-0.7560626
 70
    32
  0
SEQEND
  5
5EB
330
5E6
100
AcDbEntity
  8
EASE-$ABSORBER
  0
POLYLINE
  5
5EC
330
1E
100
AcDbEntity
  8
EASE-$ABSORBER
100
AcDb3dPolyline
 66
     1
 10
0.0
 20
0.0
 30
0.0
 70
     9
  0
VERTEX
  5
5ED
330
5EC
100
AcDbEntity
  8
EASE-$ABSORBER
100
AcDbVertex
100
AcDb3dPolylineVertex
 10
-5.644073
 20
-9.009524
 30
-0.7560626
 70
    32
  0
VERTEX
  5
5EE
330
5EC
100
AcDbEntity
  8
EASE-$ABSORBER
100
AcDbVertex
100
AcDb3dPolylineVertex
 10
-3.815371999999999
 20
-0.7814186
 30
-0.3832
 70
    32
  0
VERTEX
  5
5EF
330
5EC
100
AcDbEntity
  8
EASE-$ABSORBER
100
AcDbVertex
100
AcDb3dPolylineVertex
 10
-4.130175
 20
-0.585712
 30
-0.0238662
 70
    32
  0
VERTEX
  5
5F0
330
5EC
100
AcDbEntity
  8
EASE-$ABSORBER
100
AcDbVertex
100
AcDb3dPolylineVertex
 10
-6.000258999999999
 20
-9.000003999999998
 30
-0.4050574000000001
 70
    32
  0
SEQEND
  5
5F1
330
5EC
100
AcDbEntity
  8
EASE-$ABSORBER
  0
ENDSEC
  0
SECTION
  2
OBJECTS
  0
DICTIONARY
  5
C
330
0
100
AcDbDictionary
  3
ACAD_GROUP
350
D
  3
ACAD_LAYOUT
350
19
  3
ACAD_MLINESTYLE
350
16
  3
ACAD_PLOTSETTINGS
350
18
  3
ACAD_PLOTSTYLENAME
350
E
  3
ACDBHEADERROUNDTRIPXREC
350
614
  3
ACDBVARIABLEDICTIONARY
350
611
  0
DICTIONARY
  5
636
330
1E
100
AcDbDictionary
280
     1
  3
ACAD_LAYOUTSELFREF
360
637
  0
DICTIONARY
  5
634
330
1A
100
AcDbDictionary
280
     1
  3
ACAD_LAYOUTSELFREF
360
635
  0
DICTIONARY
  5
D
102
{ACAD_REACTORS
330
C
102
}
330
C
100
AcDbDictionary
  0
DICTIONARY
  5
19
102
{ACAD_REACTORS
330
C
102
}
330
C
100
AcDbDictionary
  0
DICTIONARY
  5
16
102
{ACAD_REACTORS
330
C
102
}
330
C
100
AcDbDictionary
  3
STANDARD
350
17
  0
DICTIONARY
  5
18
102
{ACAD_REACTORS
330
C
102
}
330
C
100
AcDbDictionary
  0
ACDBDICTIONARYWDFLT
  5
E
102
{ACAD_REACTORS
330
C
102
}
330
C
100
AcDbDictionary
281
     1
  3
Normal
350
F
100
AcDbDictionaryWithDefault
340
F
  0
DICTIONARY
  5
614
102
{ACAD_REACTORS
330
C
102
}
330
C
100
AcDbDictionary
  3
CEPSNTYPE
350
61E
  3
FINGERPRINTGUID
350
61F
  3
HYPERLINKBASE
350
617
  3
INSUNITS
350
61D
  3
LAYOUTDICT
350
619
  3
LWETCUNION
350
61C
  3
PLOTSETDICT
350
61A
  3
PLOTSTYLNAMDICT
350
61B
  3
PSVPSCALE
350
621
  3
PUCSBASE
350
624
  3
PUCSORGBACK
350
62A
  3
PUCSORGBOTTOM
350
626
  3
PUCSORGFRONT
350
629
  3
PUCSORGLEFT
350
627
  3
PUCSORGRIGHT
350
628
  3
PUCSORGTOP
350
625
  3
PUCSORTHOREF
350
622
  3
PUCSORTHOVIEW
350
623
  3
STYLESHEET
350
618
  3
TSTACKALIGN
350
615
  3
TSTACKSIZE
350
616
  3
UCSBASE
350
62D
  3
UCSORGBACK
350
633
  3
UCSORGBOTTOM
350
62F
  3
UCSORGFRONT
350
632
  3
UCSORGLEFT
350
630
  3
UCSORGRIGHT
350
631
  3
UCSORGTOP
350
62E
  3
UCSORTHOREF
350
62B
  3
UCSORTHOVIEW
350
62C
  3
VERSIONGUID
350
620
  0
DICTIONARY
  5
611
102
{ACAD_REACTORS
330
C
102
}
330
C
100
AcDbDictionary
  3
DIMASSOC
350
612
  0
XRECORD
  5
637
102
{ACAD_REACTORS
330
636
102
}
330
636
100
AcDbXrecord
340
1E
  0
XRECORD
  5
635
102
{ACAD_REACTORS
330
634
102
}
330
634
100
AcDbXrecord
340
1A
  0
MLINESTYLE
  5
17
102
{ACAD_REACTORS
330
16
102
}
330
16
100
AcDbMlineStyle
  2
STANDARD
 70
     0
  3

 62
   256
 51
90.0
 52
90.0
 71
     2
 49
0.5
 62
   256
  6
BYLAYER
 49
-0.5
 62
   256
  6
BYLAYER
  0
ACDBPLACEHOLDER
  5
F
102
{ACAD_REACTORS
330
E
102
}
330
E
100
AcDbPlaceHolder
280
     0
  0
XRECORD
  5
61E
102
{ACAD_REACTORS
330
614
102
}
330
614
100
AcDbXrecord
 90
        0
  0
XRECORD
  5
61F
102
{ACAD_REACTORS
330
614
102
}
330
614
100
AcDbXrecord
  1
{66FDFD30-D9A7-11D7-A99C-00B0D0B73D88}
  0
XRECORD
  5
617
102
{ACAD_REACTORS
330
614
102
}
330
614
100
AcDbXrecord
  1

  0
XRECORD
  5
61D
102
{ACAD_REACTORS
330
614
102
}
330
614
100
AcDbXrecord
 90
        0
  0
XRECORD
  5
619
102
{ACAD_REACTORS
330
614
102
}
330
614
100
AcDbXrecord
340
19
  0
XRECORD
  5
61C
102
{ACAD_REACTORS
330
614
102
}
330
614
100
AcDbXrecord
 90
    10781
  0
XRECORD
  5
61A
102
{ACAD_REACTORS
330
614
102
}
330
614
100
AcDbXrecord
340
18
  0
XRECORD
  5
61B
102
{ACAD_REACTORS
330
614
102
}
330
614
100
AcDbXrecord
340
E
  0
XRECORD
  5
621
102
{ACAD_REACTORS
330
614
102
}
330
614
100
AcDbXrecord
 40
0.0
  0
XRECORD
  5
624
102
{ACAD_REACTORS
330
614
102
}
330
614
100
AcDbXrecord
340
0
  0
XRECORD
  5
62A
102
{ACAD_REACTORS
330
614
102
}
330
614
100
AcDbXrecord
 10
0.0
 20
0.0
 30
0.0
  0
XRECORD
  5
626
102
{ACAD_REACTORS
330
614
102
}
330
614
100
AcDbXrecord
 10
0.0
 20
0.0
 30
0.0
  0
XRECORD
  5
629
102
{ACAD_REACTORS
330
614
102
}
330
614
100
AcDbXrecord
 10
0.0
 20
0.0
 30
0.0
  0
XRECORD
  5
627
102
{ACAD_REACTORS
330
614
102
}
330
614
100
AcDbXrecord
 10
0.0
 20
0.0
 30
0.0
  0
XRECORD
  5
628
102
{ACAD_REACTORS
330
614
102
}
330
614
100
AcDbXrecord
 10
0.0
 20
0.0
 30
0.0
  0
XRECORD
  5
625
102
{ACAD_REACTORS
330
614
102
}
330
614
100
AcDbXrecord
 10
0.0
 20
0.0
 30
0.0
  0
XRECORD
  5
622
102
{ACAD_REACTORS
330
614
102
}
330
614
100
AcDbXrecord
340
0
  0
XRECORD
  5
623
102
{ACAD_REACTORS
330
614
102
}
330
614
100
AcDbXrecord
 70
     0
  0
XRECORD
  5
618
102
{ACAD_REACTORS
330
614
102
}
330
614
100
AcDbXrecord
  1

  0
XRECORD
  5
615
102
{ACAD_REACTORS
330
614
102
}
330
614
100
AcDbXrecord
 90
        1
  0
XRECORD
  5
616
102
{ACAD_REACTORS
330
614
102
}
330
614
100
AcDbXrecord
 90
       70
  0
XRECORD
  5
62D
102
{ACAD_REACTORS
330
614
102
}
330
614
100
AcDbXrecord
340
0
  0
XRECORD
  5
633
102
{ACAD_REACTORS
330
614
102
}
330
614
100
AcDbXrecord
 10
0.0
 20
0.0
 30
0.0
  0
XRECORD
  5
62F
102
{ACAD_REACTORS
330
614
102
}
330
614
100
AcDbXrecord
 10
0.0
 20
0.0
 30
0.0
  0
XRECORD
  5
632
102
{ACAD_REACTORS
330
614
102
}
330
614
100
AcDbXrecord
 10
0.0
 20
0.0
 30
0.0
  0
XRECORD
  5
630
102
{ACAD_REACTORS
330
614
102
}
330
614
100
AcDbXrecord
 10
0.0
 20
0.0
 30
0.0
  0
XRECORD
  5
631
102
{ACAD_REACTORS
330
614
102
}
330
614
100
AcDbXrecord
 10
0.0
 20
0.0
 30
0.0
  0
XRECORD
  5
62E
102
{ACAD_REACTORS
330
614
102
}
330
614
100
AcDbXrecord
 10
0.0
 20
0.0
 30
0.0
  0
XRECORD
  5
62B
102
{ACAD_REACTORS
330
614
102
}
330
614
100
AcDbXrecord
340
0
  0
XRECORD
  5
62C
102
{ACAD_REACTORS
330
614
102
}
330
614
100
AcDbXrecord
 70
     3
  0
XRECORD
  5
620
102
{ACAD_REACTORS
330
614
102
}
330
614
100
AcDbXrecord
  1
{66FDFD33-D9A7-11D7-A99C-00B0D0B73D88}
  0
DICTIONARYVAR
  5
612
102
{ACAD_REACTORS
330
611
102
}
330
611
100
DictionaryVariables
280
     0
  1
1
  0
ENDSEC
  0
EOF
